  0
SECTION
  2
HEADER
  9
$EXTMIN
 10
489758.69           
 20
9110278.00          
  9
$EXTMAX
 10
839669.31           
 20
9341185.00          
  9
$LUPREC
 70
     7
  0
ENDSEC
  0
SECTION
  2
ENTITIES
  0
LINE
  8
0XAM_GRD
 10
500000.00
 20
9320000.00
 11
832064.75
 21
9320000.00
  0
LINE
  8
0XAM_GRD
 10
500000.00
 20
9300000.00
 11
831946.06
 21
9300000.00
  0
LINE
  8
0XAM_GRD
 10
500000.00
 20
9280000.00
 11
831827.44
 21
9280000.00
  0
LINE
  8
0XAM_GRD
 10
500000.00
 20
9260000.00
 11
831708.75
 21
9260000.00
  0
LINE
  8
0XAM_GRD
 10
500000.00
 20
9240000.00
 11
831590.13
 21
9240000.00
  0
LINE
  8
0XAM_GRD
 10
499907.97
 20
9220000.00
 11
831466.75
 21
9220000.00
  0
LINE
  8
0XAM_GRD
 10
499908.00
 20
9200000.00
 11
831329.94
 21
9200000.00
  0
LINE
  8
0XAM_GRD
 10
499908.06
 20
9180000.00
 11
831193.13
 21
9180000.00
  0
LINE
  8
0XAM_GRD
 10
499908.09
 20
9160000.00
 11
831056.31
 21
9160000.00
  0
LINE
  8
0XAM_GRD
 10
499908.13
 20
9140000.00
 11
830919.50
 21
9140000.00
  0
LINE
  8
0XAM_GRD
 10
499908.16
 20
9120000.00
 11
830782.69
 21
9120000.00
  0
LINE
  8
0XAM_GRD
 10
500000.00
 20
9115699.00
 11
500000.00
 21
9336793.00
  0
LINE
  8
0XAM_GRD
 10
520000.00
 20
9115662.00
 11
520000.00
 21
9336766.00
  0
LINE
  8
0XAM_GRD
 10
540000.00
 20
9115626.00
 11
540000.00
 21
9336738.00
  0
LINE
  8
0XAM_GRD
 10
560000.00
 20
9115590.00
 11
560000.00
 21
9336711.00
  0
LINE
  8
0XAM_GRD
 10
580000.00
 20
9115553.00
 11
580000.00
 21
9336684.00
  0
LINE
  8
0XAM_GRD
 10
600000.00
 20
9115517.00
 11
600000.00
 21
9336656.00
  0
LINE
  8
0XAM_GRD
 10
620000.00
 20
9115480.00
 11
620000.00
 21
9336629.00
  0
LINE
  8
0XAM_GRD
 10
640000.00
 20
9115444.00
 11
640000.00
 21
9336602.00
  0
LINE
  8
0XAM_GRD
 10
660000.00
 20
9115408.00
 11
660000.00
 21
9336574.00
  0
LINE
  8
0XAM_GRD
 10
680000.00
 20
9115318.00
 11
680000.00
 21
9336509.00
  0
LINE
  8
0XAM_GRD
 10
700000.00
 20
9115208.00
 11
700000.00
 21
9336427.00
  0
LINE
  8
0XAM_GRD
 10
720000.00
 20
9115099.00
 11
720000.00
 21
9336344.00
  0
LINE
  8
0XAM_GRD
 10
740000.00
 20
9114989.00
 11
740000.00
 21
9336262.00
  0
LINE
  8
0XAM_GRD
 10
760000.00
 20
9114880.00
 11
760000.00
 21
9336180.00
  0
LINE
  8
0XAM_GRD
 10
780000.00
 20
9114771.00
 11
780000.00
 21
9336098.00
  0
LINE
  8
0XAM_GRD
 10
800000.00
 20
9114661.00
 11
800000.00
 21
9336016.00
  0
LINE
  8
0XAM_GRD
 10
820000.00
 20
9114552.00
 11
820000.00
 21
9335934.00
  0
TEXT
  8
1XAM_GRD
 10
679368.81
 20
9337677.00
 40
1000.00
  1
80
  0
TEXT
  8
1XAM_GRD
 10
499321.63
 20
9341157.00
 40
1000.00
  1
00
  0
TEXT
  8
1XAM_GRD
 10
499916.16
 20
9110278.00
 40
1000.00
  1
00 KmE
  0
TEXT
  8
1XAM_GRD
 10
495221.81
 20
9219779.00
 40
1000.00
  1
92
  0
TEXT
  8
1XAM_GRD
 10
496875.81
 20
9219755.00
 40
1000.00
  1
20
  0
TEXT
  8
1XAM_GRD
 10
494934.91
 20
9200336.00
 40
1000.00
  1
92
  0
TEXT
  8
1XAM_GRD
 10
496588.91
 20
9200311.00
 40
1000.00
  1
00
  0
TEXT
  8
1XAM_GRD
 10
495053.81
 20
9180336.00
 40
1000.00
  1
91
  0
TEXT
  8
1XAM_GRD
 10
496588.91
 20
9180311.00
 40
1000.00
  1
80
  0
TEXT
  8
1XAM_GRD
 10
495053.81
 20
9160336.00
 40
1000.00
  1
91
  0
TEXT
  8
1XAM_GRD
 10
496588.91
 20
9160311.00
 40
1000.00
  1
60
  0
TEXT
  8
1XAM_GRD
 10
495364.94
 20
9140025.00
 40
1000.00
  1
91
  0
TEXT
  8
1XAM_GRD
 10
496900.03
 20
9140000.00
 40
1000.00
  1
40
  0
TEXT
  8
1XAM_GRD
 10
493301.19
 20
9119373.00
 40
1000.00
  1
91
  0
TEXT
  8
1XAM_GRD
 10
494836.28
 20
9119348.00
 40
1000.00
  1
20 KmN
  0
TEXT
  8
1XAM_GRD
 10
498999.97
 20
9110306.00
 40
1000.00
  1
5
  0
TEXT
  8
1XAM_GRD
 10
494792.94
 20
9319589.00
 40
1000.00
  1
93
  0
TEXT
  8
1XAM_GRD
 10
496510.72
 20
9319540.00
 40
1000.00
  1
20
  0
TEXT
  8
1XAM_GRD
 10
494950.63
 20
9299580.00
 40
1000.00
  1
93
  0
TEXT
  8
1XAM_GRD
 10
496720.28
 20
9299599.00
 40
1000.00
  1
00
  0
TEXT
  8
1XAM_GRD
 10
495066.28
 20
9279624.00
 40
1000.00
  1
92
  0
TEXT
  8
1XAM_GRD
 10
496720.28
 20
9279599.00
 40
1000.00
  1
80
  0
TEXT
  8
1XAM_GRD
 10
495066.28
 20
9259624.00
 40
1000.00
  1
92
  0
TEXT
  8
1XAM_GRD
 10
496720.28
 20
9259599.00
 40
1000.00
  1
60
  0
TEXT
  8
1XAM_GRD
 10
495066.28
 20
9239624.00
 40
1000.00
  1
92
  0
TEXT
  8
1XAM_GRD
 10
496720.28
 20
9239599.00
 40
1000.00
  1
40
  0
TEXT
  8
1XAM_GRD
 10
498405.47
 20
9341185.00
 40
1000.00
  1
5
  0
TEXT
  8
1XAM_GRD
 10
518583.81
 20
9111910.00
 40
1000.00
  1
5
  0
TEXT
  8
1XAM_GRD
 10
519500.00
 20
9111882.00
 40
1000.00
  1
20
  0
TEXT
  8
1XAM_GRD
 10
518822.72
 20
9338164.00
 40
1000.00
  1
5
  0
TEXT
  8
1XAM_GRD
 10
519738.91
 20
9338136.00
 40
1000.00
  1
20
  0
TEXT
  8
1XAM_GRD
 10
538583.81
 20
9111910.00
 40
1000.00
  1
5
  0
TEXT
  8
1XAM_GRD
 10
539500.00
 20
9111882.00
 40
1000.00
  1
40
  0
TEXT
  8
1XAM_GRD
 10
538822.75
 20
9338164.00
 40
1000.00
  1
5
  0
TEXT
  8
1XAM_GRD
 10
539738.94
 20
9338136.00
 40
1000.00
  1
40
  0
TEXT
  8
1XAM_GRD
 10
558583.81
 20
9111910.00
 40
1000.00
  1
5
  0
TEXT
  8
1XAM_GRD
 10
559500.00
 20
9111882.00
 40
1000.00
  1
60
  0
TEXT
  8
1XAM_GRD
 10
558822.75
 20
9338164.00
 40
1000.00
  1
5
  0
TEXT
  8
1XAM_GRD
 10
559738.94
 20
9338136.00
 40
1000.00
  1
60
  0
TEXT
  8
1XAM_GRD
 10
578583.81
 20
9111910.00
 40
1000.00
  1
5
  0
TEXT
  8
1XAM_GRD
 10
579500.00
 20
9111882.00
 40
1000.00
  1
80
  0
TEXT
  8
1XAM_GRD
 10
578822.75
 20
9338067.00
 40
1000.00
  1
5
  0
TEXT
  8
1XAM_GRD
 10
579738.94
 20
9338039.00
 40
1000.00
  1
80
  0
TEXT
  8
1XAM_GRD
 10
598499.50
 20
9111944.00
 40
1000.00
  1
6
  0
TEXT
  8
1XAM_GRD
 10
599500.00
 20
9111882.00
 40
1000.00
  1
00
  0
TEXT
  8
1XAM_GRD
 10
598738.38
 20
9338102.00
 40
1000.00
  1
6
  0
TEXT
  8
1XAM_GRD
 10
599738.94
 20
9338039.00
 40
1000.00
  1
00
  0
TEXT
  8
1XAM_GRD
 10
618499.50
 20
9111944.00
 40
1000.00
  1
6
  0
TEXT
  8
1XAM_GRD
 10
619500.00
 20
9111882.00
 40
1000.00
  1
20
  0
TEXT
  8
1XAM_GRD
 10
618738.38
 20
9338102.00
 40
1000.00
  1
6
  0
TEXT
  8
1XAM_GRD
 10
619738.94
 20
9338039.00
 40
1000.00
  1
20
  0
TEXT
  8
1XAM_GRD
 10
638499.50
 20
9111944.00
 40
1000.00
  1
6
  0
TEXT
  8
1XAM_GRD
 10
639500.00
 20
9111882.00
 40
1000.00
  1
40
  0
TEXT
  8
1XAM_GRD
 10
638853.94
 20
9337837.00
 40
1000.00
  1
6
  0
TEXT
  8
1XAM_GRD
 10
639854.44
 20
9337774.00
 40
1000.00
  1
40
  0
TEXT
  8
1XAM_GRD
 10
657386.44
 20
9111388.00
 40
1000.00
  1
6
  0
TEXT
  8
1XAM_GRD
 10
658386.94
 20
9111326.00
 40
1000.00
  1
60
  0
TEXT
  8
1XAM_GRD
 10
658368.31
 20
9337740.00
 40
1000.00
  1
6
  0
TEXT
  8
1XAM_GRD
 10
659368.81
 20
9337677.00
 40
1000.00
  1
60
  0
TEXT
  8
1XAM_GRD
 10
677386.44
 20
9111388.00
 40
1000.00
  1
6
  0
TEXT
  8
1XAM_GRD
 10
678386.94
 20
9111326.00
 40
1000.00
  1
80
  0
TEXT
  8
1XAM_GRD
 10
678368.31
 20
9337740.00
 40
1000.00
  1
6
  0
TEXT
  8
1XAM_GRD
 10
697386.44
 20
9111326.00
 40
1000.00
  1
7
  0
TEXT
  8
1XAM_GRD
 10
698386.94
 20
9111326.00
 40
1000.00
  1
00
  0
TEXT
  8
1XAM_GRD
 10
698368.31
 20
9337677.00
 40
1000.00
  1
7
  0
TEXT
  8
1XAM_GRD
 10
699368.81
 20
9337677.00
 40
1000.00
  1
00
  0
TEXT
  8
1XAM_GRD
 10
717386.44
 20
9111326.00
 40
1000.00
  1
7
  0
TEXT
  8
1XAM_GRD
 10
718386.94
 20
9111326.00
 40
1000.00
  1
20
  0
TEXT
  8
1XAM_GRD
 10
718368.31
 20
9337677.00
 40
1000.00
  1
7
  0
TEXT
  8
1XAM_GRD
 10
719368.81
 20
9337677.00
 40
1000.00
  1
20
  0
TEXT
  8
1XAM_GRD
 10
737386.44
 20
9111326.00
 40
1000.00
  1
7
  0
TEXT
  8
1XAM_GRD
 10
738386.94
 20
9111326.00
 40
1000.00
  1
40
  0
TEXT
  8
1XAM_GRD
 10
738465.44
 20
9337483.00
 40
1000.00
  1
7
  0
TEXT
  8
1XAM_GRD
 10
739465.94
 20
9337483.00
 40
1000.00
  1
40
  0
TEXT
  8
1XAM_GRD
 10
757386.44
 20
9111326.00
 40
1000.00
  1
7
  0
TEXT
  8
1XAM_GRD
 10
758386.94
 20
9111326.00
 40
1000.00
  1
60
  0
TEXT
  8
1XAM_GRD
 10
758465.44
 20
9337483.00
 40
1000.00
  1
7
  0
TEXT
  8
1XAM_GRD
 10
759465.94
 20
9337483.00
 40
1000.00
  1
60
  0
TEXT
  8
1XAM_GRD
 10
777386.44
 20
9111326.00
 40
1000.00
  1
7
  0
TEXT
  8
1XAM_GRD
 10
778386.94
 20
9111326.00
 40
1000.00
  1
80
  0
TEXT
  8
1XAM_GRD
 10
778465.44
 20
9337483.00
 40
1000.00
  1
7
  0
TEXT
  8
1XAM_GRD
 10
779465.94
 20
9337483.00
 40
1000.00
  1
80
  0
TEXT
  8
1XAM_GRD
 10
797261.31
 20
9111326.00
 40
1000.00
  1
8
  0
TEXT
  8
1XAM_GRD
 10
798386.94
 20
9111326.00
 40
1000.00
  1
00
  0
TEXT
  8
1XAM_GRD
 10
798340.25
 20
9337483.00
 40
1000.00
  1
8
  0
TEXT
  8
1XAM_GRD
 10
799465.94
 20
9337483.00
 40
1000.00
  1
00
  0
TEXT
  8
1XAM_GRD
 10
818324.88
 20
9111533.00
 40
1000.00
  1
8
  0
TEXT
  8
1XAM_GRD
 10
819450.50
 20
9111533.00
 40
1000.00
  1
20 KmE
  0
TEXT
  8
1XAM_GRD
 10
818700.25
 20
9337483.00
 40
1000.00
  1
8
  0
TEXT
  8
1XAM_GRD
 10
819825.88
 20
9337483.00
 40
1000.00
  1
20
  0
TEXT
  8
1XAM_GRD
 10
834304.06
 20
9219854.00
 40
1000.00
  1
20
  0
TEXT
  8
1XAM_GRD
 10
834860.63
 20
9200410.00
 40
1000.00
  1
00
  0
TEXT
  8
1XAM_GRD
 10
833524.81
 20
9119473.00
 40
1000.00
  1
20 KmN
  0
TEXT
  8
1XAM_GRD
 10
832650.06
 20
9219878.00
 40
1000.00
  1
92
  0
TEXT
  8
1XAM_GRD
 10
833206.63
 20
9200435.00
 40
1000.00
  1
92
  0
TEXT
  8
1XAM_GRD
 10
832447.81
 20
9180288.00
 40
1000.00
  1
91
  0
TEXT
  8
1XAM_GRD
 10
833982.88
 20
9180264.00
 40
1000.00
  1
80
  0
TEXT
  8
1XAM_GRD
 10
832447.81
 20
9160288.00
 40
1000.00
  1
91
  0
TEXT
  8
1XAM_GRD
 10
833982.88
 20
9160264.00
 40
1000.00
  1
60
  0
TEXT
  8
1XAM_GRD
 10
832447.81
 20
9140288.00
 40
1000.00
  1
91
  0
TEXT
  8
1XAM_GRD
 10
833982.88
 20
9140264.00
 40
1000.00
  1
40
  0
TEXT
  8
1XAM_GRD
 10
831989.75
 20
9119498.00
 40
1000.00
  1
91
  0
TEXT
  8
1XAM_GRD
 10
834770.19
 20
9319724.00
 40
1000.00
  1
20
  0
TEXT
  8
1XAM_GRD
 10
835040.50
 20
9299986.00
 40
1000.00
  1
00
  0
TEXT
  8
1XAM_GRD
 10
834742.94
 20
9280000.00
 40
1000.00
  1
80
  0
TEXT
  8
1XAM_GRD
 10
834742.94
 20
9260000.00
 40
1000.00
  1
60
  0
TEXT
  8
1XAM_GRD
 10
834304.06
 20
9239854.00
 40
1000.00
  1
40
  0
TEXT
  8
1XAM_GRD
 10
832894.13
 20
9319716.00
 40
1000.00
  1
93
  0
TEXT
  8
1XAM_GRD
 10
833148.44
 20
9299986.00
 40
1000.00
  1
93
  0
TEXT
  8
1XAM_GRD
 10
833088.94
 20
9280025.00
 40
1000.00
  1
92
  0
TEXT
  8
1XAM_GRD
 10
833088.94
 20
9260025.00
 40
1000.00
  1
92
  0
TEXT
  8
1XAM_GRD
 10
490107.81
 20
9335542.00
 40
1000.00
  1
s -6
  0
TEXT
  8
1XAM_GRD
 10
495333.53
 20
9336172.00
 40
1000.00
  1
o
  0
TEXT
  8
1XAM_GRD
 10
496414.72
 20
9335361.00
 40
1000.00
  1
00'
  0
TEXT
  8
1XAM_GRD
 10
497495.91
 20
9337975.00
 40
1000.00
  1
o 51
  0
TEXT
  8
1XAM_GRD
 10
502271.16
 20
9338696.00
 40
1000.00
  1
o
  0
TEXT
  8
1XAM_GRD
 10
503532.56
 20
9337795.00
 40
1000.00
  1
00'
  0
TEXT
  8
1XAM_GRD
 10
489758.69
 20
9116485.00
 40
1000.00
  1
s -8
  0
TEXT
  8
1XAM_GRD
 10
495164.63
 20
9117296.00
 40
1000.00
  1
o
  0
TEXT
  8
1XAM_GRD
 10
496426.00
 20
9116485.00
 40
1000.00
  1
00'
  0
TEXT
  8
1XAM_GRD
 10
496786.41
 20
9113691.00
 40
1000.00
  1
o 51
  0
TEXT
  8
1XAM_GRD
 10
501471.53
 20
9114321.00
 40
1000.00
  1
o
  0
TEXT
  8
1XAM_GRD
 10
502732.94
 20
9113691.00
 40
1000.00
  1
00'
  0
TEXT
  8
1XAM_GRD
 10
831763.13
 20
9115178.00
 40
1000.00
  1
s -8
  0
TEXT
  8
1XAM_GRD
 10
837169.06
 20
9115899.00
 40
1000.00
  1
o
  0
TEXT
  8
1XAM_GRD
 10
838520.56
 20
9115268.00
 40
1000.00
  1
00'
  0
TEXT
  8
1XAM_GRD
 10
825906.69
 20
9112474.00
 40
1000.00
  1
o 48
  0
TEXT
  8
1XAM_GRD
 10
831222.56
 20
9113195.00
 40
1000.00
  1
o
  0
TEXT
  8
1XAM_GRD
 10
832574.00
 20
9112654.00
 40
1000.00
  1
00'
  0
TEXT
  8
1XAM_GRD
 10
832866.88
 20
9239915.00
 40
1000.00
  1
92
  0
TEXT
  8
1XAM_GRD
 10
833002.00
 20
9334280.00
 40
1000.00
  1
s -6
  0
TEXT
  8
1XAM_GRD
 10
838317.88
 20
9334911.00
 40
1000.00
  1
o
  0
TEXT
  8
1XAM_GRD
 10
839669.31
 20
9334280.00
 40
1000.00
  1
00'
  0
TEXT
  8
1XAM_GRD
 10
826244.56
 20
9336984.00
 40
1000.00
  1
o 48
  0
TEXT
  8
1XAM_GRD
 10
831560.44
 20
9337614.00
 40
1000.00
  1
o
  0
TEXT
  8
1XAM_GRD
 10
832911.94
 20
9336984.00
 40
1000.00
  1
00'
  0
ENDSEC
  0
EOF
