  0
SECTION
  2
HEADER
  9
$EXTMIN
 10
159715.22           
 20
9110912.00          
  9
$EXTMAX
 10
505697.72           
 20
9340148.00          
  9
$LUPREC
 70
     7
  0
ENDSEC
  0
SECTION
  2
ENTITIES
  0
LINE
  8
0TOC_GRD
 10
168053.91
 20
9300000.00
 11
500000.00
 21
9300000.00
  0
LINE
  8
0TOC_GRD
 10
168172.55
 20
9280000.00
 11
500000.00
 21
9280000.00
  0
LINE
  8
0TOC_GRD
 10
168291.20
 20
9260000.00
 11
500000.00
 21
9260000.00
  0
LINE
  8
0TOC_GRD
 10
168409.86
 20
9240000.00
 11
500000.00
 21
9240000.00
  0
LINE
  8
0TOC_GRD
 10
168533.23
 20
9220000.00
 11
500000.00
 21
9220000.00
  0
LINE
  8
0TOC_GRD
 10
168670.05
 20
9200000.00
 11
500000.00
 21
9200000.00
  0
LINE
  8
0TOC_GRD
 10
168806.86
 20
9180000.00
 11
500000.00
 21
9180000.00
  0
LINE
  8
0TOC_GRD
 10
168943.67
 20
9160000.00
 11
500000.00
 21
9160000.00
  0
LINE
  8
0TOC_GRD
 10
169080.48
 20
9140000.00
 11
500000.00
 21
9140000.00
  0
LINE
  8
0TOC_GRD
 10
169217.30
 20
9120000.00
 11
500000.00
 21
9120000.00
  0
LINE
  8
0TOC_GRD
 10
167935.25
 20
9320000.00
 11
500000.00
 21
9320000.00
  0
LINE
  8
0TOC_GRD
 10
169217.30
 20
9120000.00
 11
500000.00
 21
9120000.00
  0
LINE
  8
0TOC_GRD
 10
169080.48
 20
9140000.00
 11
500000.00
 21
9140000.00
  0
LINE
  8
0TOC_GRD
 10
168943.67
 20
9160000.00
 11
500000.00
 21
9160000.00
  0
LINE
  8
0TOC_GRD
 10
168806.86
 20
9180000.00
 11
500000.00
 21
9180000.00
  0
LINE
  8
0TOC_GRD
 10
168670.05
 20
9200000.00
 11
500000.00
 21
9200000.00
  0
LINE
  8
0TOC_GRD
 10
168533.23
 20
9220000.00
 11
500000.00
 21
9220000.00
  0
LINE
  8
0TOC_GRD
 10
168409.88
 20
9240000.00
 11
500000.00
 21
9240000.00
  0
LINE
  8
0TOC_GRD
 10
168291.22
 20
9260000.00
 11
500000.00
 21
9260000.00
  0
LINE
  8
0TOC_GRD
 10
168172.56
 20
9280000.00
 11
500000.00
 21
9280000.00
  0
LINE
  8
0TOC_GRD
 10
168053.91
 20
9300000.00
 11
500000.00
 21
9300000.00
  0
LINE
  8
0TOC_GRD
 10
167935.25
 20
9320000.00
 11
500000.00
 21
9320000.00
  0
LINE
  8
0TOC_GRD
 10
180000.00
 20
9114552.00
 11
180000.00
 21
9335934.00
  0
LINE
  8
0TOC_GRD
 10
200000.00
 20
9114661.00
 11
200000.00
 21
9336016.00
  0
LINE
  8
0TOC_GRD
 10
220000.00
 20
9114771.00
 11
220000.00
 21
9336098.00
  0
LINE
  8
0TOC_GRD
 10
240000.00
 20
9114880.00
 11
240000.00
 21
9336180.00
  0
LINE
  8
0TOC_GRD
 10
260000.00
 20
9114989.00
 11
260000.00
 21
9336262.00
  0
LINE
  8
0TOC_GRD
 10
280000.00
 20
9115099.00
 11
280000.00
 21
9336344.00
  0
LINE
  8
0TOC_GRD
 10
300000.00
 20
9115208.00
 11
300000.00
 21
9336427.00
  0
LINE
  8
0TOC_GRD
 10
320000.00
 20
9115318.00
 11
320000.00
 21
9336509.00
  0
LINE
  8
0TOC_GRD
 10
340000.00
 20
9115408.00
 11
340000.00
 21
9336574.00
  0
LINE
  8
0TOC_GRD
 10
360000.00
 20
9115444.00
 11
360000.00
 21
9336602.00
  0
LINE
  8
0TOC_GRD
 10
380000.00
 20
9115481.00
 11
380000.00
 21
9336629.00
  0
LINE
  8
0TOC_GRD
 10
400000.00
 20
9115517.00
 11
400000.00
 21
9336656.00
  0
LINE
  8
0TOC_GRD
 10
420000.00
 20
9115553.00
 11
420000.00
 21
9336684.00
  0
LINE
  8
0TOC_GRD
 10
440000.00
 20
9115590.00
 11
440000.00
 21
9336711.00
  0
LINE
  8
0TOC_GRD
 10
460000.00
 20
9115626.00
 11
460000.00
 21
9336738.00
  0
LINE
  8
0TOC_GRD
 10
480000.00
 20
9115663.00
 11
480000.00
 21
9336766.00
  0
LINE
  8
0TOC_GRD
 10
500000.00
 20
9120000.00
 11
500000.00
 21
9320000.00
  0
TEXT
  8
1TOC_GRD
 10
163113.88
 20
9320000.00
 40
1000.00
  1
20 KmN
  0
TEXT
  8
1TOC_GRD
 10
162814.34
 20
9119865.00
 40
1000.00
  1
91
  0
TEXT
  8
1TOC_GRD
 10
163500.00
 20
9300000.00
 40
1000.00
  1
00
  0
TEXT
  8
1TOC_GRD
 10
163500.00
 20
9280000.00
 40
1000.00
  1
80
  0
TEXT
  8
1TOC_GRD
 10
161447.11
 20
9320020.00
 40
1000.00
  1
93
  0
TEXT
  8
1TOC_GRD
 10
161804.20
 20
9279996.00
 40
1000.00
  1
92
  0
TEXT
  8
1TOC_GRD
 10
161833.25
 20
9300020.00
 40
1000.00
  1
93
  0
TEXT
  8
1TOC_GRD
 10
164257.42
 20
9119823.00
 40
1000.00
  1
20 KmN
  0
TEXT
  8
1TOC_GRD
 10
164411.97
 20
9139878.00
 40
1000.00
  1
91
  0
TEXT
  8
1TOC_GRD
 10
164411.97
 20
9159878.00
 40
1000.00
  1
91
  0
TEXT
  8
1TOC_GRD
 10
164411.97
 20
9179878.00
 40
1000.00
  1
91
  0
TEXT
  8
1TOC_GRD
 10
164449.17
 20
9199857.00
 40
1000.00
  1
92
  0
TEXT
  8
1TOC_GRD
 10
164449.17
 20
9219857.00
 40
1000.00
  1
92
  0
TEXT
  8
1TOC_GRD
 10
166144.97
 20
9219861.00
 40
1000.00
  1
20
  0
TEXT
  8
1TOC_GRD
 10
166144.97
 20
9199861.00
 40
1000.00
  1
00
  0
TEXT
  8
1TOC_GRD
 10
165866.55
 20
9179861.00
 40
1000.00
  1
80
  0
TEXT
  8
1TOC_GRD
 10
165866.55
 20
9159861.00
 40
1000.00
  1
60
  0
TEXT
  8
1TOC_GRD
 10
165866.55
 20
9139861.00
 40
1000.00
  1
40
  0
TEXT
  8
1TOC_GRD
 10
180664.42
 20
9336893.00
 40
1000.00
  1
80 KmE
  0
TEXT
  8
1TOC_GRD
 10
164449.17
 20
9239857.00
 40
1000.00
  1
92
  0
TEXT
  8
1TOC_GRD
 10
164449.17
 20
9259857.00
 40
1000.00
  1
92
  0
TEXT
  8
1TOC_GRD
 10
180003.20
 20
9336959.00
 40
1000.00
  1
1
  0
TEXT
  8
1TOC_GRD
 10
166144.97
 20
9259861.00
 40
1000.00
  1
60
  0
TEXT
  8
1TOC_GRD
 10
166144.97
 20
9239861.00
 40
1000.00
  1
40
  0
TEXT
  8
1TOC_GRD
 10
179865.91
 20
9112303.00
 40
1000.00
  1
80 KmE
  0
TEXT
  8
1TOC_GRD
 10
178948.53
 20
9112303.00
 40
1000.00
  1
1
  0
TEXT
  8
1TOC_GRD
 10
200170.48
 20
9337290.00
 40
1000.00
  1
00
  0
TEXT
  8
1TOC_GRD
 10
199509.27
 20
9337290.00
 40
1000.00
  1
2
  0
TEXT
  8
1TOC_GRD
 10
200110.64
 20
9112553.00
 40
1000.00
  1
00
  0
TEXT
  8
1TOC_GRD
 10
199214.11
 20
9112553.00
 40
1000.00
  1
2
  0
TEXT
  8
1TOC_GRD
 10
220463.70
 20
9337022.00
 40
1000.00
  1
20
  0
TEXT
  8
1TOC_GRD
 10
219588.03
 20
9337022.00
 40
1000.00
  1
2
  0
TEXT
  8
1TOC_GRD
 10
219542.23
 20
9112970.00
 40
1000.00
  1
20
  0
TEXT
  8
1TOC_GRD
 10
218624.86
 20
9112970.00
 40
1000.00
  1
2
  0
TEXT
  8
1TOC_GRD
 10
240494.72
 20
9337351.00
 40
1000.00
  1
40
  0
TEXT
  8
1TOC_GRD
 10
239509.58
 20
9337351.00
 40
1000.00
  1
2
  0
TEXT
  8
1TOC_GRD
 10
239390.83
 20
9112970.00
 40
1000.00
  1
40
  0
TEXT
  8
1TOC_GRD
 10
238556.84
 20
9112970.00
 40
1000.00
  1
2
  0
TEXT
  8
1TOC_GRD
 10
260306.81
 20
9337351.00
 40
1000.00
  1
60
  0
TEXT
  8
1TOC_GRD
 10
259650.06
 20
9337351.00
 40
1000.00
  1
2
  0
TEXT
  8
1TOC_GRD
 10
258674.14
 20
9113100.00
 40
1000.00
  1
2
  0
TEXT
  8
1TOC_GRD
 10
259703.03
 20
9113100.00
 40
1000.00
  1
60
  0
TEXT
  8
1TOC_GRD
 10
280964.81
 20
9337419.00
 40
1000.00
  1
80
  0
TEXT
  8
1TOC_GRD
 10
279894.84
 20
9337419.00
 40
1000.00
  1
2
  0
TEXT
  8
1TOC_GRD
 10
279014.31
 20
9113021.00
 40
1000.00
  1
2
  0
TEXT
  8
1TOC_GRD
 10
280043.19
 20
9113021.00
 40
1000.00
  1
80
  0
TEXT
  8
1TOC_GRD
 10
299475.50
 20
9337419.00
 40
1000.00
  1
3
  0
TEXT
  8
1TOC_GRD
 10
300438.47
 20
9337312.00
 40
1000.00
  1
00
  0
TEXT
  8
1TOC_GRD
 10
298483.91
 20
9113100.00
 40
1000.00
  1
3
  0
TEXT
  8
1TOC_GRD
 10
299433.63
 20
9113100.00
 40
1000.00
  1
00
  0
TEXT
  8
1TOC_GRD
 10
319484.16
 20
9337526.00
 40
1000.00
  1
3
  0
TEXT
  8
1TOC_GRD
 10
320447.13
 20
9337526.00
 40
1000.00
  1
20
  0
TEXT
  8
1TOC_GRD
 10
318691.00
 20
9113354.00
 40
1000.00
  1
3
  0
TEXT
  8
1TOC_GRD
 10
319693.72
 20
9113354.00
 40
1000.00
  1
20
  0
TEXT
  8
1TOC_GRD
 10
339544.63
 20
9337658.00
 40
1000.00
  1
3
  0
TEXT
  8
1TOC_GRD
 10
340535.00
 20
9337548.00
 40
1000.00
  1
40
  0
TEXT
  8
1TOC_GRD
 10
338634.13
 20
9113242.00
 40
1000.00
  1
3
  0
TEXT
  8
1TOC_GRD
 10
339414.00
 20
9113242.00
 40
1000.00
  1
40
  0
TEXT
  8
1TOC_GRD
 10
359792.00
 20
9337658.00
 40
1000.00
  1
3
  0
TEXT
  8
1TOC_GRD
 10
360672.31
 20
9337658.00
 40
1000.00
  1
60
  0
TEXT
  8
1TOC_GRD
 10
358465.81
 20
9113354.00
 40
1000.00
  1
3
  0
TEXT
  8
1TOC_GRD
 10
359468.53
 20
9113354.00
 40
1000.00
  1
60
  0
TEXT
  8
1TOC_GRD
 10
379819.28
 20
9337768.00
 40
1000.00
  1
3
  0
TEXT
  8
1TOC_GRD
 10
380809.66
 20
9337768.00
 40
1000.00
  1
80
  0
TEXT
  8
1TOC_GRD
 10
378631.75
 20
9113465.00
 40
1000.00
  1
3
  0
TEXT
  8
1TOC_GRD
 10
379634.47
 20
9113465.00
 40
1000.00
  1
80
  0
TEXT
  8
1TOC_GRD
 10
399300.50
 20
9337556.00
 40
1000.00
  1
4
  0
TEXT
  8
1TOC_GRD
 10
400237.22
 20
9337471.00
 40
1000.00
  1
00
  0
TEXT
  8
1TOC_GRD
 10
398434.44
 20
9113501.00
 40
1000.00
  1
4
  0
TEXT
  8
1TOC_GRD
 10
399354.34
 20
9113501.00
 40
1000.00
  1
00
  0
TEXT
  8
1TOC_GRD
 10
419823.19
 20
9337726.00
 40
1000.00
  1
4
  0
TEXT
  8
1TOC_GRD
 10
420759.91
 20
9337726.00
 40
1000.00
  1
20
  0
TEXT
  8
1TOC_GRD
 10
497822.22
 20
9340029.00
 40
1000.00
  1
00 KmE
  0
TEXT
  8
1TOC_GRD
 10
498793.84
 20
9110912.00
 40
1000.00
  1
00 KmE
  0
TEXT
  8
1TOC_GRD
 10
460119.00
 20
9337652.00
 40
1000.00
  1
60
  0
TEXT
  8
1TOC_GRD
 10
418570.25
 20
9113501.00
 40
1000.00
  1
4
  0
TEXT
  8
1TOC_GRD
 10
419694.56
 20
9113501.00
 40
1000.00
  1
20
  0
TEXT
  8
1TOC_GRD
 10
439579.47
 20
9337726.00
 40
1000.00
  1
4
  0
TEXT
  8
1TOC_GRD
 10
440601.34
 20
9337726.00
 40
1000.00
  1
40
  0
TEXT
  8
1TOC_GRD
 10
439114.88
 20
9113706.00
 40
1000.00
  1
4
  0
TEXT
  8
1TOC_GRD
 10
440034.78
 20
9113706.00
 40
1000.00
  1
40
  0
TEXT
  8
1TOC_GRD
 10
459319.94
 20
9337741.00
 40
1000.00
  1
4
  0
TEXT
  8
1TOC_GRD
 10
459104.66
 20
9113879.00
 40
1000.00
  1
4
  0
TEXT
  8
1TOC_GRD
 10
460192.47
 20
9113879.00
 40
1000.00
  1
60
  0
TEXT
  8
1TOC_GRD
 10
479118.56
 20
9337652.00
 40
1000.00
  1
4
  0
TEXT
  8
1TOC_GRD
 10
480183.94
 20
9337652.00
 40
1000.00
  1
80
  0
TEXT
  8
1TOC_GRD
 10
498078.78
 20
9110912.00
 40
1000.00
  1
5
  0
TEXT
  8
1TOC_GRD
 10
496749.94
 20
9340148.00
 40
1000.00
  1
5
  0
TEXT
  8
1TOC_GRD
 10
502000.00
 20
9120000.00
 40
1000.00
  1
20 KmN
  0
TEXT
  8
1TOC_GRD
 10
500545.44
 20
9120017.00
 40
1000.00
  1
91
  0
TEXT
  8
1TOC_GRD
 10
500545.44
 20
9140017.00
 40
1000.00
  1
91
  0
TEXT
  8
1TOC_GRD
 10
500545.44
 20
9160017.00
 40
1000.00
  1
91
  0
TEXT
  8
1TOC_GRD
 10
500545.44
 20
9180017.00
 40
1000.00
  1
91
  0
TEXT
  8
1TOC_GRD
 10
500304.22
 20
9199996.00
 40
1000.00
  1
92
  0
TEXT
  8
1TOC_GRD
 10
500304.22
 20
9219996.00
 40
1000.00
  1
92
  0
TEXT
  8
1TOC_GRD
 10
502000.00
 20
9220000.00
 40
1000.00
  1
20
  0
TEXT
  8
1TOC_GRD
 10
502000.00
 20
9200000.00
 40
1000.00
  1
00
  0
TEXT
  8
1TOC_GRD
 10
502000.00
 20
9180000.00
 40
1000.00
  1
80
  0
TEXT
  8
1TOC_GRD
 10
502000.00
 20
9160000.00
 40
1000.00
  1
60
  0
TEXT
  8
1TOC_GRD
 10
502000.00
 20
9140000.00
 40
1000.00
  1
40
  0
TEXT
  8
1TOC_GRD
 10
502000.00
 20
9320000.00
 40
1000.00
  1
20 KmN
  0
TEXT
  8
1TOC_GRD
 10
500304.22
 20
9239996.00
 40
1000.00
  1
92
  0
TEXT
  8
1TOC_GRD
 10
500304.22
 20
9259996.00
 40
1000.00
  1
92
  0
TEXT
  8
1TOC_GRD
 10
500304.22
 20
9279996.00
 40
1000.00
  1
92
  0
TEXT
  8
1TOC_GRD
 10
500333.25
 20
9300020.00
 40
1000.00
  1
93
  0
TEXT
  8
1TOC_GRD
 10
500333.25
 20
9320020.00
 40
1000.00
  1
93
  0
TEXT
  8
1TOC_GRD
 10
502000.00
 20
9300000.00
 40
1000.00
  1
00
  0
TEXT
  8
1TOC_GRD
 10
502000.00
 20
9280000.00
 40
1000.00
  1
80
  0
TEXT
  8
1TOC_GRD
 10
502000.00
 20
9260000.00
 40
1000.00
  1
60
  0
TEXT
  8
1TOC_GRD
 10
501784.22
 20
9239938.00
 40
1000.00
  1
40
  0
TEXT
  8
1TOC_GRD
 10
170457.17
 20
9336596.00
 40
1000.00
  1
00'
  0
TEXT
  8
1TOC_GRD
 10
169311.05
 20
9337308.00
 40
1000.00
  1
o
  0
TEXT
  8
1TOC_GRD
 10
165408.06
 20
9336720.00
 40
1000.00
  1
o
  0
TEXT
  8
1TOC_GRD
 10
166709.05
 20
9336627.00
 40
1000.00
  1
48
  0
TEXT
  8
1TOC_GRD
 10
159715.22
 20
9333679.00
 40
1000.00
  1
s
  0
TEXT
  8
1TOC_GRD
 10
160915.55
 20
9333486.00
 40
1000.00
  1
-6
  0
TEXT
  8
1TOC_GRD
 10
163354.92
 20
9334183.00
 40
1000.00
  1
o
  0
TEXT
  8
1TOC_GRD
 10
164477.80
 20
9333524.00
 40
1000.00
  1
00'
  0
TEXT
  8
1TOC_GRD
 10
160635.81
 20
9114711.00
 40
1000.00
  1
s
  0
TEXT
  8
1TOC_GRD
 10
162320.14
 20
9114595.00
 40
1000.00
  1
-8
  0
TEXT
  8
1TOC_GRD
 10
164875.67
 20
9115350.00
 40
1000.00
  1
o
  0
TEXT
  8
1TOC_GRD
 10
165892.08
 20
9114624.00
 40
1000.00
  1
00'
  0
TEXT
  8
1TOC_GRD
 10
165078.95
 20
9112532.00
 40
1000.00
  1
o
  0
TEXT
  8
1TOC_GRD
 10
166240.56
 20
9112387.00
 40
1000.00
  1
48
  0
TEXT
  8
1TOC_GRD
 10
168825.14
 20
9113259.00
 40
1000.00
  1
o
  0
TEXT
  8
1TOC_GRD
 10
169870.58
 20
9112387.00
 40
1000.00
  1
00'
  0
TEXT
  8
1TOC_GRD
 10
493533.22
 20
9337645.00
 40
1000.00
  1
o
  0
TEXT
  8
1TOC_GRD
 10
494962.91
 20
9337645.00
 40
1000.00
  1
45
  0
TEXT
  8
1TOC_GRD
 10
497822.22
 20
9338479.00
 40
1000.00
  1
o
  0
TEXT
  8
1TOC_GRD
 10
499013.59
 20
9337645.00
 40
1000.00
  1
00'
  0
TEXT
  8
1TOC_GRD
 10
500493.56
 20
9335524.00
 40
1000.00
  1
s
  0
TEXT
  8
1TOC_GRD
 10
501875.56
 20
9335481.00
 40
1000.00
  1
-6
  0
TEXT
  8
1TOC_GRD
 10
504380.47
 20
9336129.00
 40
1000.00
  1
o
  0
TEXT
  8
1TOC_GRD
 10
505546.53
 20
9335481.00
 40
1000.00
  1
00'
  0
TEXT
  8
1TOC_GRD
 10
497721.25
 20
9113773.00
 40
1000.00
  1
45
  0
TEXT
  8
1TOC_GRD
 10
500224.00
 20
9114488.00
 40
1000.00
  1
o
  0
TEXT
  8
1TOC_GRD
 10
501296.59
 20
9113773.00
 40
1000.00
  1
00'
  0
TEXT
  8
1TOC_GRD
 10
496291.13
 20
9113773.00
 40
1000.00
  1
o
  0
TEXT
  8
1TOC_GRD
 10
505697.72
 20
9115890.00
 40
1000.00
  1
00'
  0
TEXT
  8
1TOC_GRD
 10
504609.06
 20
9116530.00
 40
1000.00
  1
o
  0
TEXT
  8
1TOC_GRD
 10
502079.59
 20
9115858.00
 40
1000.00
  1
-8
  0
TEXT
  8
1TOC_GRD
 10
500478.66
 20
9115922.00
 40
1000.00
  1
s
  0
TEXT
  8
1TOC_GRD
 10
479187.38
 20
9113377.00
 40
1000.00
  1
4
  0
TEXT
  8
1TOC_GRD
 10
480107.84
 20
9113377.00
 40
1000.00
  1
80
  0
ENDSEC
  0
EOF
