  0
SECTION
  2
HEADER
  9
$EXTMIN
 10
173488.41           
 20
9114519.00          
  9
$EXTMAX
 10
237751.00           
 20
9336138.00          
  9
$LUPREC
 70
     7
  0
ENDSEC
  0
SECTION
  2
ENTITIES
  0
LINE
  8
0TOC_DRE
 10
228641.61
 20
9336133.00
 11
229785.16
 21
9336138.00
  0
POLYLINE
  8
0TOC_DRE
 66
     1
  0
VERTEX
  8
0TOC_DRE
 10
229785.16
 20
9336138.00
  0
VERTEX
  8
0TOC_DRE
 10
229862.00
 20
9336021.00
  0
VERTEX
  8
0TOC_DRE
 10
229879.95
 20
9335964.00
  0
VERTEX
  8
0TOC_DRE
 10
229958.83
 20
9335794.00
  0
VERTEX
  8
0TOC_DRE
 10
230092.28
 20
9335504.00
  0
VERTEX
  8
0TOC_DRE
 10
230175.45
 20
9335202.00
  0
VERTEX
  8
0TOC_DRE
 10
230235.06
 20
9335001.00
  0
VERTEX
  8
0TOC_DRE
 10
230342.64
 20
9334655.00
  0
VERTEX
  8
0TOC_DRE
 10
230481.05
 20
9334278.00
  0
VERTEX
  8
0TOC_DRE
 10
230662.36
 20
9333837.00
  0
VERTEX
  8
0TOC_DRE
 10
230963.77
 20
9333469.00
  0
VERTEX
  8
0TOC_DRE
 10
231123.69
 20
9333273.00
  0
VERTEX
  8
0TOC_DRE
 10
231123.50
 20
9333260.00
  0
VERTEX
  8
0TOC_DRE
 10
231252.20
 20
9333071.00
  0
VERTEX
  8
0TOC_DRE
 10
231329.28
 20
9332782.00
  0
VERTEX
  8
0TOC_DRE
 10
231485.17
 20
9332316.00
  0
VERTEX
  8
0TOC_DRE
 10
231565.34
 20
9331814.00
  0
VERTEX
  8
0TOC_DRE
 10
231568.67
 20
9331201.00
  0
VERTEX
  8
0TOC_DRE
 10
231560.22
 20
9330637.00
  0
VERTEX
  8
0TOC_DRE
 10
231557.56
 20
9330043.00
  0
VERTEX
  8
0TOC_DRE
 10
231538.00
 20
9329574.00
  0
VERTEX
  8
0TOC_DRE
 10
231451.23
 20
9329218.00
  0
VERTEX
  8
0TOC_DRE
 10
231404.30
 20
9329012.00
  0
VERTEX
  8
0TOC_DRE
 10
231362.97
 20
9328763.00
  0
VERTEX
  8
0TOC_DRE
 10
231329.41
 20
9328613.00
  0
VERTEX
  8
0TOC_DRE
 10
231314.42
 20
9328313.00
  0
SEQEND
  8
0TOC_DRE
  0
POLYLINE
  8
0TOC_DRE
 66
     1
  0
VERTEX
  8
0TOC_DRE
 10
231090.88
 20
9327772.00
  0
VERTEX
  8
0TOC_DRE
 10
231184.91
 20
9327954.00
  0
VERTEX
  8
0TOC_DRE
 10
231261.20
 20
9328129.00
  0
VERTEX
  8
0TOC_DRE
 10
231314.42
 20
9328313.00
  0
SEQEND
  8
0TOC_DRE
  0
POLYLINE
  8
0TOC_DRE
 66
     1
  0
VERTEX
  8
0TOC_DRE
 10
234081.59
 20
9314150.00
  0
VERTEX
  8
0TOC_DRE
 10
234219.47
 20
9314154.00
  0
VERTEX
  8
0TOC_DRE
 10
234356.95
 20
9314133.00
  0
VERTEX
  8
0TOC_DRE
 10
234569.52
 20
9314105.00
  0
VERTEX
  8
0TOC_DRE
 10
234769.83
 20
9314096.00
  0
VERTEX
  8
0TOC_DRE
 10
234932.45
 20
9314081.00
  0
VERTEX
  8
0TOC_DRE
 10
235153.13
 20
9313758.00
  0
VERTEX
  8
0TOC_DRE
 10
235430.33
 20
9313448.00
  0
VERTEX
  8
0TOC_DRE
 10
235710.55
 20
9313337.00
  0
VERTEX
  8
0TOC_DRE
 10
235795.78
 20
9313173.00
  0
VERTEX
  8
0TOC_DRE
 10
235949.63
 20
9312989.00
  0
VERTEX
  8
0TOC_DRE
 10
236027.47
 20
9312750.00
  0
VERTEX
  8
0TOC_DRE
 10
236062.16
 20
9312556.00
  0
VERTEX
  8
0TOC_DRE
 10
236065.13
 20
9312336.00
  0
VERTEX
  8
0TOC_DRE
 10
236082.03
 20
9312211.00
  0
VERTEX
  8
0TOC_DRE
 10
236079.69
 20
9312055.00
  0
VERTEX
  8
0TOC_DRE
 10
236047.33
 20
9311986.00
  0
VERTEX
  8
0TOC_DRE
 10
235984.14
 20
9311950.00
  0
VERTEX
  8
0TOC_DRE
 10
235670.20
 20
9312317.00
  0
VERTEX
  8
0TOC_DRE
 10
235450.20
 20
9312684.00
  0
VERTEX
  8
0TOC_DRE
 10
235102.31
 20
9312877.00
  0
VERTEX
  8
0TOC_DRE
 10
234797.42
 20
9313013.00
  0
VERTEX
  8
0TOC_DRE
 10
234530.77
 20
9313192.00
  0
VERTEX
  8
0TOC_DRE
 10
234338.78
 20
9313339.00
  0
VERTEX
  8
0TOC_DRE
 10
234266.53
 20
9313534.00
  0
VERTEX
  8
0TOC_DRE
 10
234249.81
 20
9313672.00
  0
VERTEX
  8
0TOC_DRE
 10
234145.03
 20
9313786.00
  0
VERTEX
  8
0TOC_DRE
 10
234065.31
 20
9313900.00
  0
VERTEX
  8
0TOC_DRE
 10
234060.56
 20
9314000.00
  0
VERTEX
  8
0TOC_DRE
 10
234081.59
 20
9314150.00
  0
SEQEND
  8
0TOC_DRE
  0
POLYLINE
  8
0TOC_DRE
 66
     1
  0
VERTEX
  8
0TOC_DRE
 10
236813.00
 20
9308326.00
  0
VERTEX
  8
0TOC_DRE
 10
236856.39
 20
9308294.00
  0
VERTEX
  8
0TOC_DRE
 10
236974.14
 20
9308210.00
  0
VERTEX
  8
0TOC_DRE
 10
237060.80
 20
9308140.00
  0
VERTEX
  8
0TOC_DRE
 10
237208.66
 20
9307975.00
  0
VERTEX
  8
0TOC_DRE
 10
237285.48
 20
9307667.00
  0
VERTEX
  8
0TOC_DRE
 10
237287.88
 20
9307411.00
  0
VERTEX
  8
0TOC_DRE
 10
237259.36
 20
9307180.00
  0
VERTEX
  8
0TOC_DRE
 10
237214.50
 20
9307111.00
  0
VERTEX
  8
0TOC_DRE
 10
237076.16
 20
9307076.00
  0
VERTEX
  8
0TOC_DRE
 10
236879.22
 20
9307311.00
  0
VERTEX
  8
0TOC_DRE
 10
236871.02
 20
9307599.00
  0
VERTEX
  8
0TOC_DRE
 10
236862.14
 20
9307843.00
  0
VERTEX
  8
0TOC_DRE
 10
236827.39
 20
9308031.00
  0
VERTEX
  8
0TOC_DRE
 10
236816.64
 20
9308150.00
  0
VERTEX
  8
0TOC_DRE
 10
236818.05
 20
9308244.00
  0
VERTEX
  8
0TOC_DRE
 10
236813.00
 20
9308326.00
  0
SEQEND
  8
0TOC_DRE
  0
POLYLINE
  8
0TOC_DRE
 66
     1
  0
VERTEX
  8
0TOC_DRE
 10
229390.48
 20
9277854.00
  0
VERTEX
  8
0TOC_DRE
 10
229463.75
 20
9277727.00
  0
VERTEX
  8
0TOC_DRE
 10
229564.78
 20
9277363.00
  0
VERTEX
  8
0TOC_DRE
 10
229584.48
 20
9277006.00
  0
VERTEX
  8
0TOC_DRE
 10
229567.25
 20
9276693.00
  0
VERTEX
  8
0TOC_DRE
 10
229290.64
 20
9276209.00
  0
VERTEX
  8
0TOC_DRE
 10
229208.48
 20
9276160.00
  0
VERTEX
  8
0TOC_DRE
 10
229038.17
 20
9276081.00
  0
VERTEX
  8
0TOC_DRE
 10
228876.75
 20
9276178.00
  0
VERTEX
  8
0TOC_DRE
 10
228858.36
 20
9276622.00
  0
VERTEX
  8
0TOC_DRE
 10
228995.98
 20
9277027.00
  0
VERTEX
  8
0TOC_DRE
 10
229118.44
 20
9277257.00
  0
VERTEX
  8
0TOC_DRE
 10
229267.83
 20
9277612.00
  0
VERTEX
  8
0TOC_DRE
 10
229302.05
 20
9277805.00
  0
VERTEX
  8
0TOC_DRE
 10
229314.86
 20
9277824.00
  0
VERTEX
  8
0TOC_DRE
 10
229390.48
 20
9277854.00
  0
SEQEND
  8
0TOC_DRE
  0
POLYLINE
  8
0TOC_DRE
 66
     1
  0
VERTEX
  8
0TOC_DRE
 10
224512.70
 20
9259600.00
  0
VERTEX
  8
0TOC_DRE
 10
224631.31
 20
9259573.00
  0
VERTEX
  8
0TOC_DRE
 10
224698.14
 20
9259434.00
  0
VERTEX
  8
0TOC_DRE
 10
224792.70
 20
9259057.00
  0
VERTEX
  8
0TOC_DRE
 10
224876.44
 20
9258793.00
  0
VERTEX
  8
0TOC_DRE
 10
224897.92
 20
9258555.00
  0
VERTEX
  8
0TOC_DRE
 10
224925.77
 20
9258323.00
  0
VERTEX
  8
0TOC_DRE
 10
224964.34
 20
9257972.00
  0
VERTEX
  8
0TOC_DRE
 10
224997.03
 20
9257646.00
  0
VERTEX
  8
0TOC_DRE
 10
225047.86
 20
9257276.00
  0
VERTEX
  8
0TOC_DRE
 10
225062.81
 20
9257019.00
  0
VERTEX
  8
0TOC_DRE
 10
225059.89
 20
9256825.00
  0
VERTEX
  8
0TOC_DRE
 10
225055.38
 20
9256524.00
  0
VERTEX
  8
0TOC_DRE
 10
225020.42
 20
9256281.00
  0
VERTEX
  8
0TOC_DRE
 10
224991.23
 20
9256006.00
  0
VERTEX
  8
0TOC_DRE
 10
224925.14
 20
9255775.00
  0
VERTEX
  8
0TOC_DRE
 10
224905.41
 20
9255713.00
  0
VERTEX
  8
0TOC_DRE
 10
224832.58
 20
9255451.00
  0
VERTEX
  8
0TOC_DRE
 10
224733.56
 20
9255115.00
  0
VERTEX
  8
0TOC_DRE
 10
224721.05
 20
9255115.00
  0
VERTEX
  8
0TOC_DRE
 10
224408.48
 20
9255157.00
  0
VERTEX
  8
0TOC_DRE
 10
224217.52
 20
9255373.00
  0
VERTEX
  8
0TOC_DRE
 10
224084.83
 20
9255713.00
  0
VERTEX
  8
0TOC_DRE
 10
224076.25
 20
9255976.00
  0
VERTEX
  8
0TOC_DRE
 10
224138.23
 20
9256350.00
  0
VERTEX
  8
0TOC_DRE
 10
224190.80
 20
9256932.00
  0
VERTEX
  8
0TOC_DRE
 10
224197.94
 20
9257407.00
  0
VERTEX
  8
0TOC_DRE
 10
224193.48
 20
9257946.00
  0
VERTEX
  8
0TOC_DRE
 10
224148.55
 20
9258291.00
  0
VERTEX
  8
0TOC_DRE
 10
224146.80
 20
9258591.00
  0
VERTEX
  8
0TOC_DRE
 10
224219.70
 20
9258859.00
  0
VERTEX
  8
0TOC_DRE
 10
224306.38
 20
9259208.00
  0
VERTEX
  8
0TOC_DRE
 10
224403.78
 20
9259439.00
  0
VERTEX
  8
0TOC_DRE
 10
224417.55
 20
9259520.00
  0
VERTEX
  8
0TOC_DRE
 10
224443.34
 20
9259569.00
  0
VERTEX
  8
0TOC_DRE
 10
224462.59
 20
9259600.00
  0
VERTEX
  8
0TOC_DRE
 10
224512.70
 20
9259600.00
  0
SEQEND
  8
0TOC_DRE
  0
POLYLINE
  8
0TOC_DRE
 66
     1
  0
VERTEX
  8
0TOC_DRE
 10
231090.88
 20
9327772.00
  0
VERTEX
  8
0TOC_DRE
 10
231043.61
 20
9327515.00
  0
VERTEX
  8
0TOC_DRE
 10
231027.97
 20
9327309.00
  0
VERTEX
  8
0TOC_DRE
 10
231013.77
 20
9327197.00
  0
VERTEX
  8
0TOC_DRE
 10
230978.50
 20
9326934.00
  0
VERTEX
  8
0TOC_DRE
 10
230934.73
 20
9326522.00
  0
VERTEX
  8
0TOC_DRE
 10
230932.48
 20
9326372.00
  0
VERTEX
  8
0TOC_DRE
 10
231003.13
 20
9326070.00
  0
VERTEX
  8
0TOC_DRE
 10
231042.47
 20
9325769.00
  0
VERTEX
  8
0TOC_DRE
 10
231071.05
 20
9325587.00
  0
VERTEX
  8
0TOC_DRE
 10
231153.19
 20
9325217.00
  0
VERTEX
  8
0TOC_DRE
 10
231211.86
 20
9324953.00
  0
VERTEX
  8
0TOC_DRE
 10
231207.08
 20
9324634.00
  0
VERTEX
  8
0TOC_DRE
 10
231204.36
 20
9324452.00
  0
VERTEX
  8
0TOC_DRE
 10
231219.03
 20
9324177.00
  0
VERTEX
  8
0TOC_DRE
 10
231229.11
 20
9324014.00
  0
VERTEX
  8
0TOC_DRE
 10
231228.92
 20
9324001.00
  0
VERTEX
  8
0TOC_DRE
 10
231226.47
 20
9323838.00
  0
VERTEX
  8
0TOC_DRE
 10
231221.97
 20
9323538.00
  0
VERTEX
  8
0TOC_DRE
 10
231204.58
 20
9323213.00
  0
VERTEX
  8
0TOC_DRE
 10
231213.91
 20
9323000.00
  0
VERTEX
  8
0TOC_DRE
 10
231345.58
 20
9322591.00
  0
VERTEX
  8
0TOC_DRE
 10
231464.45
 20
9322164.00
  0
VERTEX
  8
0TOC_DRE
 10
231572.19
 20
9321830.00
  0
VERTEX
  8
0TOC_DRE
 10
231642.28
 20
9321491.00
  0
VERTEX
  8
0TOC_DRE
 10
231667.86
 20
9321109.00
  0
VERTEX
  8
0TOC_DRE
 10
231688.13
 20
9320790.00
  0
VERTEX
  8
0TOC_DRE
 10
231685.13
 20
9320589.00
  0
VERTEX
  8
0TOC_DRE
 10
231703.55
 20
9320564.00
  0
VERTEX
  8
0TOC_DRE
 10
231755.39
 20
9320263.00
  0
VERTEX
  8
0TOC_DRE
 10
231882.22
 20
9319948.00
  0
VERTEX
  8
0TOC_DRE
 10
232015.67
 20
9319658.00
  0
VERTEX
  8
0TOC_DRE
 10
232171.28
 20
9319174.00
  0
VERTEX
  8
0TOC_DRE
 10
232245.83
 20
9318716.00
  0
VERTEX
  8
0TOC_DRE
 10
232313.67
 20
9318226.00
  0
VERTEX
  8
0TOC_DRE
 10
232355.59
 20
9317681.00
  0
VERTEX
  8
0TOC_DRE
 10
232444.09
 20
9317317.00
  0
VERTEX
  8
0TOC_DRE
 10
232688.67
 20
9316919.00
  0
VERTEX
  8
0TOC_DRE
 10
232866.64
 20
9316672.00
  0
VERTEX
  8
0TOC_DRE
 10
233073.73
 20
9316281.00
  0
VERTEX
  8
0TOC_DRE
 10
233244.78
 20
9315990.00
  0
VERTEX
  8
0TOC_DRE
 10
233336.28
 20
9315826.00
  0
VERTEX
  8
0TOC_DRE
 10
233385.06
 20
9315738.00
  0
VERTEX
  8
0TOC_DRE
 10
233496.00
 20
9315617.00
  0
VERTEX
  8
0TOC_DRE
 10
233533.20
 20
9315592.00
  0
VERTEX
  8
0TOC_DRE
 10
233707.05
 20
9315489.00
  0
VERTEX
  8
0TOC_DRE
 10
233848.92
 20
9315343.00
  0
VERTEX
  8
0TOC_DRE
 10
233960.72
 20
9315279.00
  0
VERTEX
  8
0TOC_DRE
 10
234267.58
 20
9315274.00
  0
VERTEX
  8
0TOC_DRE
 10
234611.83
 20
9315256.00
  0
VERTEX
  8
0TOC_DRE
 10
234866.06
 20
9315083.00
  0
VERTEX
  8
0TOC_DRE
 10
235118.50
 20
9314792.00
  0
VERTEX
  8
0TOC_DRE
 10
235425.25
 20
9314362.00
  0
VERTEX
  8
0TOC_DRE
 10
235737.42
 20
9313875.00
  0
VERTEX
  8
0TOC_DRE
 10
235932.38
 20
9313509.00
  0
VERTEX
  8
0TOC_DRE
 10
236097.80
 20
9313262.00
  0
VERTEX
  8
0TOC_DRE
 10
236238.75
 20
9313054.00
  0
VERTEX
  8
0TOC_DRE
 10
236318.00
 20
9312908.00
  0
VERTEX
  8
0TOC_DRE
 10
236330.23
 20
9312890.00
  0
VERTEX
  8
0TOC_DRE
 10
236340.98
 20
9312770.00
  0
VERTEX
  8
0TOC_DRE
 10
236395.81
 20
9312250.00
  0
VERTEX
  8
0TOC_DRE
 10
236434.95
 20
9311937.00
  0
VERTEX
  8
0TOC_DRE
 10
236436.63
 20
9311630.00
  0
VERTEX
  8
0TOC_DRE
 10
236447.42
 20
9311098.00
  0
VERTEX
  8
0TOC_DRE
 10
236540.11
 20
9310595.00
  0
VERTEX
  8
0TOC_DRE
 10
236631.41
 20
9309999.00
  0
VERTEX
  8
0TOC_DRE
 10
236732.33
 20
9309629.00
  0
VERTEX
  8
0TOC_DRE
 10
236955.42
 20
9309049.00
  0
VERTEX
  8
0TOC_DRE
 10
237071.88
 20
9308879.00
  0
VERTEX
  8
0TOC_DRE
 10
237295.16
 20
9308731.00
  0
VERTEX
  8
0TOC_DRE
 10
237493.97
 20
9308622.00
  0
VERTEX
  8
0TOC_DRE
 10
237748.11
 20
9308443.00
  0
VERTEX
  8
0TOC_DRE
 10
237750.98
 20
9308218.00
  0
VERTEX
  8
0TOC_DRE
 10
237726.56
 20
9307842.00
  0
VERTEX
  8
0TOC_DRE
 10
237698.30
 20
9307211.00
  0
VERTEX
  8
0TOC_DRE
 10
237633.02
 20
9306617.00
  0
VERTEX
  8
0TOC_DRE
 10
237560.53
 20
9305961.00
  0
VERTEX
  8
0TOC_DRE
 10
237427.69
 20
9305456.00
  0
VERTEX
  8
0TOC_DRE
 10
237203.06
 20
9305096.00
  0
VERTEX
  8
0TOC_DRE
 10
236999.47
 20
9304886.00
  0
VERTEX
  8
0TOC_DRE
 10
236808.78
 20
9304701.00
  0
VERTEX
  8
0TOC_DRE
 10
236732.48
 20
9304627.00
  0
VERTEX
  8
0TOC_DRE
 10
236681.73
 20
9304584.00
  0
VERTEX
  8
0TOC_DRE
 10
236593.03
 20
9304517.00
  0
VERTEX
  8
0TOC_DRE
 10
236580.41
 20
9304511.00
  0
VERTEX
  8
0TOC_DRE
 10
236555.08
 20
9304492.00
  0
VERTEX
  8
0TOC_DRE
 10
236445.42
 20
9304281.00
  0
VERTEX
  8
0TOC_DRE
 10
236397.08
 20
9303982.00
  0
VERTEX
  8
0TOC_DRE
 10
236329.38
 20
9303645.00
  0
VERTEX
  8
0TOC_DRE
 10
236110.83
 20
9303272.00
  0
VERTEX
  8
0TOC_DRE
 10
235937.80
 20
9303012.00
  0
VERTEX
  8
0TOC_DRE
 10
235745.70
 20
9302733.00
  0
VERTEX
  8
0TOC_DRE
 10
235393.19
 20
9302200.00
  0
VERTEX
  8
0TOC_DRE
 10
235157.53
 20
9301941.00
  0
VERTEX
  8
0TOC_DRE
 10
234831.84
 20
9301526.00
  0
VERTEX
  8
0TOC_DRE
 10
234699.31
 20
9301459.00
  0
VERTEX
  8
0TOC_DRE
 10
234603.67
 20
9301348.00
  0
VERTEX
  8
0TOC_DRE
 10
234551.05
 20
9301180.00
  0
VERTEX
  8
0TOC_DRE
 10
234549.08
 20
9301049.00
  0
VERTEX
  8
0TOC_DRE
 10
234520.64
 20
9300824.00
  0
VERTEX
  8
0TOC_DRE
 10
234384.16
 20
9300494.00
  0
VERTEX
  8
0TOC_DRE
 10
234285.98
 20
9300214.00
  0
VERTEX
  8
0TOC_DRE
 10
234168.39
 20
9299890.00
  0
VERTEX
  8
0TOC_DRE
 10
234010.23
 20
9299786.00
  0
VERTEX
  8
0TOC_DRE
 10
233832.44
 20
9299626.00
  0
VERTEX
  8
0TOC_DRE
 10
233711.56
 20
9299503.00
  0
VERTEX
  8
0TOC_DRE
 10
233628.75
 20
9299410.00
  0
VERTEX
  8
0TOC_DRE
 10
233545.28
 20
9299273.00
  0
VERTEX
  8
0TOC_DRE
 10
233518.34
 20
9299149.00
  0
VERTEX
  8
0TOC_DRE
 10
233428.95
 20
9298618.00
  0
VERTEX
  8
0TOC_DRE
 10
233414.36
 20
9298480.00
  0
VERTEX
  8
0TOC_DRE
 10
233412.02
 20
9298324.00
  0
VERTEX
  8
0TOC_DRE
 10
233417.16
 20
9298249.00
  0
VERTEX
  8
0TOC_DRE
 10
233468.73
 20
9297929.00
  0
VERTEX
  8
0TOC_DRE
 10
233506.30
 20
9297509.00
  0
VERTEX
  8
0TOC_DRE
 10
233576.55
 20
9297182.00
  0
VERTEX
  8
0TOC_DRE
 10
233585.86
 20
9296550.00
  0
VERTEX
  8
0TOC_DRE
 10
233609.02
 20
9296005.00
  0
VERTEX
  8
0TOC_DRE
 10
233609.92
 20
9295648.00
  0
VERTEX
  8
0TOC_DRE
 10
233575.30
 20
9295010.00
  0
VERTEX
  8
0TOC_DRE
 10
233474.22
 20
9294536.00
  0
VERTEX
  8
0TOC_DRE
 10
233337.36
 20
9294182.00
  0
VERTEX
  8
0TOC_DRE
 10
233337.17
 20
9294169.00
  0
VERTEX
  8
0TOC_DRE
 10
233291.56
 20
9294051.00
  0
VERTEX
  8
0TOC_DRE
 10
233218.81
 20
9293795.00
  0
VERTEX
  8
0TOC_DRE
 10
233114.30
 20
9293509.00
  0
VERTEX
  8
0TOC_DRE
 10
232947.06
 20
9293217.00
  0
VERTEX
  8
0TOC_DRE
 10
232853.47
 20
9292824.00
  0
VERTEX
  8
0TOC_DRE
 10
232778.30
 20
9292406.00
  0
VERTEX
  8
0TOC_DRE
 10
232687.88
 20
9291806.00
  0
VERTEX
  8
0TOC_DRE
 10
232645.88
 20
9291513.00
  0
VERTEX
  8
0TOC_DRE
 10
232501.55
 20
9291077.00
  0
VERTEX
  8
0TOC_DRE
 10
232389.25
 20
9290690.00
  0
VERTEX
  8
0TOC_DRE
 10
232230.14
 20
9290105.00
  0
VERTEX
  8
0TOC_DRE
 10
232110.92
 20
9289674.00
  0
VERTEX
  8
0TOC_DRE
 10
231981.83
 20
9289420.00
  0
VERTEX
  8
0TOC_DRE
 10
231791.14
 20
9289235.00
  0
VERTEX
  8
0TOC_DRE
 10
231530.34
 20
9288970.00
  0
VERTEX
  8
0TOC_DRE
 10
231307.88
 20
9288754.00
  0
VERTEX
  8
0TOC_DRE
 10
231109.89
 20
9288500.00
  0
VERTEX
  8
0TOC_DRE
 10
231074.91
 20
9288257.00
  0
VERTEX
  8
0TOC_DRE
 10
231033.67
 20
9288013.00
  0
VERTEX
  8
0TOC_DRE
 10
231142.45
 20
9287749.00
  0
VERTEX
  8
0TOC_DRE
 10
231173.02
 20
9287698.00
  0
VERTEX
  8
0TOC_DRE
 10
231265.55
 20
9287603.00
  0
VERTEX
  8
0TOC_DRE
 10
231487.91
 20
9287393.00
  0
VERTEX
  8
0TOC_DRE
 10
231622.77
 20
9287197.00
  0
VERTEX
  8
0TOC_DRE
 10
231732.02
 20
9286964.00
  0
VERTEX
  8
0TOC_DRE
 10
231853.98
 20
9286743.00
  0
VERTEX
  8
0TOC_DRE
 10
231972.84
 20
9286315.00
  0
VERTEX
  8
0TOC_DRE
 10
232080.61
 20
9285982.00
  0
VERTEX
  8
0TOC_DRE
 10
232211.34
 20
9285510.00
  0
VERTEX
  8
0TOC_DRE
 10
232248.52
 20
9285065.00
  0
VERTEX
  8
0TOC_DRE
 10
232347.28
 20
9284551.00
  0
VERTEX
  8
0TOC_DRE
 10
232554.39
 20
9284160.00
  0
VERTEX
  8
0TOC_DRE
 10
232728.03
 20
9283625.00
  0
VERTEX
  8
0TOC_DRE
 10
232872.59
 20
9283241.00
  0
VERTEX
  8
0TOC_DRE
 10
232984.45
 20
9282764.00
  0
VERTEX
  8
0TOC_DRE
 10
232989.67
 20
9282275.00
  0
VERTEX
  8
0TOC_DRE
 10
232858.88
 20
9281908.00
  0
VERTEX
  8
0TOC_DRE
 10
232604.06
 20
9281624.00
  0
VERTEX
  8
0TOC_DRE
 10
232362.31
 20
9281377.00
  0
VERTEX
  8
0TOC_DRE
 10
232336.89
 20
9281352.00
  0
VERTEX
  8
0TOC_DRE
 10
232278.84
 20
9281241.00
  0
VERTEX
  8
0TOC_DRE
 10
232017.09
 20
9280913.00
  0
VERTEX
  8
0TOC_DRE
 10
231813.33
 20
9280690.00
  0
VERTEX
  8
0TOC_DRE
 10
231502.42
 20
9280426.00
  0
VERTEX
  8
0TOC_DRE
 10
231040.00
 20
9280082.00
  0
VERTEX
  8
0TOC_DRE
 10
230639.64
 20
9279700.00
  0
VERTEX
  8
0TOC_DRE
 10
230398.19
 20
9279472.00
  0
VERTEX
  8
0TOC_DRE
 10
230385.39
 20
9279454.00
  0
VERTEX
  8
0TOC_DRE
 10
230333.22
 20
9279317.00
  0
VERTEX
  8
0TOC_DRE
 10
230273.39
 20
9279086.00
  0
VERTEX
  8
0TOC_DRE
 10
230194.48
 20
9278837.00
  0
VERTEX
  8
0TOC_DRE
 10
230027.63
 20
9278570.00
  0
VERTEX
  8
0TOC_DRE
 10
229904.13
 20
9278272.00
  0
VERTEX
  8
0TOC_DRE
 10
229862.33
 20
9277991.00
  0
VERTEX
  8
0TOC_DRE
 10
229952.80
 20
9277758.00
  0
VERTEX
  8
0TOC_DRE
 10
230099.34
 20
9277505.00
  0
VERTEX
  8
0TOC_DRE
 10
230106.80
 20
9277167.00
  0
VERTEX
  8
0TOC_DRE
 10
230136.52
 20
9277060.00
  0
VERTEX
  8
0TOC_DRE
 10
230185.58
 20
9276991.00
  0
VERTEX
  8
0TOC_DRE
 10
230237.53
 20
9276696.00
  0
VERTEX
  8
0TOC_DRE
 10
230164.80
 20
9276440.00
  0
VERTEX
  8
0TOC_DRE
 10
230088.16
 20
9276341.00
  0
VERTEX
  8
0TOC_DRE
 10
229927.55
 20
9276074.00
  0
VERTEX
  8
0TOC_DRE
 10
229755.73
 20
9275895.00
  0
VERTEX
  8
0TOC_DRE
 10
229565.52
 20
9275742.00
  0
VERTEX
  8
0TOC_DRE
 10
229464.47
 20
9275687.00
  0
VERTEX
  8
0TOC_DRE
 10
229451.94
 20
9275687.00
  0
VERTEX
  8
0TOC_DRE
 10
229420.34
 20
9275669.00
  0
VERTEX
  8
0TOC_DRE
 10
229306.59
 20
9275602.00
  0
VERTEX
  8
0TOC_DRE
 10
229192.84
 20
9275535.00
  0
VERTEX
  8
0TOC_DRE
 10
228932.88
 20
9275326.00
  0
VERTEX
  8
0TOC_DRE
 10
228703.56
 20
9275072.00
  0
VERTEX
  8
0TOC_DRE
 10
228468.48
 20
9274851.00
  0
VERTEX
  8
0TOC_DRE
 10
228333.41
 20
9274615.00
  0
VERTEX
  8
0TOC_DRE
 10
228237.59
 20
9274491.00
  0
VERTEX
  8
0TOC_DRE
 10
228141.59
 20
9274355.00
  0
VERTEX
  8
0TOC_DRE
 10
228115.69
 20
9274299.00
  0
VERTEX
  8
0TOC_DRE
 10
228089.42
 20
9274218.00
  0
VERTEX
  8
0TOC_DRE
 10
228072.59
 20
9273930.00
  0
VERTEX
  8
0TOC_DRE
 10
228125.56
 20
9273704.00
  0
VERTEX
  8
0TOC_DRE
 10
228197.53
 20
9273490.00
  0
VERTEX
  8
0TOC_DRE
 10
228197.33
 20
9273478.00
  0
VERTEX
  8
0TOC_DRE
 10
228048.33
 20
9273148.00
  0
VERTEX
  8
0TOC_DRE
 10
227908.27
 20
9272581.00
  0
VERTEX
  8
0TOC_DRE
 10
227802.72
 20
9272225.00
  0
VERTEX
  8
0TOC_DRE
 10
227710.92
 20
9271951.00
  0
VERTEX
  8
0TOC_DRE
 10
227689.30
 20
9271764.00
  0
VERTEX
  8
0TOC_DRE
 10
227741.34
 20
9271475.00
  0
VERTEX
  8
0TOC_DRE
 10
227783.59
 20
9271368.00
  0
VERTEX
  8
0TOC_DRE
 10
227898.73
 20
9271110.00
  0
VERTEX
  8
0TOC_DRE
 10
227885.08
 20
9271035.00
  0
VERTEX
  8
0TOC_DRE
 10
227766.00
 20
9271030.00
  0
VERTEX
  8
0TOC_DRE
 10
227757.95
 20
9270912.00
  0
VERTEX
  8
0TOC_DRE
 10
227892.16
 20
9270672.00
  0
VERTEX
  8
0TOC_DRE
 10
227935.34
 20
9270627.00
  0
VERTEX
  8
0TOC_DRE
 10
227934.59
 20
9270577.00
  0
VERTEX
  8
0TOC_DRE
 10
227950.66
 20
9270395.00
  0
VERTEX
  8
0TOC_DRE
 10
227994.86
 20
9270000.00
  0
VERTEX
  8
0TOC_DRE
 10
227980.31
 20
9269450.00
  0
VERTEX
  8
0TOC_DRE
 10
227902.63
 20
9268863.00
  0
VERTEX
  8
0TOC_DRE
 10
227798.00
 20
9268570.00
  0
VERTEX
  8
0TOC_DRE
 10
227737.80
 20
9268314.00
  0
VERTEX
  8
0TOC_DRE
 10
227678.91
 20
9268146.00
  0
VERTEX
  8
0TOC_DRE
 10
227669.70
 20
9267533.00
  0
VERTEX
  8
0TOC_DRE
 10
227646.22
 20
9267220.00
  0
VERTEX
  8
0TOC_DRE
 10
227530.78
 20
9267041.00
  0
VERTEX
  8
0TOC_DRE
 10
227295.30
 20
9266794.00
  0
VERTEX
  8
0TOC_DRE
 10
226975.70
 20
9266367.00
  0
VERTEX
  8
0TOC_DRE
 10
226658.06
 20
9266071.00
  0
VERTEX
  8
0TOC_DRE
 10
226402.95
 20
9265768.00
  0
VERTEX
  8
0TOC_DRE
 10
226186.28
 20
9265521.00
  0
VERTEX
  8
0TOC_DRE
 10
225986.61
 20
9265155.00
  0
VERTEX
  8
0TOC_DRE
 10
225800.95
 20
9264888.00
  0
VERTEX
  8
0TOC_DRE
 10
225730.38
 20
9264777.00
  0
VERTEX
  8
0TOC_DRE
 10
225691.39
 20
9264683.00
  0
VERTEX
  8
0TOC_DRE
 10
225647.00
 20
9264646.00
  0
VERTEX
  8
0TOC_DRE
 10
225639.23
 20
9264546.00
  0
VERTEX
  8
0TOC_DRE
 10
225662.41
 20
9264421.00
  0
VERTEX
  8
0TOC_DRE
 10
225797.28
 20
9264225.00
  0
VERTEX
  8
0TOC_DRE
 10
225735.08
 20
9263838.00
  0
VERTEX
  8
0TOC_DRE
 10
225424.20
 20
9263573.00
  0
VERTEX
  8
0TOC_DRE
 10
225171.34
 20
9263420.00
  0
VERTEX
  8
0TOC_DRE
 10
224932.34
 20
9263355.00
  0
VERTEX
  8
0TOC_DRE
 10
224577.59
 20
9263091.00
  0
VERTEX
  8
0TOC_DRE
 10
224387.38
 20
9262938.00
  0
VERTEX
  8
0TOC_DRE
 10
224380.73
 20
9262913.00
  0
VERTEX
  8
0TOC_DRE
 10
224380.36
 20
9262888.00
  0
VERTEX
  8
0TOC_DRE
 10
224257.50
 20
9262214.00
  0
VERTEX
  8
0TOC_DRE
 10
224209.06
 20
9261908.00
  0
VERTEX
  8
0TOC_DRE
 10
224197.55
 20
9261557.00
  0
VERTEX
  8
0TOC_DRE
 10
224380.53
 20
9261229.00
  0
VERTEX
  8
0TOC_DRE
 10
224706.25
 20
9260811.00
  0
VERTEX
  8
0TOC_DRE
 10
224753.55
 20
9260623.00
  0
VERTEX
  8
0TOC_DRE
 10
224753.25
 20
9260604.00
  0
VERTEX
  8
0TOC_DRE
 10
224759.23
 20
9260585.00
  0
VERTEX
  8
0TOC_DRE
 10
224767.70
 20
9259896.00
  0
VERTEX
  8
0TOC_DRE
 10
224856.48
 20
9259551.00
  0
VERTEX
  8
0TOC_DRE
 10
225046.95
 20
9259304.00
  0
VERTEX
  8
0TOC_DRE
 10
225191.92
 20
9258945.00
  0
VERTEX
  8
0TOC_DRE
 10
225203.47
 20
9258463.00
  0
VERTEX
  8
0TOC_DRE
 10
225200.47
 20
9258262.00
  0
VERTEX
  8
0TOC_DRE
 10
225191.86
 20
9258106.00
  0
VERTEX
  8
0TOC_DRE
 10
225232.88
 20
9257918.00
  0
VERTEX
  8
0TOC_DRE
 10
225373.88
 20
9257296.00
  0
VERTEX
  8
0TOC_DRE
 10
225313.19
 20
9256589.00
  0
VERTEX
  8
0TOC_DRE
 10
225157.59
 20
9255822.00
  0
VERTEX
  8
0TOC_DRE
 10
225038.97
 20
9255429.00
  0
VERTEX
  8
0TOC_DRE
 10
224925.56
 20
9254968.00
  0
VERTEX
  8
0TOC_DRE
 10
224924.52
 20
9254899.00
  0
VERTEX
  8
0TOC_DRE
 10
224808.95
 20
9254294.00
  0
VERTEX
  8
0TOC_DRE
 10
224705.63
 20
9253669.00
  0
VERTEX
  8
0TOC_DRE
 10
224612.31
 20
9253295.00
  0
VERTEX
  8
0TOC_DRE
 10
224440.39
 20
9252690.00
  0
VERTEX
  8
0TOC_DRE
 10
224332.59
 20
9252185.00
  0
VERTEX
  8
0TOC_DRE
 10
224206.17
 20
9251692.00
  0
VERTEX
  8
0TOC_DRE
 10
224017.25
 20
9251207.00
  0
VERTEX
  8
0TOC_DRE
 10
223796.81
 20
9250710.00
  0
VERTEX
  8
0TOC_DRE
 10
223506.45
 20
9250144.00
  0
VERTEX
  8
0TOC_DRE
 10
223179.75
 20
9249661.00
  0
VERTEX
  8
0TOC_DRE
 10
222908.48
 20
9249534.00
  0
VERTEX
  8
0TOC_DRE
 10
222605.44
 20
9249375.00
  0
VERTEX
  8
0TOC_DRE
 10
222392.67
 20
9248972.00
  0
VERTEX
  8
0TOC_DRE
 10
222256.00
 20
9248630.00
  0
VERTEX
  8
0TOC_DRE
 10
222223.94
 20
9248580.00
  0
VERTEX
  8
0TOC_DRE
 10
222076.91
 20
9248382.00
  0
VERTEX
  8
0TOC_DRE
 10
221879.55
 20
9247753.00
  0
VERTEX
  8
0TOC_DRE
 10
221801.17
 20
9247122.00
  0
VERTEX
  8
0TOC_DRE
 10
221685.42
 20
9246504.00
  0
VERTEX
  8
0TOC_DRE
 10
221499.20
 20
9246200.00
  0
VERTEX
  8
0TOC_DRE
 10
221318.97
 20
9245877.00
  0
VERTEX
  8
0TOC_DRE
 10
221159.78
 20
9245704.00
  0
VERTEX
  8
0TOC_DRE
 10
221043.69
 20
9245481.00
  0
VERTEX
  8
0TOC_DRE
 10
220940.20
 20
9245263.00
  0
VERTEX
  8
0TOC_DRE
 10
220880.08
 20
9245014.00
  0
VERTEX
  8
0TOC_DRE
 10
220879.80
 20
9244995.00
  0
VERTEX
  8
0TOC_DRE
 10
220879.52
 20
9244976.00
  0
VERTEX
  8
0TOC_DRE
 10
220910.55
 20
9244957.00
  0
VERTEX
  8
0TOC_DRE
 10
220941.67
 20
9244944.00
  0
VERTEX
  8
0TOC_DRE
 10
220990.92
 20
9244887.00
  0
VERTEX
  8
0TOC_DRE
 10
221063.64
 20
9244723.00
  0
VERTEX
  8
0TOC_DRE
 10
221127.05
 20
9244555.00
  0
SEQEND
  8
0TOC_DRE
  0
POLYLINE
  8
0TOC_DRE
 66
     1
  0
VERTEX
  8
0TOC_DRE
 10
221127.05
 20
9244555.00
  0
VERTEX
  8
0TOC_DRE
 10
221133.16
 20
9244539.00
  0
VERTEX
  8
0TOC_DRE
 10
221151.75
 20
9244483.00
  0
SEQEND
  8
0TOC_DRE
  0
POLYLINE
  8
0TOC_DRE
 66
     1
  0
VERTEX
  8
0TOC_DRE
 10
221151.75
 20
9244483.00
  0
VERTEX
  8
0TOC_DRE
 10
221201.86
 20
9244333.00
  0
VERTEX
  8
0TOC_DRE
 10
221235.86
 20
9244094.00
  0
VERTEX
  8
0TOC_DRE
 10
221238.84
 20
9243875.00
  0
VERTEX
  8
0TOC_DRE
 10
221254.81
 20
9243687.00
  0
VERTEX
  8
0TOC_DRE
 10
221314.42
 20
9243486.00
  0
VERTEX
  8
0TOC_DRE
 10
221394.72
 20
9243410.00
  0
VERTEX
  8
0TOC_DRE
 10
221431.27
 20
9243340.00
  0
VERTEX
  8
0TOC_DRE
 10
221443.05
 20
9243290.00
  0
VERTEX
  8
0TOC_DRE
 10
221466.95
 20
9243215.00
  0
SEQEND
  8
0TOC_DRE
  0
POLYLINE
  8
0TOC_DRE
 66
     1
  0
VERTEX
  8
0TOC_DRE
 10
221466.95
 20
9243215.00
  0
VERTEX
  8
0TOC_DRE
 10
221366.95
 20
9243229.00
  0
VERTEX
  8
0TOC_DRE
 10
221248.80
 20
9243287.00
  0
VERTEX
  8
0TOC_DRE
 10
221025.14
 20
9243409.00
  0
VERTEX
  8
0TOC_DRE
 10
220920.84
 20
9243555.00
  0
VERTEX
  8
0TOC_DRE
 10
220830.00
 20
9243762.00
  0
VERTEX
  8
0TOC_DRE
 10
220804.88
 20
9244176.00
  0
VERTEX
  8
0TOC_DRE
 10
220776.00
 20
9244339.00
  0
VERTEX
  8
0TOC_DRE
 10
220753.30
 20
9244496.00
  0
VERTEX
  8
0TOC_DRE
 10
220747.88
 20
9244552.00
  0
VERTEX
  8
0TOC_DRE
 10
220760.88
 20
9244583.00
  0
VERTEX
  8
0TOC_DRE
 10
220975.11
 20
9244668.00
  0
VERTEX
  8
0TOC_DRE
 10
221068.86
 20
9244654.00
  0
VERTEX
  8
0TOC_DRE
 10
221127.05
 20
9244555.00
  0
SEQEND
  8
0TOC_DRE
  0
POLYLINE
  8
0TOC_DRE
 66
     1
  0
VERTEX
  8
0TOC_DRE
 10
219470.86
 20
9225771.00
  0
VERTEX
  8
0TOC_DRE
 10
219549.66
 20
9226055.00
  0
VERTEX
  8
0TOC_DRE
 10
219609.48
 20
9226286.00
  0
VERTEX
  8
0TOC_DRE
 10
219629.05
 20
9226501.00
  0
SEQEND
  8
0TOC_DRE
  0
POLYLINE
  8
0TOC_DRE
 66
     1
  0
VERTEX
  8
0TOC_DRE
 10
219629.05
 20
9226501.00
  0
VERTEX
  8
0TOC_DRE
 10
219300.94
 20
9226178.00
  0
VERTEX
  8
0TOC_DRE
 10
218997.52
 20
9225995.00
  0
VERTEX
  8
0TOC_DRE
 10
218675.88
 20
9225849.00
  0
VERTEX
  8
0TOC_DRE
 10
218455.28
 20
9225759.00
  0
VERTEX
  8
0TOC_DRE
 10
218327.19
 20
9225645.00
  0
SEQEND
  8
0TOC_DRE
  0
POLYLINE
  8
0TOC_DRE
 66
     1
  0
VERTEX
  8
0TOC_DRE
 10
219377.73
 20
9225453.00
  0
VERTEX
  8
0TOC_DRE
 10
219417.27
 20
9225582.00
  0
VERTEX
  8
0TOC_DRE
 10
219470.86
 20
9225771.00
  0
SEQEND
  8
0TOC_DRE
  0
POLYLINE
  8
0TOC_DRE
 66
     1
  0
VERTEX
  8
0TOC_DRE
 10
221151.75
 20
9244483.00
  0
VERTEX
  8
0TOC_DRE
 10
221299.33
 20
9244150.00
  0
VERTEX
  8
0TOC_DRE
 10
221356.89
 20
9243811.00
  0
VERTEX
  8
0TOC_DRE
 10
221422.78
 20
9243610.00
  0
VERTEX
  8
0TOC_DRE
 10
221476.98
 20
9243465.00
  0
VERTEX
  8
0TOC_DRE
 10
221611.19
 20
9243225.00
  0
VERTEX
  8
0TOC_DRE
 10
221696.33
 20
9243055.00
  0
VERTEX
  8
0TOC_DRE
 10
221708.67
 20
9243042.00
  0
VERTEX
  8
0TOC_DRE
 10
221982.88
 20
9242531.00
  0
VERTEX
  8
0TOC_DRE
 10
222182.78
 20
9242077.00
  0
VERTEX
  8
0TOC_DRE
 10
222359.89
 20
9241774.00
  0
VERTEX
  8
0TOC_DRE
 10
222604.95
 20
9241407.00
  0
VERTEX
  8
0TOC_DRE
 10
222836.45
 20
9240972.00
  0
VERTEX
  8
0TOC_DRE
 10
223249.19
 20
9240509.00
  0
VERTEX
  8
0TOC_DRE
 10
223350.39
 20
9240157.00
  0
VERTEX
  8
0TOC_DRE
 10
223402.53
 20
9239874.00
  0
VERTEX
  8
0TOC_DRE
 10
223405.98
 20
9239687.00
  0
VERTEX
  8
0TOC_DRE
 10
223360.73
 20
9239593.00
  0
VERTEX
  8
0TOC_DRE
 10
223359.70
 20
9239525.00
  0
VERTEX
  8
0TOC_DRE
 10
223349.77
 20
9238861.00
  0
VERTEX
  8
0TOC_DRE
 10
223364.13
 20
9238567.00
  0
VERTEX
  8
0TOC_DRE
 10
223449.94
 20
9238440.00
  0
VERTEX
  8
0TOC_DRE
 10
223484.30
 20
9238227.00
  0
VERTEX
  8
0TOC_DRE
 10
223394.28
 20
9238072.00
  0
VERTEX
  8
0TOC_DRE
 10
223365.11
 20
9237797.00
  0
VERTEX
  8
0TOC_DRE
 10
223459.58
 20
9237414.00
  0
VERTEX
  8
0TOC_DRE
 10
223519.39
 20
9237225.00
  0
VERTEX
  8
0TOC_DRE
 10
223464.97
 20
9236938.00
  0
VERTEX
  8
0TOC_DRE
 10
223450.22
 20
9236788.00
  0
VERTEX
  8
0TOC_DRE
 10
223502.63
 20
9236524.00
  0
VERTEX
  8
0TOC_DRE
 10
223502.44
 20
9236512.00
  0
VERTEX
  8
0TOC_DRE
 10
223504.75
 20
9236249.00
  0
VERTEX
  8
0TOC_DRE
 10
223505.20
 20
9235861.00
  0
VERTEX
  8
0TOC_DRE
 10
223418.53
 20
9235511.00
  0
VERTEX
  8
0TOC_DRE
 10
223451.22
 20
9235185.00
  0
VERTEX
  8
0TOC_DRE
 10
223373.06
 20
9234986.00
  0
VERTEX
  8
0TOC_DRE
 10
222993.38
 20
9234729.00
  0
VERTEX
  8
0TOC_DRE
 10
222651.53
 20
9234490.00
  0
VERTEX
  8
0TOC_DRE
 10
222328.30
 20
9234238.00
  0
VERTEX
  8
0TOC_DRE
 10
222148.64
 20
9233953.00
  0
VERTEX
  8
0TOC_DRE
 10
222045.61
 20
9233767.00
  0
VERTEX
  8
0TOC_DRE
 10
222045.33
 20
9233748.00
  0
VERTEX
  8
0TOC_DRE
 10
222031.97
 20
9233692.00
  0
VERTEX
  8
0TOC_DRE
 10
221890.53
 20
9233450.00
  0
VERTEX
  8
0TOC_DRE
 10
221452.03
 20
9233031.00
  0
VERTEX
  8
0TOC_DRE
 10
221168.78
 20
9232522.00
  0
VERTEX
  8
0TOC_DRE
 10
220982.39
 20
9232205.00
  0
VERTEX
  8
0TOC_DRE
 10
220876.92
 20
9231857.00
  0
VERTEX
  8
0TOC_DRE
 10
220800.63
 20
9231363.00
  0
VERTEX
  8
0TOC_DRE
 10
220782.47
 20
9230988.00
  0
VERTEX
  8
0TOC_DRE
 10
220770.94
 20
9230638.00
  0
VERTEX
  8
0TOC_DRE
 10
220768.77
 20
9230074.00
  0
VERTEX
  8
0TOC_DRE
 10
220781.17
 20
9229648.00
  0
VERTEX
  8
0TOC_DRE
 10
220801.98
 20
9229366.00
  0
VERTEX
  8
0TOC_DRE
 10
220850.75
 20
9228859.00
  0
VERTEX
  8
0TOC_DRE
 10
220863.25
 20
9228439.00
  0
VERTEX
  8
0TOC_DRE
 10
220857.91
 20
9228082.00
  0
VERTEX
  8
0TOC_DRE
 10
220795.06
 20
9227651.00
  0
VERTEX
  8
0TOC_DRE
 10
220697.09
 20
9227384.00
  0
VERTEX
  8
0TOC_DRE
 10
220585.56
 20
9227047.00
  0
VERTEX
  8
0TOC_DRE
 10
220444.78
 20
9226849.00
  0
VERTEX
  8
0TOC_DRE
 10
220311.02
 20
9226701.00
  0
VERTEX
  8
0TOC_DRE
 10
220087.88
 20
9226442.00
  0
VERTEX
  8
0TOC_DRE
 10
219972.34
 20
9226255.00
  0
VERTEX
  8
0TOC_DRE
 10
219920.36
 20
9226131.00
  0
VERTEX
  8
0TOC_DRE
 10
219887.08
 20
9226000.00
  0
VERTEX
  8
0TOC_DRE
 10
219872.78
 20
9225881.00
  0
VERTEX
  8
0TOC_DRE
 10
219858.66
 20
9225775.00
  0
VERTEX
  8
0TOC_DRE
 10
219838.55
 20
9225688.00
  0
VERTEX
  8
0TOC_DRE
 10
219824.70
 20
9225600.00
  0
VERTEX
  8
0TOC_DRE
 10
219793.08
 20
9225453.00
  0
SEQEND
  8
0TOC_DRE
  0
POLYLINE
  8
0TOC_DRE
 66
     1
  0
VERTEX
  8
0TOC_DRE
 10
228641.61
 20
9336133.00
  0
VERTEX
  8
0TOC_DRE
 10
228708.38
 20
9335950.00
  0
VERTEX
  8
0TOC_DRE
 10
228824.92
 20
9335786.00
  0
VERTEX
  8
0TOC_DRE
 10
229080.92
 20
9335313.00
  0
VERTEX
  8
0TOC_DRE
 10
229548.52
 20
9334749.00
  0
VERTEX
  8
0TOC_DRE
 10
229939.64
 20
9334098.00
  0
VERTEX
  8
0TOC_DRE
 10
230104.25
 20
9333795.00
  0
VERTEX
  8
0TOC_DRE
 10
230159.38
 20
9333713.00
  0
VERTEX
  8
0TOC_DRE
 10
230176.95
 20
9333631.00
  0
VERTEX
  8
0TOC_DRE
 10
230293.13
 20
9333442.00
  0
VERTEX
  8
0TOC_DRE
 10
230463.11
 20
9333082.00
  0
VERTEX
  8
0TOC_DRE
 10
230667.78
 20
9332529.00
  0
VERTEX
  8
0TOC_DRE
 10
230897.78
 20
9331993.00
  0
VERTEX
  8
0TOC_DRE
 10
230910.75
 20
9331605.00
  0
VERTEX
  8
0TOC_DRE
 10
230889.48
 20
9331023.00
  0
VERTEX
  8
0TOC_DRE
 10
230827.22
 20
9330630.00
  0
VERTEX
  8
0TOC_DRE
 10
230826.84
 20
9330605.00
  0
VERTEX
  8
0TOC_DRE
 10
230810.94
 20
9330379.00
  0
VERTEX
  8
0TOC_DRE
 10
230741.36
 20
9329917.00
  0
VERTEX
  8
0TOC_DRE
 10
230481.77
 20
9329314.00
  0
VERTEX
  8
0TOC_DRE
 10
230264.97
 20
9328641.00
  0
VERTEX
  8
0TOC_DRE
 10
230105.66
 20
9328043.00
  0
VERTEX
  8
0TOC_DRE
 10
229946.63
 20
9327463.00
  0
VERTEX
  8
0TOC_DRE
 10
229881.94
 20
9327326.00
  0
VERTEX
  8
0TOC_DRE
 10
229881.66
 20
9327308.00
  0
VERTEX
  8
0TOC_DRE
 10
229852.28
 20
9327020.00
  0
VERTEX
  8
0TOC_DRE
 10
229750.56
 20
9326502.00
  0
VERTEX
  8
0TOC_DRE
 10
229701.36
 20
9326146.00
  0
VERTEX
  8
0TOC_DRE
 10
229796.41
 20
9325800.00
  0
VERTEX
  8
0TOC_DRE
 10
229845.44
 20
9325311.00
  0
VERTEX
  8
0TOC_DRE
 10
229841.50
 20
9325049.00
  0
VERTEX
  8
0TOC_DRE
 10
229845.14
 20
9324873.00
  0
VERTEX
  8
0TOC_DRE
 10
229840.17
 20
9324542.00
  0
VERTEX
  8
0TOC_DRE
 10
229827.52
 20
9324116.00
  0
VERTEX
  8
0TOC_DRE
 10
229797.41
 20
9323779.00
  0
VERTEX
  8
0TOC_DRE
 10
229784.66
 20
9323347.00
  0
VERTEX
  8
0TOC_DRE
 10
229782.33
 20
9323190.00
  0
VERTEX
  8
0TOC_DRE
 10
229847.08
 20
9322914.00
  0
VERTEX
  8
0TOC_DRE
 10
230006.42
 20
9322680.00
  0
VERTEX
  8
0TOC_DRE
 10
230234.77
 20
9322451.00
  0
VERTEX
  8
0TOC_DRE
 10
230652.27
 20
9321888.00
  0
VERTEX
  8
0TOC_DRE
 10
230760.39
 20
9321580.00
  0
VERTEX
  8
0TOC_DRE
 10
230755.14
 20
9321229.00
  0
VERTEX
  8
0TOC_DRE
 10
230829.22
 20
9320740.00
  0
VERTEX
  8
0TOC_DRE
 10
230911.27
 20
9320363.00
  0
VERTEX
  8
0TOC_DRE
 10
230981.91
 20
9320062.00
  0
VERTEX
  8
0TOC_DRE
 10
231163.78
 20
9319658.00
  0
VERTEX
  8
0TOC_DRE
 10
231288.17
 20
9319181.00
  0
VERTEX
  8
0TOC_DRE
 10
231342.44
 20
9318623.00
  0
VERTEX
  8
0TOC_DRE
 10
231429.23
 20
9318146.00
  0
VERTEX
  8
0TOC_DRE
 10
231435.33
 20
9318133.00
  0
VERTEX
  8
0TOC_DRE
 10
231648.97
 20
9317761.00
  0
VERTEX
  8
0TOC_DRE
 10
231913.55
 20
9317024.00
  0
VERTEX
  8
0TOC_DRE
 10
231927.06
 20
9316674.00
  0
VERTEX
  8
0TOC_DRE
 10
232027.31
 20
9315840.00
  0
VERTEX
  8
0TOC_DRE
 10
232230.31
 20
9315592.00
  0
VERTEX
  8
0TOC_DRE
 10
232386.22
 20
9315546.00
  0
VERTEX
  8
0TOC_DRE
 10
232616.53
 20
9315449.00
  0
VERTEX
  8
0TOC_DRE
 10
232882.16
 20
9315201.00
  0
VERTEX
  8
0TOC_DRE
 10
232919.45
 20
9315182.00
  0
VERTEX
  8
0TOC_DRE
 10
233067.11
 20
9315004.00
  0
VERTEX
  8
0TOC_DRE
 10
233166.27
 20
9314514.00
  0
VERTEX
  8
0TOC_DRE
 10
233315.05
 20
9313993.00
  0
VERTEX
  8
0TOC_DRE
 10
233410.73
 20
9313691.00
  0
VERTEX
  8
0TOC_DRE
 10
233445.11
 20
9313477.00
  0
VERTEX
  8
0TOC_DRE
 10
233541.09
 20
9313194.00
  0
VERTEX
  8
0TOC_DRE
 10
233848.28
 20
9312376.00
  0
VERTEX
  8
0TOC_DRE
 10
234044.92
 20
9312123.00
  0
VERTEX
  8
0TOC_DRE
 10
234241.95
 20
9311894.00
  0
VERTEX
  8
0TOC_DRE
 10
234377.39
 20
9311736.00
  0
VERTEX
  8
0TOC_DRE
 10
234521.41
 20
9311734.00
  0
VERTEX
  8
0TOC_DRE
 10
234652.27
 20
9311688.00
  0
VERTEX
  8
0TOC_DRE
 10
234932.02
 20
9311546.00
  0
VERTEX
  8
0TOC_DRE
 10
234950.42
 20
9311521.00
  0
VERTEX
  8
0TOC_DRE
 10
235069.23
 20
9311506.00
  0
VERTEX
  8
0TOC_DRE
 10
235236.91
 20
9311410.00
  0
VERTEX
  8
0TOC_DRE
 10
235521.61
 20
9311180.00
  0
VERTEX
  8
0TOC_DRE
 10
235666.00
 20
9310784.00
  0
VERTEX
  8
0TOC_DRE
 10
235730.75
 20
9310507.00
  0
VERTEX
  8
0TOC_DRE
 10
235802.50
 20
9309862.00
  0
VERTEX
  8
0TOC_DRE
 10
235902.88
 20
9309453.00
  0
VERTEX
  8
0TOC_DRE
 10
235987.70
 20
9308845.00
  0
VERTEX
  8
0TOC_DRE
 10
236007.77
 20
9308513.00
  0
VERTEX
  8
0TOC_DRE
 10
236030.00
 20
9308325.00
  0
VERTEX
  8
0TOC_DRE
 10
236025.59
 20
9308031.00
  0
VERTEX
  8
0TOC_DRE
 10
236020.81
 20
9307711.00
  0
VERTEX
  8
0TOC_DRE
 10
236127.81
 20
9307328.00
  0
VERTEX
  8
0TOC_DRE
 10
236163.52
 20
9307202.00
  0
VERTEX
  8
0TOC_DRE
 10
236277.98
 20
9306900.00
  0
VERTEX
  8
0TOC_DRE
 10
236318.81
 20
9306699.00
  0
VERTEX
  8
0TOC_DRE
 10
236270.30
 20
9306387.00
  0
VERTEX
  8
0TOC_DRE
 10
236147.27
 20
9306120.00
  0
VERTEX
  8
0TOC_DRE
 10
236018.55
 20
9305890.00
  0
VERTEX
  8
0TOC_DRE
 10
235878.44
 20
9305736.00
  0
VERTEX
  8
0TOC_DRE
 10
235769.25
 20
9305556.00
  0
VERTEX
  8
0TOC_DRE
 10
235672.02
 20
9305338.00
  0
VERTEX
  8
0TOC_DRE
 10
235550.47
 20
9304752.00
  0
VERTEX
  8
0TOC_DRE
 10
235360.33
 20
9304185.00
  0
VERTEX
  8
0TOC_DRE
 10
235119.59
 20
9303588.00
  0
VERTEX
  8
0TOC_DRE
 10
234875.41
 20
9303178.00
  0
VERTEX
  8
0TOC_DRE
 10
234701.25
 20
9302843.00
  0
VERTEX
  8
0TOC_DRE
 10
234506.06
 20
9302357.00
  0
VERTEX
  8
0TOC_DRE
 10
234387.63
 20
9301977.00
  0
VERTEX
  8
0TOC_DRE
 10
234270.75
 20
9301704.00
  0
VERTEX
  8
0TOC_DRE
 10
234152.13
 20
9301311.00
  0
VERTEX
  8
0TOC_DRE
 10
233953.75
 20
9301032.00
  0
VERTEX
  8
0TOC_DRE
 10
233877.56
 20
9300965.00
  0
VERTEX
  8
0TOC_DRE
 10
233667.53
 20
9300743.00
  0
VERTEX
  8
0TOC_DRE
 10
233533.58
 20
9300582.00
  0
VERTEX
  8
0TOC_DRE
 10
233291.77
 20
9300329.00
  0
VERTEX
  8
0TOC_DRE
 10
233149.28
 20
9300018.00
  0
VERTEX
  8
0TOC_DRE
 10
232983.17
 20
9299801.00
  0
VERTEX
  8
0TOC_DRE
 10
232854.55
 20
9299578.00
  0
VERTEX
  8
0TOC_DRE
 10
232720.59
 20
9299417.00
  0
VERTEX
  8
0TOC_DRE
 10
232606.08
 20
9299300.00
  0
VERTEX
  8
0TOC_DRE
 10
232484.94
 20
9299158.00
  0
VERTEX
  8
0TOC_DRE
 10
232478.30
 20
9299133.00
  0
VERTEX
  8
0TOC_DRE
 10
232465.03
 20
9299083.00
  0
VERTEX
  8
0TOC_DRE
 10
232435.84
 20
9298808.00
  0
VERTEX
  8
0TOC_DRE
 10
232406.66
 20
9298533.00
  0
VERTEX
  8
0TOC_DRE
 10
232438.80
 20
9298170.00
  0
VERTEX
  8
0TOC_DRE
 10
232555.41
 20
9297592.00
  0
VERTEX
  8
0TOC_DRE
 10
232660.53
 20
9297083.00
  0
VERTEX
  8
0TOC_DRE
 10
232736.78
 20
9296738.00
  0
VERTEX
  8
0TOC_DRE
 10
232777.59
 20
9296118.00
  0
VERTEX
  8
0TOC_DRE
 10
232834.11
 20
9295710.00
  0
VERTEX
  8
0TOC_DRE
 10
232904.95
 20
9295421.00
  0
VERTEX
  8
0TOC_DRE
 10
232904.58
 20
9295396.00
  0
VERTEX
  8
0TOC_DRE
 10
232904.02
 20
9295358.00
  0
VERTEX
  8
0TOC_DRE
 10
232850.34
 20
9295121.00
  0
VERTEX
  8
0TOC_DRE
 10
232579.72
 20
9294618.00
  0
VERTEX
  8
0TOC_DRE
 10
232322.73
 20
9294190.00
  0
VERTEX
  8
0TOC_DRE
 10
232156.23
 20
9293529.00
  0
VERTEX
  8
0TOC_DRE
 10
232062.36
 20
9293118.00
  0
VERTEX
  8
0TOC_DRE
 10
231953.80
 20
9292562.00
  0
VERTEX
  8
0TOC_DRE
 10
231841.23
 20
9292157.00
  0
VERTEX
  8
0TOC_DRE
 10
231716.98
 20
9291808.00
  0
VERTEX
  8
0TOC_DRE
 10
231688.84
 20
9291602.00
  0
VERTEX
  8
0TOC_DRE
 10
231654.91
 20
9291428.00
  0
VERTEX
  8
0TOC_DRE
 10
231419.88
 20
9290793.00
  0
VERTEX
  8
0TOC_DRE
 10
231183.81
 20
9290089.00
  0
VERTEX
  8
0TOC_DRE
 10
231052.56
 20
9289690.00
  0
VERTEX
  8
0TOC_DRE
 10
230896.06
 20
9289279.00
  0
VERTEX
  8
0TOC_DRE
 10
230811.94
 20
9289099.00
  0
VERTEX
  8
0TOC_DRE
 10
230678.64
 20
9288982.00
  0
VERTEX
  8
0TOC_DRE
 10
230520.02
 20
9288847.00
  0
VERTEX
  8
0TOC_DRE
 10
230455.98
 20
9288754.00
  0
VERTEX
  8
0TOC_DRE
 10
230455.70
 20
9288735.00
  0
VERTEX
  8
0TOC_DRE
 10
230448.38
 20
9288247.00
  0
VERTEX
  8
0TOC_DRE
 10
230434.50
 20
9287740.00
  0
VERTEX
  8
0TOC_DRE
 10
230527.39
 20
9287251.00
  0
VERTEX
  8
0TOC_DRE
 10
230617.86
 20
9287018.00
  0
VERTEX
  8
0TOC_DRE
 10
230788.31
 20
9286690.00
  0
VERTEX
  8
0TOC_DRE
 10
231000.58
 20
9286223.00
  0
VERTEX
  8
0TOC_DRE
 10
231220.84
 20
9285876.00
  0
VERTEX
  8
0TOC_DRE
 10
231251.31
 20
9285819.00
  0
VERTEX
  8
0TOC_DRE
 10
231269.92
 20
9285806.00
  0
VERTEX
  8
0TOC_DRE
 10
231281.59
 20
9285750.00
  0
VERTEX
  8
0TOC_DRE
 10
231378.05
 20
9285498.00
  0
VERTEX
  8
0TOC_DRE
 10
231455.14
 20
9285209.00
  0
VERTEX
  8
0TOC_DRE
 10
231551.41
 20
9284944.00
  0
VERTEX
  8
0TOC_DRE
 10
231655.33
 20
9284774.00
  0
VERTEX
  8
0TOC_DRE
 10
231834.14
 20
9284583.00
  0
VERTEX
  8
0TOC_DRE
 10
232092.28
 20
9284254.00
  0
VERTEX
  8
0TOC_DRE
 10
232180.86
 20
9283896.00
  0
VERTEX
  8
0TOC_DRE
 10
232239.06
 20
9283601.00
  0
VERTEX
  8
0TOC_DRE
 10
232274.11
 20
9283431.00
  0
VERTEX
  8
0TOC_DRE
 10
232282.61
 20
9283162.00
  0
VERTEX
  8
0TOC_DRE
 10
232236.58
 20
9282599.00
  0
VERTEX
  8
0TOC_DRE
 10
232161.13
 20
9282162.00
  0
VERTEX
  8
0TOC_DRE
 10
232019.88
 20
9281933.00
  0
VERTEX
  8
0TOC_DRE
 10
231847.97
 20
9281748.00
  0
VERTEX
  8
0TOC_DRE
 10
231669.16
 20
9281519.00
  0
VERTEX
  8
0TOC_DRE
 10
231586.33
 20
9281426.00
  0
VERTEX
  8
0TOC_DRE
 10
231294.59
 20
9281186.00
  0
VERTEX
  8
0TOC_DRE
 10
230999.03
 20
9281110.00
  0
VERTEX
  8
0TOC_DRE
 10
230804.14
 20
9281062.00
  0
VERTEX
  8
0TOC_DRE
 10
230658.80
 20
9280977.00
  0
VERTEX
  8
0TOC_DRE
 10
230563.17
 20
9280866.00
  0
VERTEX
  8
0TOC_DRE
 10
230562.98
 20
9280853.00
  0
VERTEX
  8
0TOC_DRE
 10
230419.56
 20
9280480.00
  0
VERTEX
  8
0TOC_DRE
 10
230194.66
 20
9280101.00
  0
VERTEX
  8
0TOC_DRE
 10
229845.14
 20
9279769.00
  0
VERTEX
  8
0TOC_DRE
 10
229568.91
 20
9279310.00
  0
VERTEX
  8
0TOC_DRE
 10
229456.06
 20
9278886.00
  0
VERTEX
  8
0TOC_DRE
 10
229401.28
 20
9278573.00
  0
VERTEX
  8
0TOC_DRE
 10
229303.86
 20
9278343.00
  0
VERTEX
  8
0TOC_DRE
 10
229199.83
 20
9278088.00
  0
VERTEX
  8
0TOC_DRE
 10
229031.27
 20
9277709.00
  0
VERTEX
  8
0TOC_DRE
 10
228950.02
 20
9277303.00
  0
VERTEX
  8
0TOC_DRE
 10
228931.22
 20
9277304.00
  0
VERTEX
  8
0TOC_DRE
 10
228899.91
 20
9277304.00
  0
VERTEX
  8
0TOC_DRE
 10
228748.95
 20
9277262.00
  0
VERTEX
  8
0TOC_DRE
 10
228288.13
 20
9277025.00
  0
VERTEX
  8
0TOC_DRE
 10
228086.42
 20
9276941.00
  0
VERTEX
  8
0TOC_DRE
 10
227890.77
 20
9276843.00
  0
VERTEX
  8
0TOC_DRE
 10
227831.78
 20
9276669.00
  0
VERTEX
  8
0TOC_DRE
 10
227803.08
 20
9276425.00
  0
VERTEX
  8
0TOC_DRE
 10
227768.84
 20
9276232.00
  0
VERTEX
  8
0TOC_DRE
 10
227783.97
 20
9275988.00
  0
VERTEX
  8
0TOC_DRE
 10
227789.03
 20
9275906.00
  0
VERTEX
  8
0TOC_DRE
 10
227786.02
 20
9275706.00
  0
VERTEX
  8
0TOC_DRE
 10
227720.11
 20
9275488.00
  0
VERTEX
  8
0TOC_DRE
 10
227711.88
 20
9275356.00
  0
VERTEX
  8
0TOC_DRE
 10
227769.70
 20
9275036.00
  0
VERTEX
  8
0TOC_DRE
 10
227765.58
 20
9274761.00
  0
VERTEX
  8
0TOC_DRE
 10
227838.30
 20
9274597.00
  0
VERTEX
  8
0TOC_DRE
 10
227899.61
 20
9274509.00
  0
VERTEX
  8
0TOC_DRE
 10
227922.41
 20
9274358.00
  0
VERTEX
  8
0TOC_DRE
 10
227917.61
 20
9274039.00
  0
VERTEX
  8
0TOC_DRE
 10
227858.34
 20
9273846.00
  0
VERTEX
  8
0TOC_DRE
 10
227800.94
 20
9273778.00
  0
VERTEX
  8
0TOC_DRE
 10
227737.28
 20
9273710.00
  0
VERTEX
  8
0TOC_DRE
 10
227641.47
 20
9273586.00
  0
VERTEX
  8
0TOC_DRE
 10
227596.69
 20
9273524.00
  0
VERTEX
  8
0TOC_DRE
 10
227480.31
 20
9273282.00
  0
VERTEX
  8
0TOC_DRE
 10
227233.91
 20
9273142.00
  0
VERTEX
  8
0TOC_DRE
 10
227106.13
 20
9272974.00
  0
VERTEX
  8
0TOC_DRE
 10
226975.80
 20
9272638.00
  0
VERTEX
  8
0TOC_DRE
 10
226950.45
 20
9272201.00
  0
VERTEX
  8
0TOC_DRE
 10
227032.11
 20
9271799.00
  0
VERTEX
  8
0TOC_DRE
 10
227137.98
 20
9271340.00
  0
VERTEX
  8
0TOC_DRE
 10
227277.63
 20
9271044.00
  0
VERTEX
  8
0TOC_DRE
 10
227404.83
 20
9270754.00
  0
VERTEX
  8
0TOC_DRE
 10
227437.98
 20
9270460.00
  0
VERTEX
  8
0TOC_DRE
 10
227436.06
 20
9269915.00
  0
VERTEX
  8
0TOC_DRE
 10
227436.33
 20
9269514.00
  0
VERTEX
  8
0TOC_DRE
 10
227397.41
 20
9269008.00
  0
VERTEX
  8
0TOC_DRE
 10
227390.28
 20
9268532.00
  0
VERTEX
  8
0TOC_DRE
 10
227335.02
 20
9268189.00
  0
VERTEX
  8
0TOC_DRE
 10
227269.11
 20
9267971.00
  0
VERTEX
  8
0TOC_DRE
 10
227256.30
 20
9267952.00
  0
VERTEX
  8
0TOC_DRE
 10
227089.72
 20
9267704.00
  0
VERTEX
  8
0TOC_DRE
 10
226890.80
 20
9267388.00
  0
VERTEX
  8
0TOC_DRE
 10
226607.39
 20
9267286.00
  0
VERTEX
  8
0TOC_DRE
 10
226330.05
 20
9267171.00
  0
VERTEX
  8
0TOC_DRE
 10
226179.19
 20
9267136.00
  0
VERTEX
  8
0TOC_DRE
 10
225820.06
 20
9266997.00
  0
VERTEX
  8
0TOC_DRE
 10
225653.11
 20
9266724.00
  0
VERTEX
  8
0TOC_DRE
 10
225632.63
 20
9266612.00
  0
VERTEX
  8
0TOC_DRE
 10
225579.06
 20
9266381.00
  0
VERTEX
  8
0TOC_DRE
 10
225502.47
 20
9265869.00
  0
VERTEX
  8
0TOC_DRE
 10
225427.86
 20
9265488.00
  0
VERTEX
  8
0TOC_DRE
 10
225346.61
 20
9265083.00
  0
VERTEX
  8
0TOC_DRE
 10
225259.94
 20
9264734.00
  0
VERTEX
  8
0TOC_DRE
 10
225129.81
 20
9264410.00
  0
VERTEX
  8
0TOC_DRE
 10
224952.50
 20
9264281.00
  0
VERTEX
  8
0TOC_DRE
 10
224849.19
 20
9264076.00
  0
VERTEX
  8
0TOC_DRE
 10
224828.81
 20
9263970.00
  0
VERTEX
  8
0TOC_DRE
 10
224803.77
 20
9263971.00
  0
VERTEX
  8
0TOC_DRE
 10
224614.75
 20
9263898.00
  0
VERTEX
  8
0TOC_DRE
 10
224505.11
 20
9263687.00
  0
VERTEX
  8
0TOC_DRE
 10
224276.17
 20
9263459.00
  0
VERTEX
  8
0TOC_DRE
 10
224175.78
 20
9263448.00
  0
VERTEX
  8
0TOC_DRE
 10
223782.91
 20
9263147.00
  0
VERTEX
  8
0TOC_DRE
 10
223565.45
 20
9262431.00
  0
VERTEX
  8
0TOC_DRE
 10
223487.97
 20
9262275.00
  0
VERTEX
  8
0TOC_DRE
 10
223527.95
 20
9262018.00
  0
VERTEX
  8
0TOC_DRE
 10
223554.28
 20
9261686.00
  0
VERTEX
  8
0TOC_DRE
 10
223623.33
 20
9261278.00
  0
VERTEX
  8
0TOC_DRE
 10
223775.11
 20
9260956.00
  0
VERTEX
  8
0TOC_DRE
 10
224007.83
 20
9260602.00
  0
VERTEX
  8
0TOC_DRE
 10
224113.23
 20
9260113.00
  0
VERTEX
  8
0TOC_DRE
 10
224160.98
 20
9259955.00
  0
VERTEX
  8
0TOC_DRE
 10
224189.09
 20
9259742.00
  0
VERTEX
  8
0TOC_DRE
 10
224180.59
 20
9259592.00
  0
VERTEX
  8
0TOC_DRE
 10
224097.11
 20
9259456.00
  0
VERTEX
  8
0TOC_DRE
 10
224045.33
 20
9259344.00
  0
VERTEX
  8
0TOC_DRE
 10
223922.86
 20
9259114.00
  0
VERTEX
  8
0TOC_DRE
 10
223830.11
 20
9258777.00
  0
VERTEX
  8
0TOC_DRE
 10
223770.02
 20
9258528.00
  0
VERTEX
  8
0TOC_DRE
 10
223783.16
 20
9258152.00
  0
VERTEX
  8
0TOC_DRE
 10
223826.13
 20
9257676.00
  0
VERTEX
  8
0TOC_DRE
 10
223825.56
 20
9257638.00
  0
VERTEX
  8
0TOC_DRE
 10
223824.72
 20
9257582.00
  0
VERTEX
  8
0TOC_DRE
 10
223839.56
 20
9257319.00
  0
VERTEX
  8
0TOC_DRE
 10
223833.45
 20
9256912.00
  0
VERTEX
  8
0TOC_DRE
 10
223825.77
 20
9256399.00
  0
VERTEX
  8
0TOC_DRE
 10
223820.80
 20
9256067.00
  0
VERTEX
  8
0TOC_DRE
 10
223859.94
 20
9255754.00
  0
VERTEX
  8
0TOC_DRE
 10
223928.42
 20
9255308.00
  0
VERTEX
  8
0TOC_DRE
 10
223998.14
 20
9254944.00
  0
VERTEX
  8
0TOC_DRE
 10
224125.23
 20
9254648.00
  0
VERTEX
  8
0TOC_DRE
 10
224130.66
 20
9254592.00
  0
VERTEX
  8
0TOC_DRE
 10
224122.42
 20
9254460.00
  0
VERTEX
  8
0TOC_DRE
 10
224056.13
 20
9254217.00
  0
VERTEX
  8
0TOC_DRE
 10
224027.05
 20
9253948.00
  0
VERTEX
  8
0TOC_DRE
 10
224089.08
 20
9253491.00
  0
VERTEX
  8
0TOC_DRE
 10
224127.75
 20
9253146.00
  0
VERTEX
  8
0TOC_DRE
 10
224123.44
 20
9252858.00
  0
VERTEX
  8
0TOC_DRE
 10
224105.56
 20
9252501.00
  0
VERTEX
  8
0TOC_DRE
 10
224013.75
 20
9252227.00
  0
VERTEX
  8
0TOC_DRE
 10
223969.36
 20
9252190.00
  0
VERTEX
  8
0TOC_DRE
 10
223956.64
 20
9252178.00
  0
VERTEX
  8
0TOC_DRE
 10
223899.06
 20
9252098.00
  0
VERTEX
  8
0TOC_DRE
 10
223789.50
 20
9251893.00
  0
VERTEX
  8
0TOC_DRE
 10
223674.06
 20
9251713.00
  0
VERTEX
  8
0TOC_DRE
 10
223641.53
 20
9251632.00
  0
VERTEX
  8
0TOC_DRE
 10
223576.64
 20
9251483.00
  0
VERTEX
  8
0TOC_DRE
 10
223308.45
 20
9251143.00
  0
VERTEX
  8
0TOC_DRE
 10
223117.19
 20
9250920.00
  0
VERTEX
  8
0TOC_DRE
 10
222901.08
 20
9250711.00
  0
VERTEX
  8
0TOC_DRE
 10
222722.34
 20
9250488.00
  0
VERTEX
  8
0TOC_DRE
 10
222599.14
 20
9250208.00
  0
VERTEX
  8
0TOC_DRE
 10
222522.20
 20
9250090.00
  0
VERTEX
  8
0TOC_DRE
 10
222407.78
 20
9249979.00
  0
VERTEX
  8
0TOC_DRE
 10
222164.56
 20
9249632.00
  0
VERTEX
  8
0TOC_DRE
 10
221890.95
 20
9249349.00
  0
VERTEX
  8
0TOC_DRE
 10
221779.33
 20
9249006.00
  0
VERTEX
  8
0TOC_DRE
 10
221586.30
 20
9248665.00
  0
VERTEX
  8
0TOC_DRE
 10
221501.22
 20
9248422.00
  0
VERTEX
  8
0TOC_DRE
 10
221449.14
 20
9248291.00
  0
VERTEX
  8
0TOC_DRE
 10
221448.20
 20
9248229.00
  0
VERTEX
  8
0TOC_DRE
 10
221326.47
 20
9247630.00
  0
VERTEX
  8
0TOC_DRE
 10
221214.09
 20
9247237.00
  0
VERTEX
  8
0TOC_DRE
 10
221073.41
 20
9247045.00
  0
VERTEX
  8
0TOC_DRE
 10
220965.80
 20
9246552.00
  0
VERTEX
  8
0TOC_DRE
 10
220878.84
 20
9246184.00
  0
VERTEX
  8
0TOC_DRE
 10
220858.66
 20
9246090.00
  0
VERTEX
  8
0TOC_DRE
 10
220832.09
 20
9245991.00
  0
VERTEX
  8
0TOC_DRE
 10
220728.98
 20
9245798.00
  0
VERTEX
  8
0TOC_DRE
 10
220582.03
 20
9245606.00
  0
VERTEX
  8
0TOC_DRE
 10
220414.05
 20
9245265.00
  0
VERTEX
  8
0TOC_DRE
 10
220322.72
 20
9245022.00
  0
VERTEX
  8
0TOC_DRE
 10
220230.06
 20
9244692.00
  0
VERTEX
  8
0TOC_DRE
 10
220143.95
 20
9244380.00
  0
VERTEX
  8
0TOC_DRE
 10
220125.80
 20
9244005.00
  0
VERTEX
  8
0TOC_DRE
 10
220127.36
 20
9243692.00
  0
VERTEX
  8
0TOC_DRE
 10
220223.81
 20
9243440.00
  0
VERTEX
  8
0TOC_DRE
 10
220333.91
 20
9243263.00
  0
VERTEX
  8
0TOC_DRE
 10
220401.48
 20
9243174.00
  0
VERTEX
  8
0TOC_DRE
 10
220679.83
 20
9242938.00
  0
VERTEX
  8
0TOC_DRE
 10
220942.45
 20
9242490.00
  0
VERTEX
  8
0TOC_DRE
 10
221128.64
 20
9242375.00
  0
VERTEX
  8
0TOC_DRE
 10
221438.28
 20
9242138.00
  0
VERTEX
  8
0TOC_DRE
 10
221722.70
 20
9241890.00
  0
VERTEX
  8
0TOC_DRE
 10
221837.94
 20
9241638.00
  0
VERTEX
  8
0TOC_DRE
 10
222038.61
 20
9241234.00
  0
VERTEX
  8
0TOC_DRE
 10
222192.34
 20
9241044.00
  0
VERTEX
  8
0TOC_DRE
 10
222315.44
 20
9240898.00
  0
VERTEX
  8
0TOC_DRE
 10
222361.50
 20
9240629.00
  0
VERTEX
  8
0TOC_DRE
 10
222364.86
 20
9240435.00
  0
VERTEX
  8
0TOC_DRE
 10
222363.63
 20
9240353.00
  0
VERTEX
  8
0TOC_DRE
 10
222362.88
 20
9240303.00
  0
VERTEX
  8
0TOC_DRE
 10
222393.05
 20
9239808.00
  0
VERTEX
  8
0TOC_DRE
 10
222475.28
 20
9239444.00
  0
VERTEX
  8
0TOC_DRE
 10
222636.95
 20
9238947.00
  0
VERTEX
  8
0TOC_DRE
 10
222781.44
 20
9238557.00
  0
VERTEX
  8
0TOC_DRE
 10
222851.89
 20
9238243.00
  0
VERTEX
  8
0TOC_DRE
 10
222857.94
 20
9237811.00
  0
VERTEX
  8
0TOC_DRE
 10
222832.39
 20
9237360.00
  0
VERTEX
  8
0TOC_DRE
 10
222746.75
 20
9237080.00
  0
VERTEX
  8
0TOC_DRE
 10
222694.13
 20
9236912.00
  0
VERTEX
  8
0TOC_DRE
 10
222667.94
 20
9236837.00
  0
VERTEX
  8
0TOC_DRE
 10
222667.00
 20
9236775.00
  0
VERTEX
  8
0TOC_DRE
 10
222547.25
 20
9236307.00
  0
VERTEX
  8
0TOC_DRE
 10
222331.77
 20
9235722.00
  0
VERTEX
  8
0TOC_DRE
 10
222155.34
 20
9235236.00
  0
VERTEX
  8
0TOC_DRE
 10
221984.36
 20
9234694.00
  0
VERTEX
  8
0TOC_DRE
 10
221790.66
 20
9234309.00
  0
VERTEX
  8
0TOC_DRE
 10
221520.22
 20
9233819.00
  0
VERTEX
  8
0TOC_DRE
 10
221333.55
 20
9233483.00
  0
VERTEX
  8
0TOC_DRE
 10
221089.08
 20
9233055.00
  0
VERTEX
  8
0TOC_DRE
 10
220940.73
 20
9232769.00
  0
VERTEX
  8
0TOC_DRE
 10
220731.63
 20
9232610.00
  0
VERTEX
  8
0TOC_DRE
 10
220466.08
 20
9232445.00
  0
VERTEX
  8
0TOC_DRE
 10
220275.47
 20
9232266.00
  0
VERTEX
  8
0TOC_DRE
 10
220132.44
 20
9231918.00
  0
VERTEX
  8
0TOC_DRE
 10
220063.05
 20
9231468.00
  0
VERTEX
  8
0TOC_DRE
 10
220063.86
 20
9231105.00
  0
VERTEX
  8
0TOC_DRE
 10
220119.64
 20
9230647.00
  0
VERTEX
  8
0TOC_DRE
 10
220170.84
 20
9230302.00
  0
VERTEX
  8
0TOC_DRE
 10
220168.22
 20
9230127.00
  0
VERTEX
  8
0TOC_DRE
 10
220236.05
 20
9229638.00
  0
VERTEX
  8
0TOC_DRE
 10
220305.28
 20
9229242.00
  0
VERTEX
  8
0TOC_DRE
 10
220299.75
 20
9228873.00
  0
VERTEX
  8
0TOC_DRE
 10
220233.36
 20
9228624.00
  0
VERTEX
  8
0TOC_DRE
 10
220193.16
 20
9228449.00
  0
VERTEX
  8
0TOC_DRE
 10
220127.25
 20
9228231.00
  0
VERTEX
  8
0TOC_DRE
 10
219978.33
 20
9227908.00
  0
VERTEX
  8
0TOC_DRE
 10
219899.72
 20
9227677.00
  0
VERTEX
  8
0TOC_DRE
 10
219733.23
 20
9227436.00
  0
VERTEX
  8
0TOC_DRE
 10
219548.05
 20
9227201.00
  0
VERTEX
  8
0TOC_DRE
 10
219357.45
 20
9227022.00
  0
VERTEX
  8
0TOC_DRE
 10
219185.44
 20
9226831.00
  0
VERTEX
  8
0TOC_DRE
 10
218931.56
 20
9226609.00
  0
VERTEX
  8
0TOC_DRE
 10
218639.27
 20
9226332.00
  0
VERTEX
  8
0TOC_DRE
 10
218492.89
 20
9226178.00
  0
VERTEX
  8
0TOC_DRE
 10
218353.61
 20
9226079.00
  0
VERTEX
  8
0TOC_DRE
 10
218094.50
 20
9225927.00
  0
VERTEX
  8
0TOC_DRE
 10
217683.95
 20
9225701.00
  0
VERTEX
  8
0TOC_DRE
 10
217482.05
 20
9225604.00
  0
VERTEX
  8
0TOC_DRE
 10
217387.55
 20
9225568.00
  0
VERTEX
  8
0TOC_DRE
 10
217374.84
 20
9225556.00
  0
VERTEX
  8
0TOC_DRE
 10
217191.50
 20
9225422.00
  0
SEQEND
  8
0TOC_DRE
  0
LINE
  8
0TOC_DRE
 10
218327.19
 20
9225645.00
 11
217374.36
 21
9225038.00
  0
POLYLINE
  8
0TOC_DRE
 66
     1
  0
VERTEX
  8
0TOC_DRE
 10
217374.36
 20
9225038.00
  0
VERTEX
  8
0TOC_DRE
 10
216863.94
 20
9224696.00
  0
VERTEX
  8
0TOC_DRE
 10
216780.47
 20
9224570.00
  0
VERTEX
  8
0TOC_DRE
 10
216577.28
 20
9224420.00
  0
VERTEX
  8
0TOC_DRE
 10
216450.89
 20
9224328.00
  0
VERTEX
  8
0TOC_DRE
 10
216221.16
 20
9224100.00
  0
VERTEX
  8
0TOC_DRE
 10
216029.84
 20
9224000.00
  0
VERTEX
  8
0TOC_DRE
 10
215866.47
 20
9223866.00
  0
VERTEX
  8
0TOC_DRE
 10
215645.73
 20
9223718.00
  0
VERTEX
  8
0TOC_DRE
 10
215457.80
 20
9223548.00
  0
VERTEX
  8
0TOC_DRE
 10
215252.16
 20
9223393.00
  0
VERTEX
  8
0TOC_DRE
 10
215115.88
 20
9223292.00
  0
VERTEX
  8
0TOC_DRE
 10
214957.77
 20
9223137.00
  0
VERTEX
  8
0TOC_DRE
 10
214846.97
 20
9222996.00
  0
VERTEX
  8
0TOC_DRE
 10
214701.17
 20
9222856.00
  0
VERTEX
  8
0TOC_DRE
 10
214578.52
 20
9222665.00
  0
VERTEX
  8
0TOC_DRE
 10
214426.47
 20
9222423.00
  0
VERTEX
  8
0TOC_DRE
 10
214388.95
 20
9222222.00
  0
VERTEX
  8
0TOC_DRE
 10
214354.36
 20
9221986.00
  0
VERTEX
  8
0TOC_DRE
 10
214278.77
 20
9221830.00
  0
VERTEX
  8
0TOC_DRE
 10
214180.80
 20
9221664.00
  0
VERTEX
  8
0TOC_DRE
 10
214095.67
 20
9221470.00
  0
VERTEX
  8
0TOC_DRE
 10
214037.23
 20
9221344.00
  0
VERTEX
  8
0TOC_DRE
 10
214011.42
 20
9221207.00
  0
VERTEX
  8
0TOC_DRE
 10
213968.50
 20
9221038.00
  0
VERTEX
  8
0TOC_DRE
 10
213908.56
 20
9220830.00
  0
VERTEX
  8
0TOC_DRE
 10
213828.31
 20
9220646.00
  0
VERTEX
  8
0TOC_DRE
 10
213787.64
 20
9220498.00
  0
VERTEX
  8
0TOC_DRE
 10
213722.08
 20
9220340.00
  0
VERTEX
  8
0TOC_DRE
 10
213673.78
 20
9220202.00
  0
VERTEX
  8
0TOC_DRE
 10
213655.61
 20
9220054.00
  0
VERTEX
  8
0TOC_DRE
 10
213610.52
 20
9219858.00
  0
VERTEX
  8
0TOC_DRE
 10
213597.44
 20
9219703.00
  0
VERTEX
  8
0TOC_DRE
 10
213659.03
 20
9219548.00
  0
SEQEND
  8
0TOC_DRE
  0
POLYLINE
  8
0TOC_DRE
 66
     1
  0
VERTEX
  8
0TOC_DRE
 10
213659.03
 20
9219548.00
  0
VERTEX
  8
0TOC_DRE
 10
213802.30
 20
9219517.00
  0
VERTEX
  8
0TOC_DRE
 10
214037.38
 20
9219515.00
  0
VERTEX
  8
0TOC_DRE
 10
214360.34
 20
9219687.00
  0
VERTEX
  8
0TOC_DRE
 10
214504.70
 20
9219741.00
  0
VERTEX
  8
0TOC_DRE
 10
214716.14
 20
9219831.00
  0
VERTEX
  8
0TOC_DRE
 10
214885.20
 20
9219910.00
  0
VERTEX
  8
0TOC_DRE
 10
215031.56
 20
9220005.00
  0
VERTEX
  8
0TOC_DRE
 10
215341.31
 20
9220234.00
  0
VERTEX
  8
0TOC_DRE
 10
215561.83
 20
9220399.00
  0
VERTEX
  8
0TOC_DRE
 10
215757.30
 20
9220566.00
  0
VERTEX
  8
0TOC_DRE
 10
215890.77
 20
9220693.00
  0
VERTEX
  8
0TOC_DRE
 10
216079.33
 20
9220813.00
  0
VERTEX
  8
0TOC_DRE
 10
216305.28
 20
9220943.00
  0
VERTEX
  8
0TOC_DRE
 10
216373.52
 20
9221086.00
  0
VERTEX
  8
0TOC_DRE
 10
216598.92
 20
9221462.00
  0
VERTEX
  8
0TOC_DRE
 10
216838.13
 20
9221733.00
  0
VERTEX
  8
0TOC_DRE
 10
217003.08
 20
9221942.00
  0
VERTEX
  8
0TOC_DRE
 10
217051.28
 20
9222088.00
  0
VERTEX
  8
0TOC_DRE
 10
217218.14
 20
9222345.00
  0
VERTEX
  8
0TOC_DRE
 10
217376.45
 20
9222485.00
  0
VERTEX
  8
0TOC_DRE
 10
217599.61
 20
9222637.00
  0
VERTEX
  8
0TOC_DRE
 10
217805.00
 20
9222812.00
  0
VERTEX
  8
0TOC_DRE
 10
217972.63
 20
9223007.00
  0
VERTEX
  8
0TOC_DRE
 10
218052.97
 20
9223183.00
  0
VERTEX
  8
0TOC_DRE
 10
218160.44
 20
9223390.00
  0
VERTEX
  8
0TOC_DRE
 10
218312.83
 20
9223604.00
  0
VERTEX
  8
0TOC_DRE
 10
218395.42
 20
9223800.00
  0
VERTEX
  8
0TOC_DRE
 10
218503.44
 20
9223962.00
  0
VERTEX
  8
0TOC_DRE
 10
218605.02
 20
9224241.00
  0
VERTEX
  8
0TOC_DRE
 10
218720.20
 20
9224430.00
  0
VERTEX
  8
0TOC_DRE
 10
218821.11
 20
9224561.00
  0
VERTEX
  8
0TOC_DRE
 10
218914.06
 20
9224727.00
  0
VERTEX
  8
0TOC_DRE
 10
219377.73
 20
9225453.00
  0
SEQEND
  8
0TOC_DRE
  0
POLYLINE
  8
0TOC_DRE
 66
     1
  0
VERTEX
  8
0TOC_DRE
 10
217191.50
 20
9225422.00
  0
VERTEX
  8
0TOC_DRE
 10
216801.86
 20
9225154.00
  0
VERTEX
  8
0TOC_DRE
 10
216645.70
 20
9225066.00
  0
VERTEX
  8
0TOC_DRE
 10
216457.83
 20
9224930.00
  0
VERTEX
  8
0TOC_DRE
 10
216294.63
 20
9224815.00
  0
VERTEX
  8
0TOC_DRE
 10
216161.52
 20
9224695.00
  0
VERTEX
  8
0TOC_DRE
 10
216015.78
 20
9224583.00
  0
VERTEX
  8
0TOC_DRE
 10
215755.30
 20
9224451.00
  0
VERTEX
  8
0TOC_DRE
 10
215598.75
 20
9224236.00
  0
VERTEX
  8
0TOC_DRE
 10
215441.83
 20
9224043.00
  0
VERTEX
  8
0TOC_DRE
 10
215209.64
 20
9223864.00
  0
VERTEX
  8
0TOC_DRE
 10
214983.72
 20
9223607.00
  0
VERTEX
  8
0TOC_DRE
 10
214793.33
 20
9223472.00
  0
VERTEX
  8
0TOC_DRE
 10
214560.86
 20
9223310.00
  0
VERTEX
  8
0TOC_DRE
 10
214353.88
 20
9223119.00
  0
VERTEX
  8
0TOC_DRE
 10
214164.73
 20
9222908.00
  0
VERTEX
  8
0TOC_DRE
 10
214111.58
 20
9222642.00
  0
VERTEX
  8
0TOC_DRE
 10
214027.38
 20
9222438.00
  0
VERTEX
  8
0TOC_DRE
 10
213930.39
 20
9222251.00
  0
VERTEX
  8
0TOC_DRE
 10
213810.16
 20
9222109.00
  0
VERTEX
  8
0TOC_DRE
 10
213717.22
 20
9221980.00
  0
VERTEX
  8
0TOC_DRE
 10
213612.63
 20
9221800.00
  0
VERTEX
  8
0TOC_DRE
 10
213568.47
 20
9221594.00
  0
VERTEX
  8
0TOC_DRE
 10
213531.05
 20
9221436.00
  0
VERTEX
  8
0TOC_DRE
 10
213467.52
 20
9221192.00
  0
VERTEX
  8
0TOC_DRE
 10
213371.36
 20
9220956.00
  0
VERTEX
  8
0TOC_DRE
 10
213278.23
 20
9220686.00
  0
VERTEX
  8
0TOC_DRE
 10
213219.86
 20
9220432.00
  0
VERTEX
  8
0TOC_DRE
 10
213166.66
 20
9220169.00
  0
VERTEX
  8
0TOC_DRE
 10
213134.86
 20
9219973.00
  0
VERTEX
  8
0TOC_DRE
 10
213105.52
 20
9219780.00
  0
VERTEX
  8
0TOC_DRE
 10
213071.50
 20
9219425.00
  0
SEQEND
  8
0TOC_DRE
  0
LINE
  8
0TOC_DRE
 10
216917.06
 20
9196345.00
 11
217199.83
 21
9196280.00
  0
LINE
  8
0TOC_DRE
 10
216725.95
 20
9195524.00
 11
217236.56
 21
9195477.00
  0
POLYLINE
  8
0TOC_DRE
 66
     1
  0
VERTEX
  8
0TOC_DRE
 10
219830.83
 20
9195863.00
  0
VERTEX
  8
0TOC_DRE
 10
219461.50
 20
9195974.00
  0
VERTEX
  8
0TOC_DRE
 10
219387.63
 20
9195974.00
  0
VERTEX
  8
0TOC_DRE
 10
218796.70
 20
9195974.00
  0
VERTEX
  8
0TOC_DRE
 10
218316.56
 20
9195789.00
  0
VERTEX
  8
0TOC_DRE
 10
218094.97
 20
9195642.00
  0
VERTEX
  8
0TOC_DRE
 10
218464.30
 20
9195124.00
  0
VERTEX
  8
0TOC_DRE
 10
218870.56
 20
9194792.00
  0
VERTEX
  8
0TOC_DRE
 10
219572.30
 20
9194681.00
  0
VERTEX
  8
0TOC_DRE
 10
220052.42
 20
9194829.00
  0
VERTEX
  8
0TOC_DRE
 10
220606.42
 20
9194792.00
  0
VERTEX
  8
0TOC_DRE
 10
220643.36
 20
9195124.00
  0
VERTEX
  8
0TOC_DRE
 10
220347.89
 20
9195531.00
  0
VERTEX
  8
0TOC_DRE
 10
219904.69
 20
9195900.00
  0
VERTEX
  8
0TOC_DRE
 10
219830.83
 20
9195863.00
  0
SEQEND
  8
0TOC_DRE
  0
POLYLINE
  8
0TOC_DRE
 66
     1
  0
VERTEX
  8
0TOC_DRE
 10
210623.05
 20
9193573.00
  0
VERTEX
  8
0TOC_DRE
 10
211314.14
 20
9194576.00
  0
VERTEX
  8
0TOC_DRE
 10
212233.83
 20
9196160.00
  0
VERTEX
  8
0TOC_DRE
 10
213408.98
 20
9196569.00
  0
VERTEX
  8
0TOC_DRE
 10
214839.61
 20
9196620.00
  0
VERTEX
  8
0TOC_DRE
 10
216091.39
 20
9196543.00
  0
VERTEX
  8
0TOC_DRE
 10
216917.06
 20
9196345.00
  0
SEQEND
  8
0TOC_DRE
  0
POLYLINE
  8
0TOC_DRE
 66
     1
  0
VERTEX
  8
0TOC_DRE
 10
217199.83
 20
9196280.00
  0
VERTEX
  8
0TOC_DRE
 10
217956.31
 20
9196416.00
  0
VERTEX
  8
0TOC_DRE
 10
218569.44
 20
9196390.00
  0
VERTEX
  8
0TOC_DRE
 10
219489.13
 20
9196390.00
  0
VERTEX
  8
0TOC_DRE
 10
220229.98
 20
9196237.00
  0
VERTEX
  8
0TOC_DRE
 10
221149.66
 20
9195649.00
  0
VERTEX
  8
0TOC_DRE
 10
221226.30
 20
9195598.00
  0
VERTEX
  8
0TOC_DRE
 10
221583.95
 20
9195445.00
  0
VERTEX
  8
0TOC_DRE
 10
222835.75
 20
9194243.00
  0
VERTEX
  8
0TOC_DRE
 10
223972.55
 20
9193535.00
  0
SEQEND
  8
0TOC_DRE
  0
POLYLINE
  8
0TOC_DRE
 66
     1
  0
VERTEX
  8
0TOC_DRE
 10
211158.34
 20
9193232.00
  0
VERTEX
  8
0TOC_DRE
 10
212489.30
 20
9195317.00
  0
VERTEX
  8
0TOC_DRE
 10
212540.39
 20
9195317.00
  0
VERTEX
  8
0TOC_DRE
 10
212617.03
 20
9195342.00
  0
VERTEX
  8
0TOC_DRE
 10
212693.67
 20
9195393.00
  0
VERTEX
  8
0TOC_DRE
 10
212770.31
 20
9195419.00
  0
VERTEX
  8
0TOC_DRE
 10
212821.41
 20
9195445.00
  0
VERTEX
  8
0TOC_DRE
 10
212872.50
 20
9195445.00
  0
VERTEX
  8
0TOC_DRE
 10
212923.59
 20
9195470.00
  0
VERTEX
  8
0TOC_DRE
 10
213971.02
 20
9195751.00
  0
VERTEX
  8
0TOC_DRE
 10
214022.11
 20
9195777.00
  0
VERTEX
  8
0TOC_DRE
 10
214175.39
 20
9195802.00
  0
VERTEX
  8
0TOC_DRE
 10
214405.31
 20
9195905.00
  0
VERTEX
  8
0TOC_DRE
 10
214967.33
 20
9195956.00
  0
VERTEX
  8
0TOC_DRE
 10
215708.19
 20
9195853.00
  0
VERTEX
  8
0TOC_DRE
 10
216725.95
 20
9195524.00
  0
SEQEND
  8
0TOC_DRE
  0
POLYLINE
  8
0TOC_DRE
 66
     1
  0
VERTEX
  8
0TOC_DRE
 10
217236.56
 20
9195477.00
  0
VERTEX
  8
0TOC_DRE
 10
217506.28
 20
9195249.00
  0
VERTEX
  8
0TOC_DRE
 10
217657.73
 20
9195056.00
  0
VERTEX
  8
0TOC_DRE
 10
217878.00
 20
9194987.00
  0
VERTEX
  8
0TOC_DRE
 10
218222.19
 20
9194671.00
  0
VERTEX
  8
0TOC_DRE
 10
218414.92
 20
9194381.00
  0
VERTEX
  8
0TOC_DRE
 10
218635.20
 20
9194175.00
  0
VERTEX
  8
0TOC_DRE
 10
219020.67
 20
9193872.00
  0
VERTEX
  8
0TOC_DRE
 10
219351.09
 20
9193679.00
  0
VERTEX
  8
0TOC_DRE
 10
219612.67
 20
9193624.00
  0
VERTEX
  8
0TOC_DRE
 10
221416.17
 20
9194147.00
  0
VERTEX
  8
0TOC_DRE
 10
222090.77
 20
9193872.00
  0
VERTEX
  8
0TOC_DRE
 10
223150.83
 20
9193190.00
  0
SEQEND
  8
0TOC_DRE
  0
LINE
  8
0TOC_DRE
 10
223907.58
 20
9192663.00
 11
223150.83
 21
9193190.00
  0
POLYLINE
  8
0TOC_DRE
 66
     1
  0
VERTEX
  8
0TOC_DRE
 10
207797.42
 20
9191960.00
  0
VERTEX
  8
0TOC_DRE
 10
208330.33
 20
9192028.00
  0
VERTEX
  8
0TOC_DRE
 10
209416.88
 20
9192657.00
  0
VERTEX
  8
0TOC_DRE
 10
210623.05
 20
9193573.00
  0
SEQEND
  8
0TOC_DRE
  0
POLYLINE
  8
0TOC_DRE
 66
     1
  0
VERTEX
  8
0TOC_DRE
 10
219793.08
 20
9225453.00
  0
VERTEX
  8
0TOC_DRE
 10
219637.92
 20
9225187.00
  0
VERTEX
  8
0TOC_DRE
 10
219650.94
 20
9225005.00
  0
VERTEX
  8
0TOC_DRE
 10
219581.95
 20
9224789.00
  0
VERTEX
  8
0TOC_DRE
 10
219500.09
 20
9224594.00
  0
VERTEX
  8
0TOC_DRE
 10
219367.52
 20
9224442.00
  0
VERTEX
  8
0TOC_DRE
 10
219259.53
 20
9224315.00
  0
VERTEX
  8
0TOC_DRE
 10
219135.38
 20
9224108.00
  0
VERTEX
  8
0TOC_DRE
 10
219030.44
 20
9223949.00
  0
VERTEX
  8
0TOC_DRE
 10
218905.23
 20
9223804.00
  0
VERTEX
  8
0TOC_DRE
 10
218744.02
 20
9223568.00
  0
VERTEX
  8
0TOC_DRE
 10
218659.44
 20
9223387.00
  0
VERTEX
  8
0TOC_DRE
 10
218574.55
 20
9223225.00
  0
VERTEX
  8
0TOC_DRE
 10
218474.73
 20
9223058.00
  0
VERTEX
  8
0TOC_DRE
 10
218291.20
 20
9222810.00
  0
VERTEX
  8
0TOC_DRE
 10
218164.50
 20
9222605.00
  0
VERTEX
  8
0TOC_DRE
 10
218056.89
 20
9222456.00
  0
VERTEX
  8
0TOC_DRE
 10
217968.92
 20
9222329.00
  0
VERTEX
  8
0TOC_DRE
 10
217742.19
 20
9222123.00
  0
VERTEX
  8
0TOC_DRE
 10
217575.22
 20
9221933.00
  0
VERTEX
  8
0TOC_DRE
 10
217510.48
 20
9221761.00
  0
VERTEX
  8
0TOC_DRE
 10
217370.17
 20
9221624.00
  0
VERTEX
  8
0TOC_DRE
 10
217222.30
 20
9221489.00
  0
VERTEX
  8
0TOC_DRE
 10
217102.28
 20
9221334.00
  0
VERTEX
  8
0TOC_DRE
 10
216982.86
 20
9221142.00
  0
VERTEX
  8
0TOC_DRE
 10
216844.92
 20
9221012.00
  0
VERTEX
  8
0TOC_DRE
 10
216685.25
 20
9220834.00
  0
VERTEX
  8
0TOC_DRE
 10
216582.69
 20
9220682.00
  0
VERTEX
  8
0TOC_DRE
 10
216457.28
 20
9220550.00
  0
VERTEX
  8
0TOC_DRE
 10
216307.00
 20
9220410.00
  0
VERTEX
  8
0TOC_DRE
 10
216181.84
 20
9220263.00
  0
VERTEX
  8
0TOC_DRE
 10
216027.47
 20
9220068.00
  0
VERTEX
  8
0TOC_DRE
 10
215804.58
 20
9219931.00
  0
VERTEX
  8
0TOC_DRE
 10
215664.34
 20
9219789.00
  0
VERTEX
  8
0TOC_DRE
 10
215355.61
 20
9219549.00
  0
VERTEX
  8
0TOC_DRE
 10
215125.70
 20
9219382.00
  0
VERTEX
  8
0TOC_DRE
 10
214828.28
 20
9219215.00
  0
VERTEX
  8
0TOC_DRE
 10
214682.30
 20
9219117.00
  0
VERTEX
  8
0TOC_DRE
 10
214538.38
 20
9219047.00
  0
VERTEX
  8
0TOC_DRE
 10
214406.66
 20
9218995.00
  0
VERTEX
  8
0TOC_DRE
 10
214171.17
 20
9218864.00
  0
VERTEX
  8
0TOC_DRE
 10
214032.69
 20
9218766.00
  0
VERTEX
  8
0TOC_DRE
 10
213862.08
 20
9218646.00
  0
VERTEX
  8
0TOC_DRE
 10
213665.14
 20
9218452.00
  0
VERTEX
  8
0TOC_DRE
 10
213552.98
 20
9218275.00
  0
VERTEX
  8
0TOC_DRE
 10
213374.22
 20
9218042.00
  0
VERTEX
  8
0TOC_DRE
 10
213194.78
 20
9217849.00
  0
VERTEX
  8
0TOC_DRE
 10
213041.44
 20
9217591.00
  0
VERTEX
  8
0TOC_DRE
 10
212940.95
 20
9217464.00
  0
VERTEX
  8
0TOC_DRE
 10
212835.61
 20
9217330.00
  0
VERTEX
  8
0TOC_DRE
 10
212737.31
 20
9217071.00
  0
VERTEX
  8
0TOC_DRE
 10
212611.14
 20
9216833.00
  0
VERTEX
  8
0TOC_DRE
 10
212550.88
 20
9216695.00
  0
VERTEX
  8
0TOC_DRE
 10
212430.56
 20
9216557.00
  0
VERTEX
  8
0TOC_DRE
 10
212260.06
 20
9216430.00
  0
VERTEX
  8
0TOC_DRE
 10
212152.22
 20
9216295.00
  0
VERTEX
  8
0TOC_DRE
 10
211987.63
 20
9216112.00
  0
VERTEX
  8
0TOC_DRE
 10
211789.73
 20
9215976.00
  0
VERTEX
  8
0TOC_DRE
 10
211612.19
 20
9215821.00
  0
VERTEX
  8
0TOC_DRE
 10
211468.88
 20
9215713.00
  0
VERTEX
  8
0TOC_DRE
 10
211339.06
 20
9215546.00
  0
VERTEX
  8
0TOC_DRE
 10
211256.08
 20
9215420.00
  0
VERTEX
  8
0TOC_DRE
 10
211159.72
 20
9215195.00
  0
VERTEX
  8
0TOC_DRE
 10
211097.66
 20
9215014.00
  0
VERTEX
  8
0TOC_DRE
 10
210941.23
 20
9214791.00
  0
VERTEX
  8
0TOC_DRE
 10
210888.56
 20
9214648.00
  0
VERTEX
  8
0TOC_DRE
 10
210828.50
 20
9214496.00
  0
VERTEX
  8
0TOC_DRE
 10
210737.14
 20
9214272.00
  0
VERTEX
  8
0TOC_DRE
 10
210682.98
 20
9214066.00
  0
VERTEX
  8
0TOC_DRE
 10
210675.88
 20
9213891.00
  0
VERTEX
  8
0TOC_DRE
 10
210669.20
 20
9213688.00
  0
VERTEX
  8
0TOC_DRE
 10
210661.33
 20
9213558.00
  0
VERTEX
  8
0TOC_DRE
 10
210653.42
 20
9213430.00
  0
VERTEX
  8
0TOC_DRE
 10
210640.92
 20
9213277.00
  0
VERTEX
  8
0TOC_DRE
 10
210638.39
 20
9213127.00
  0
VERTEX
  8
0TOC_DRE
 10
210613.59
 20
9212961.00
  0
VERTEX
  8
0TOC_DRE
 10
210563.22
 20
9212830.00
  0
VERTEX
  8
0TOC_DRE
 10
210498.75
 20
9212644.00
  0
VERTEX
  8
0TOC_DRE
 10
210443.50
 20
9212505.00
  0
VERTEX
  8
0TOC_DRE
 10
210340.89
 20
9212356.00
  0
VERTEX
  8
0TOC_DRE
 10
210249.27
 20
9212147.00
  0
VERTEX
  8
0TOC_DRE
 10
210134.91
 20
9211952.00
  0
VERTEX
  8
0TOC_DRE
 10
210022.00
 20
9211820.00
  0
VERTEX
  8
0TOC_DRE
 10
209879.67
 20
9211653.00
  0
VERTEX
  8
0TOC_DRE
 10
209799.86
 20
9211486.00
  0
VERTEX
  8
0TOC_DRE
 10
209692.02
 20
9211352.00
  0
VERTEX
  8
0TOC_DRE
 10
209551.28
 20
9211239.00
  0
VERTEX
  8
0TOC_DRE
 10
209368.98
 20
9211069.00
  0
VERTEX
  8
0TOC_DRE
 10
209241.25
 20
9210926.00
  0
VERTEX
  8
0TOC_DRE
 10
209063.28
 20
9210796.00
  0
VERTEX
  8
0TOC_DRE
 10
208916.08
 20
9210621.00
  0
VERTEX
  8
0TOC_DRE
 10
208833.39
 20
9210477.00
  0
VERTEX
  8
0TOC_DRE
 10
208761.63
 20
9210278.00
  0
VERTEX
  8
0TOC_DRE
 10
208716.91
 20
9210107.00
  0
VERTEX
  8
0TOC_DRE
 10
208693.95
 20
9209981.00
  0
VERTEX
  8
0TOC_DRE
 10
208649.16
 20
9209815.00
  0
VERTEX
  8
0TOC_DRE
 10
208611.61
 20
9209665.00
  0
VERTEX
  8
0TOC_DRE
 10
208529.22
 20
9209503.00
  0
VERTEX
  8
0TOC_DRE
 10
208388.81
 20
9209371.00
  0
VERTEX
  8
0TOC_DRE
 10
208247.91
 20
9209268.00
  0
VERTEX
  8
0TOC_DRE
 10
208113.73
 20
9209214.00
  0
VERTEX
  8
0TOC_DRE
 10
207881.88
 20
9209015.00
  0
VERTEX
  8
0TOC_DRE
 10
207750.23
 20
9208957.00
  0
VERTEX
  8
0TOC_DRE
 10
207588.67
 20
9208895.00
  0
VERTEX
  8
0TOC_DRE
 10
207389.52
 20
9208836.00
  0
VERTEX
  8
0TOC_DRE
 10
207262.92
 20
9208777.00
  0
VERTEX
  8
0TOC_DRE
 10
207135.92
 20
9208742.00
  0
VERTEX
  8
0TOC_DRE
 10
206925.08
 20
9208634.00
  0
VERTEX
  8
0TOC_DRE
 10
206689.84
 20
9208487.00
  0
VERTEX
  8
0TOC_DRE
 10
206538.25
 20
9208427.00
  0
VERTEX
  8
0TOC_DRE
 10
206317.13
 20
9208336.00
  0
VERTEX
  8
0TOC_DRE
 10
206190.23
 20
9208294.00
  0
VERTEX
  8
0TOC_DRE
 10
205988.50
 20
9208240.00
  0
VERTEX
  8
0TOC_DRE
 10
205796.34
 20
9208212.00
  0
VERTEX
  8
0TOC_DRE
 10
205617.81
 20
9208269.00
  0
VERTEX
  8
0TOC_DRE
 10
205422.92
 20
9208256.00
  0
VERTEX
  8
0TOC_DRE
 10
205219.91
 20
9208280.00
  0
VERTEX
  8
0TOC_DRE
 10
205016.59
 20
9208322.00
  0
VERTEX
  8
0TOC_DRE
 10
204853.14
 20
9208375.00
  0
VERTEX
  8
0TOC_DRE
 10
204702.16
 20
9208430.00
  0
VERTEX
  8
0TOC_DRE
 10
204548.63
 20
9208487.00
  0
VERTEX
  8
0TOC_DRE
 10
204406.64
 20
9208603.00
  0
VERTEX
  8
0TOC_DRE
 10
204201.45
 20
9208759.00
  0
VERTEX
  8
0TOC_DRE
 10
204020.13
 20
9208834.00
  0
VERTEX
  8
0TOC_DRE
 10
203835.80
 20
9208939.00
  0
VERTEX
  8
0TOC_DRE
 10
203696.45
 20
9209047.00
  0
VERTEX
  8
0TOC_DRE
 10
203516.80
 20
9209171.00
  0
VERTEX
  8
0TOC_DRE
 10
203390.19
 20
9209264.00
  0
VERTEX
  8
0TOC_DRE
 10
203169.91
 20
9209426.00
  0
VERTEX
  8
0TOC_DRE
 10
203031.05
 20
9209504.00
  0
VERTEX
  8
0TOC_DRE
 10
202816.14
 20
9209643.00
  0
VERTEX
  8
0TOC_DRE
 10
202687.75
 20
9209693.00
  0
VERTEX
  8
0TOC_DRE
 10
202534.50
 20
9209733.00
  0
VERTEX
  8
0TOC_DRE
 10
202376.17
 20
9209778.00
  0
VERTEX
  8
0TOC_DRE
 10
202054.63
 20
9209861.00
  0
VERTEX
  8
0TOC_DRE
 10
201844.36
 20
9209870.00
  0
VERTEX
  8
0TOC_DRE
 10
201704.31
 20
9209868.00
  0
VERTEX
  8
0TOC_DRE
 10
201549.06
 20
9209878.00
  0
VERTEX
  8
0TOC_DRE
 10
201348.80
 20
9209887.00
  0
VERTEX
  8
0TOC_DRE
 10
201121.72
 20
9209853.00
  0
VERTEX
  8
0TOC_DRE
 10
200920.11
 20
9209792.00
  0
VERTEX
  8
0TOC_DRE
 10
200691.47
 20
9209701.00
  0
VERTEX
  8
0TOC_DRE
 10
200563.66
 20
9209564.00
  0
VERTEX
  8
0TOC_DRE
 10
200298.13
 20
9209434.00
  0
VERTEX
  8
0TOC_DRE
 10
200040.28
 20
9209295.00
  0
VERTEX
  8
0TOC_DRE
 10
199859.56
 20
9209179.00
  0
VERTEX
  8
0TOC_DRE
 10
199715.55
 20
9209114.00
  0
VERTEX
  8
0TOC_DRE
 10
199530.88
 20
9208936.00
  0
VERTEX
  8
0TOC_DRE
 10
199325.25
 20
9208815.00
  0
VERTEX
  8
0TOC_DRE
 10
199133.67
 20
9208752.00
  0
VERTEX
  8
0TOC_DRE
 10
198923.03
 20
9208631.00
  0
VERTEX
  8
0TOC_DRE
 10
198756.44
 20
9208571.00
  0
VERTEX
  8
0TOC_DRE
 10
198592.83
 20
9208480.00
  0
VERTEX
  8
0TOC_DRE
 10
198446.55
 20
9208400.00
  0
VERTEX
  8
0TOC_DRE
 10
198256.22
 20
9208262.00
  0
VERTEX
  8
0TOC_DRE
 10
198015.94
 20
9208118.00
  0
VERTEX
  8
0TOC_DRE
 10
197879.77
 20
9207881.00
  0
VERTEX
  8
0TOC_DRE
 10
197789.70
 20
9207729.00
  0
VERTEX
  8
0TOC_DRE
 10
197711.73
 20
9207603.00
  0
VERTEX
  8
0TOC_DRE
 10
197596.92
 20
9207435.00
  0
VERTEX
  8
0TOC_DRE
 10
197509.36
 20
9207284.00
  0
VERTEX
  8
0TOC_DRE
 10
197399.20
 20
9207137.00
  0
VERTEX
  8
0TOC_DRE
 10
197326.73
 20
9206981.00
  0
VERTEX
  8
0TOC_DRE
 10
197258.77
 20
9206854.00
  0
VERTEX
  8
0TOC_DRE
 10
197068.53
 20
9206558.00
  0
VERTEX
  8
0TOC_DRE
 10
197010.73
 20
9206422.00
  0
VERTEX
  8
0TOC_DRE
 10
196946.25
 20
9206236.00
  0
VERTEX
  8
0TOC_DRE
 10
196911.83
 20
9206048.00
  0
VERTEX
  8
0TOC_DRE
 10
196878.42
 20
9205797.00
  0
VERTEX
  8
0TOC_DRE
 10
196833.50
 20
9205638.00
  0
VERTEX
  8
0TOC_DRE
 10
196805.88
 20
9205493.00
  0
VERTEX
  8
0TOC_DRE
 10
196795.44
 20
9205215.00
  0
VERTEX
  8
0TOC_DRE
 10
196783.39
 20
9205034.00
  0
VERTEX
  8
0TOC_DRE
 10
196749.95
 20
9204786.00
  0
VERTEX
  8
0TOC_DRE
 10
196742.34
 20
9204641.00
  0
VERTEX
  8
0TOC_DRE
 10
196745.63
 20
9204441.00
  0
VERTEX
  8
0TOC_DRE
 10
196748.52
 20
9204265.00
  0
VERTEX
  8
0TOC_DRE
 10
196752.66
 20
9204013.00
  0
VERTEX
  8
0TOC_DRE
 10
196755.55
 20
9203838.00
  0
VERTEX
  8
0TOC_DRE
 10
196783.02
 20
9203688.00
  0
VERTEX
  8
0TOC_DRE
 10
196828.00
 20
9203538.00
  0
VERTEX
  8
0TOC_DRE
 10
196875.97
 20
9203359.00
  0
VERTEX
  8
0TOC_DRE
 10
197002.13
 20
9203141.00
  0
VERTEX
  8
0TOC_DRE
 10
197096.27
 20
9202892.00
  0
VERTEX
  8
0TOC_DRE
 10
197182.13
 20
9202691.00
  0
VERTEX
  8
0TOC_DRE
 10
197281.88
 20
9202557.00
  0
VERTEX
  8
0TOC_DRE
 10
197344.08
 20
9202425.00
  0
VERTEX
  8
0TOC_DRE
 10
197436.19
 20
9202299.00
  0
VERTEX
  8
0TOC_DRE
 10
197583.88
 20
9202141.00
  0
VERTEX
  8
0TOC_DRE
 10
197722.94
 20
9202051.00
  0
VERTEX
  8
0TOC_DRE
 10
197805.11
 20
9201922.00
  0
VERTEX
  8
0TOC_DRE
 10
197922.31
 20
9201792.00
  0
VERTEX
  8
0TOC_DRE
 10
198054.45
 20
9201666.00
  0
VERTEX
  8
0TOC_DRE
 10
198287.98
 20
9201460.00
  0
VERTEX
  8
0TOC_DRE
 10
198458.45
 20
9201285.00
  0
VERTEX
  8
0TOC_DRE
 10
198600.27
 20
9201179.00
  0
VERTEX
  8
0TOC_DRE
 10
198834.64
 20
9201073.00
  0
VERTEX
  8
0TOC_DRE
 10
199011.34
 20
9200976.00
  0
VERTEX
  8
0TOC_DRE
 10
199222.06
 20
9200939.00
  0
VERTEX
  8
0TOC_DRE
 10
199350.17
 20
9200906.00
  0
VERTEX
  8
0TOC_DRE
 10
199483.33
 20
9200871.00
  0
VERTEX
  8
0TOC_DRE
 10
199618.86
 20
9200843.00
  0
VERTEX
  8
0TOC_DRE
 10
199764.33
 20
9200820.00
  0
VERTEX
  8
0TOC_DRE
 10
199917.53
 20
9200783.00
  0
VERTEX
  8
0TOC_DRE
 10
200128.91
 20
9200706.00
  0
VERTEX
  8
0TOC_DRE
 10
200294.45
 20
9200679.00
  0
VERTEX
  8
0TOC_DRE
 10
200480.17
 20
9200642.00
  0
VERTEX
  8
0TOC_DRE
 10
200620.88
 20
9200604.00
  0
VERTEX
  8
0TOC_DRE
 10
200781.86
 20
9200549.00
  0
VERTEX
  8
0TOC_DRE
 10
200908.25
 20
9200469.00
  0
VERTEX
  8
0TOC_DRE
 10
201102.59
 20
9200364.00
  0
VERTEX
  8
0TOC_DRE
 10
201301.63
 20
9200277.00
  0
VERTEX
  8
0TOC_DRE
 10
201475.73
 20
9200185.00
  0
VERTEX
  8
0TOC_DRE
 10
201624.89
 20
9200090.00
  0
VERTEX
  8
0TOC_DRE
 10
201771.34
 20
9200007.00
  0
VERTEX
  8
0TOC_DRE
 10
201902.41
 20
9199947.00
  0
VERTEX
  8
0TOC_DRE
 10
202078.98
 20
9199857.00
  0
VERTEX
  8
0TOC_DRE
 10
202267.56
 20
9199797.00
  0
VERTEX
  8
0TOC_DRE
 10
202393.50
 20
9199744.00
  0
VERTEX
  8
0TOC_DRE
 10
202519.69
 20
9199676.00
  0
VERTEX
  8
0TOC_DRE
 10
202673.47
 20
9199604.00
  0
VERTEX
  8
0TOC_DRE
 10
202837.67
 20
9199506.00
  0
VERTEX
  8
0TOC_DRE
 10
203019.95
 20
9199374.00
  0
VERTEX
  8
0TOC_DRE
 10
203237.52
 20
9199225.00
  0
VERTEX
  8
0TOC_DRE
 10
203432.55
 20
9199078.00
  0
VERTEX
  8
0TOC_DRE
 10
203657.88
 20
9198914.00
  0
VERTEX
  8
0TOC_DRE
 10
203792.84
 20
9198768.00
  0
VERTEX
  8
0TOC_DRE
 10
203902.47
 20
9198643.00
  0
VERTEX
  8
0TOC_DRE
 10
204002.39
 20
9198499.00
  0
VERTEX
  8
0TOC_DRE
 10
204145.36
 20
9198324.00
  0
VERTEX
  8
0TOC_DRE
 10
204300.69
 20
9198156.00
  0
VERTEX
  8
0TOC_DRE
 10
204406.14
 20
9197980.00
  0
VERTEX
  8
0TOC_DRE
 10
204518.61
 20
9197834.00
  0
VERTEX
  8
0TOC_DRE
 10
204590.97
 20
9197693.00
  0
VERTEX
  8
0TOC_DRE
 10
204658.38
 20
9197548.00
  0
VERTEX
  8
0TOC_DRE
 10
204769.48
 20
9197333.00
  0
VERTEX
  8
0TOC_DRE
 10
204926.47
 20
9197065.00
  0
VERTEX
  8
0TOC_DRE
 10
204973.83
 20
9196923.00
  0
VERTEX
  8
0TOC_DRE
 10
205031.11
 20
9196786.00
  0
VERTEX
  8
0TOC_DRE
 10
205060.80
 20
9196654.00
  0
VERTEX
  8
0TOC_DRE
 10
205091.84
 20
9196439.00
  0
VERTEX
  8
0TOC_DRE
 10
205160.81
 20
9196200.00
  0
VERTEX
  8
0TOC_DRE
 10
205292.22
 20
9195967.00
  0
VERTEX
  8
0TOC_DRE
 10
205435.67
 20
9195762.00
  0
VERTEX
  8
0TOC_DRE
 10
205542.23
 20
9195518.00
  0
VERTEX
  8
0TOC_DRE
 10
205650.27
 20
9195337.00
  0
VERTEX
  8
0TOC_DRE
 10
205770.36
 20
9195184.00
  0
VERTEX
  8
0TOC_DRE
 10
205887.98
 20
9195028.00
  0
VERTEX
  8
0TOC_DRE
 10
205965.47
 20
9194879.00
  0
VERTEX
  8
0TOC_DRE
 10
206108.19
 20
9194566.00
  0
VERTEX
  8
0TOC_DRE
 10
206173.19
 20
9194417.00
  0
VERTEX
  8
0TOC_DRE
 10
206220.33
 20
9194287.00
  0
VERTEX
  8
0TOC_DRE
 10
206335.42
 20
9193982.00
  0
VERTEX
  8
0TOC_DRE
 10
206436.17
 20
9193788.00
  0
VERTEX
  8
0TOC_DRE
 10
206499.19
 20
9193606.00
  0
VERTEX
  8
0TOC_DRE
 10
206546.83
 20
9193447.00
  0
VERTEX
  8
0TOC_DRE
 10
206604.16
 20
9193308.00
  0
VERTEX
  8
0TOC_DRE
 10
206658.77
 20
9193181.00
  0
VERTEX
  8
0TOC_DRE
 10
206731.50
 20
9193017.00
  0
VERTEX
  8
0TOC_DRE
 10
206831.67
 20
9192858.00
  0
VERTEX
  8
0TOC_DRE
 10
206962.20
 20
9192678.00
  0
VERTEX
  8
0TOC_DRE
 10
207131.13
 20
9192445.00
  0
VERTEX
  8
0TOC_DRE
 10
207347.19
 20
9192236.00
  0
VERTEX
  8
0TOC_DRE
 10
207530.00
 20
9192071.00
  0
VERTEX
  8
0TOC_DRE
 10
207797.42
 20
9191960.00
  0
SEQEND
  8
0TOC_DRE
  0
POLYLINE
  8
0TOC_DRE
 66
     1
  0
VERTEX
  8
0TOC_DRE
 10
207337.58
 20
9191489.00
  0
VERTEX
  8
0TOC_DRE
 10
208387.52
 20
9191513.00
  0
VERTEX
  8
0TOC_DRE
 10
209359.69
 20
9191857.00
  0
VERTEX
  8
0TOC_DRE
 10
210446.23
 20
9192486.00
  0
VERTEX
  8
0TOC_DRE
 10
210503.42
 20
9192486.00
  0
VERTEX
  8
0TOC_DRE
 10
211158.34
 20
9193232.00
  0
SEQEND
  8
0TOC_DRE
  0
POLYLINE
  8
0TOC_DRE
 66
     1
  0
VERTEX
  8
0TOC_DRE
 10
213071.50
 20
9219425.00
  0
VERTEX
  8
0TOC_DRE
 10
212973.63
 20
9219129.00
  0
VERTEX
  8
0TOC_DRE
 10
212863.31
 20
9218992.00
  0
VERTEX
  8
0TOC_DRE
 10
212750.72
 20
9218690.00
  0
VERTEX
  8
0TOC_DRE
 10
212671.39
 20
9218494.00
  0
VERTEX
  8
0TOC_DRE
 10
212574.48
 20
9218302.00
  0
VERTEX
  8
0TOC_DRE
 10
212439.59
 20
9217987.00
  0
VERTEX
  8
0TOC_DRE
 10
212306.28
 20
9217727.00
  0
VERTEX
  8
0TOC_DRE
 10
212222.38
 20
9217505.00
  0
VERTEX
  8
0TOC_DRE
 10
212140.39
 20
9217319.00
  0
VERTEX
  8
0TOC_DRE
 10
212069.11
 20
9217090.00
  0
VERTEX
  8
0TOC_DRE
 10
211931.17
 20
9216960.00
  0
VERTEX
  8
0TOC_DRE
 10
211798.47
 20
9216815.00
  0
VERTEX
  8
0TOC_DRE
 10
211658.89
 20
9216633.00
  0
VERTEX
  8
0TOC_DRE
 10
211525.94
 20
9216503.00
  0
VERTEX
  8
0TOC_DRE
 10
211335.53
 20
9216369.00
  0
VERTEX
  8
0TOC_DRE
 10
211125.34
 20
9216221.00
  0
VERTEX
  8
0TOC_DRE
 10
210954.94
 20
9216088.00
  0
VERTEX
  8
0TOC_DRE
 10
210809.28
 20
9215970.00
  0
VERTEX
  8
0TOC_DRE
 10
210680.77
 20
9215876.00
  0
VERTEX
  8
0TOC_DRE
 10
210568.23
 20
9215721.00
  0
VERTEX
  8
0TOC_DRE
 10
210441.44
 20
9215521.00
  0
VERTEX
  8
0TOC_DRE
 10
210309.38
 20
9215339.00
  0
VERTEX
  8
0TOC_DRE
 10
210205.88
 20
9215092.00
  0
VERTEX
  8
0TOC_DRE
 10
210135.48
 20
9214961.00
  0
VERTEX
  8
0TOC_DRE
 10
210049.19
 20
9214732.00
  0
VERTEX
  8
0TOC_DRE
 10
209963.56
 20
9214462.00
  0
VERTEX
  8
0TOC_DRE
 10
209921.89
 20
9214259.00
  0
VERTEX
  8
0TOC_DRE
 10
209898.28
 20
9214021.00
  0
VERTEX
  8
0TOC_DRE
 10
209886.89
 20
9213800.00
  0
VERTEX
  8
0TOC_DRE
 10
209879.48
 20
9213643.00
  0
VERTEX
  8
0TOC_DRE
 10
209867.53
 20
9213457.00
  0
VERTEX
  8
0TOC_DRE
 10
209855.41
 20
9213282.00
  0
VERTEX
  8
0TOC_DRE
 10
209838.84
 20
9213071.00
  0
VERTEX
  8
0TOC_DRE
 10
209797.38
 20
9212855.00
  0
VERTEX
  8
0TOC_DRE
 10
209745.86
 20
9212642.00
  0
VERTEX
  8
0TOC_DRE
 10
209671.61
 20
9212440.00
  0
VERTEX
  8
0TOC_DRE
 10
209596.19
 20
9212311.00
  0
VERTEX
  8
0TOC_DRE
 10
209470.75
 20
9212182.00
  0
VERTEX
  8
0TOC_DRE
 10
209343.27
 20
9212024.00
  0
VERTEX
  8
0TOC_DRE
 10
209185.64
 20
9211874.00
  0
VERTEX
  8
0TOC_DRE
 10
209057.30
 20
9211617.00
  0
VERTEX
  8
0TOC_DRE
 10
208964.61
 20
9211473.00
  0
VERTEX
  8
0TOC_DRE
 10
208817.23
 20
9211307.00
  0
VERTEX
  8
0TOC_DRE
 10
208691.19
 20
9211063.00
  0
VERTEX
  8
0TOC_DRE
 10
208537.17
 20
9210845.00
  0
VERTEX
  8
0TOC_DRE
 10
208439.81
 20
9210681.00
  0
VERTEX
  8
0TOC_DRE
 10
208296.14
 20
9210443.00
  0
VERTEX
  8
0TOC_DRE
 10
208188.53
 20
9210294.00
  0
VERTEX
  8
0TOC_DRE
 10
207969.17
 20
9210095.00
  0
VERTEX
  8
0TOC_DRE
 10
207743.02
 20
9209853.00
  0
VERTEX
  8
0TOC_DRE
 10
207530.45
 20
9209697.00
  0
VERTEX
  8
0TOC_DRE
 10
207345.69
 20
9209524.00
  0
VERTEX
  8
0TOC_DRE
 10
207202.70
 20
9209396.00
  0
VERTEX
  8
0TOC_DRE
 10
207028.89
 20
9209319.00
  0
VERTEX
  8
0TOC_DRE
 10
206818.38
 20
9209190.00
  0
VERTEX
  8
0TOC_DRE
 10
206691.66
 20
9209138.00
  0
VERTEX
  8
0TOC_DRE
 10
206484.75
 20
9209094.00
  0
VERTEX
  8
0TOC_DRE
 10
206314.78
 20
9209087.00
  0
VERTEX
  8
0TOC_DRE
 10
205954.34
 20
9209101.00
  0
VERTEX
  8
0TOC_DRE
 10
205788.52
 20
9209146.00
  0
VERTEX
  8
0TOC_DRE
 10
205629.89
 20
9209208.00
  0
VERTEX
  8
0TOC_DRE
 10
205413.97
 20
9209257.00
  0
VERTEX
  8
0TOC_DRE
 10
205280.56
 20
9209308.00
  0
VERTEX
  8
0TOC_DRE
 10
205061.97
 20
9209367.00
  0
VERTEX
  8
0TOC_DRE
 10
204848.45
 20
9209421.00
  0
VERTEX
  8
0TOC_DRE
 10
204647.20
 20
9209490.00
  0
VERTEX
  8
0TOC_DRE
 10
204405.73
 20
9209571.00
  0
VERTEX
  8
0TOC_DRE
 10
204244.16
 20
9209661.00
  0
VERTEX
  8
0TOC_DRE
 10
204115.02
 20
9209757.00
  0
VERTEX
  8
0TOC_DRE
 10
203983.42
 20
9209850.00
  0
VERTEX
  8
0TOC_DRE
 10
203858.50
 20
9209993.00
  0
VERTEX
  8
0TOC_DRE
 10
203730.83
 20
9210151.00
  0
VERTEX
  8
0TOC_DRE
 10
203428.44
 20
9210286.00
  0
VERTEX
  8
0TOC_DRE
 10
203302.36
 20
9210347.00
  0
VERTEX
  8
0TOC_DRE
 10
203104.02
 20
9210544.00
  0
VERTEX
  8
0TOC_DRE
 10
202968.31
 20
9210582.00
  0
VERTEX
  8
0TOC_DRE
 10
202757.59
 20
9210618.00
  0
VERTEX
  8
0TOC_DRE
 10
202601.31
 20
9210691.00
  0
VERTEX
  8
0TOC_DRE
 10
202374.64
 20
9210785.00
  0
VERTEX
  8
0TOC_DRE
 10
202193.31
 20
9210859.00
  0
VERTEX
  8
0TOC_DRE
 10
202030.27
 20
9210887.00
  0
VERTEX
  8
0TOC_DRE
 10
201832.70
 20
9210883.00
  0
VERTEX
  8
0TOC_DRE
 10
201639.73
 20
9210905.00
  0
VERTEX
  8
0TOC_DRE
 10
201442.75
 20
9210867.00
  0
VERTEX
  8
0TOC_DRE
 10
201275.86
 20
9210824.00
  0
VERTEX
  8
0TOC_DRE
 10
201123.47
 20
9210812.00
  0
VERTEX
  8
0TOC_DRE
 10
200958.42
 20
9210809.00
  0
VERTEX
  8
0TOC_DRE
 10
200818.83
 20
9210779.00
  0
VERTEX
  8
0TOC_DRE
 10
200513.25
 20
9210652.00
  0
VERTEX
  8
0TOC_DRE
 10
200364.53
 20
9210569.00
  0
VERTEX
  8
0TOC_DRE
 10
200080.64
 20
9210339.00
  0
VERTEX
  8
0TOC_DRE
 10
199797.89
 20
9210192.00
  0
VERTEX
  8
0TOC_DRE
 10
199567.63
 20
9210048.00
  0
VERTEX
  8
0TOC_DRE
 10
199378.28
 20
9209850.00
  0
VERTEX
  8
0TOC_DRE
 10
199233.61
 20
9209672.00
  0
VERTEX
  8
0TOC_DRE
 10
199010.77
 20
9209533.00
  0
VERTEX
  8
0TOC_DRE
 10
198815.02
 20
9209420.00
  0
VERTEX
  8
0TOC_DRE
 10
198648.94
 20
9209327.00
  0
VERTEX
  8
0TOC_DRE
 10
198475.20
 20
9209244.00
  0
VERTEX
  8
0TOC_DRE
 10
198326.47
 20
9209162.00
  0
VERTEX
  8
0TOC_DRE
 10
198157.66
 20
9209084.00
  0
VERTEX
  8
0TOC_DRE
 10
197960.34
 20
9209066.00
  0
VERTEX
  8
0TOC_DRE
 10
197814.81
 20
9208941.00
  0
VERTEX
  8
0TOC_DRE
 10
197634.94
 20
9208775.00
  0
VERTEX
  8
0TOC_DRE
 10
197426.52
 20
9208672.00
  0
VERTEX
  8
0TOC_DRE
 10
197291.31
 20
9208527.00
  0
VERTEX
  8
0TOC_DRE
 10
197228.39
 20
9208398.00
  0
VERTEX
  8
0TOC_DRE
 10
197070.44
 20
9208268.00
  0
VERTEX
  8
0TOC_DRE
 10
197000.77
 20
9208094.00
  0
VERTEX
  8
0TOC_DRE
 10
196871.75
 20
9207877.00
  0
VERTEX
  8
0TOC_DRE
 10
196749.06
 20
9207732.00
  0
VERTEX
  8
0TOC_DRE
 10
196681.42
 20
9207586.00
  0
VERTEX
  8
0TOC_DRE
 10
196538.78
 20
9207286.00
  0
VERTEX
  8
0TOC_DRE
 10
196433.47
 20
9207149.00
  0
VERTEX
  8
0TOC_DRE
 10
196275.44
 20
9206871.00
  0
VERTEX
  8
0TOC_DRE
 10
196066.81
 20
9206627.00
  0
VERTEX
  8
0TOC_DRE
 10
196034.45
 20
9206466.00
  0
VERTEX
  8
0TOC_DRE
 10
196028.06
 20
9206246.00
  0
VERTEX
  8
0TOC_DRE
 10
195988.59
 20
9206060.00
  0
VERTEX
  8
0TOC_DRE
 10
195945.02
 20
9205819.00
  0
VERTEX
  8
0TOC_DRE
 10
195917.23
 20
9205684.00
  0
VERTEX
  8
0TOC_DRE
 10
195899.41
 20
9205551.00
  0
VERTEX
  8
0TOC_DRE
 10
195873.22
 20
9205317.00
  0
VERTEX
  8
0TOC_DRE
 10
195843.44
 20
9205152.00
  0
VERTEX
  8
0TOC_DRE
 10
195816.75
 20
9204949.00
  0
VERTEX
  8
0TOC_DRE
 10
195809.80
 20
9204763.00
  0
VERTEX
  8
0TOC_DRE
 10
195807.42
 20
9204603.00
  0
VERTEX
  8
0TOC_DRE
 10
195796.08
 20
9204380.00
  0
VERTEX
  8
0TOC_DRE
 10
195812.20
 20
9204160.00
  0
VERTEX
  8
0TOC_DRE
 10
195827.02
 20
9204020.00
  0
VERTEX
  8
0TOC_DRE
 10
195830.67
 20
9203797.00
  0
VERTEX
  8
0TOC_DRE
 10
195871.80
 20
9203578.00
  0
VERTEX
  8
0TOC_DRE
 10
195928.72
 20
9203311.00
  0
VERTEX
  8
0TOC_DRE
 10
196021.95
 20
9203117.00
  0
VERTEX
  8
0TOC_DRE
 10
196099.11
 20
9202988.00
  0
VERTEX
  8
0TOC_DRE
 10
196141.31
 20
9202856.00
  0
VERTEX
  8
0TOC_DRE
 10
196251.44
 20
9202700.00
  0
VERTEX
  8
0TOC_DRE
 10
196415.97
 20
9202430.00
  0
VERTEX
  8
0TOC_DRE
 10
196518.58
 20
9202274.00
  0
VERTEX
  8
0TOC_DRE
 10
196611.16
 20
9202121.00
  0
VERTEX
  8
0TOC_DRE
 10
196741.08
 20
9201978.00
  0
VERTEX
  8
0TOC_DRE
 10
196846.86
 20
9201782.00
  0
VERTEX
  8
0TOC_DRE
 10
196982.70
 20
9201584.00
  0
VERTEX
  8
0TOC_DRE
 10
197203.95
 20
9201362.00
  0
VERTEX
  8
0TOC_DRE
 10
197368.56
 20
9201239.00
  0
VERTEX
  8
0TOC_DRE
 10
197545.47
 20
9201130.00
  0
VERTEX
  8
0TOC_DRE
 10
197825.36
 20
9200994.00
  0
VERTEX
  8
0TOC_DRE
 10
197978.38
 20
9200816.00
  0
VERTEX
  8
0TOC_DRE
 10
198203.23
 20
9200680.00
  0
VERTEX
  8
0TOC_DRE
 10
198417.61
 20
9200573.00
  0
VERTEX
  8
0TOC_DRE
 10
198597.47
 20
9200436.00
  0
VERTEX
  8
0TOC_DRE
 10
198829.06
 20
9200347.00
  0
VERTEX
  8
0TOC_DRE
 10
198997.64
 20
9200287.00
  0
VERTEX
  8
0TOC_DRE
 10
199178.72
 20
9200228.00
  0
VERTEX
  8
0TOC_DRE
 10
199347.14
 20
9200178.00
  0
VERTEX
  8
0TOC_DRE
 10
199487.67
 20
9200150.00
  0
VERTEX
  8
0TOC_DRE
 10
199638.47
 20
9200107.00
  0
VERTEX
  8
0TOC_DRE
 10
199766.70
 20
9200067.00
  0
VERTEX
  8
0TOC_DRE
 10
199925.36
 20
9200002.00
  0
VERTEX
  8
0TOC_DRE
 10
200111.61
 20
9199932.00
  0
VERTEX
  8
0TOC_DRE
 10
200262.64
 20
9199875.00
  0
VERTEX
  8
0TOC_DRE
 10
200418.64
 20
9199820.00
  0
VERTEX
  8
0TOC_DRE
 10
200683.03
 20
9199714.00
  0
VERTEX
  8
0TOC_DRE
 10
200808.72
 20
9199676.00
  0
VERTEX
  8
0TOC_DRE
 10
201043.59
 20
9199540.00
  0
VERTEX
  8
0TOC_DRE
 10
201182.83
 20
9199439.00
  0
VERTEX
  8
0TOC_DRE
 10
201391.83
 20
9199355.00
  0
VERTEX
  8
0TOC_DRE
 10
201581.73
 20
9199215.00
  0
VERTEX
  8
0TOC_DRE
 10
201775.84
 20
9199124.00
  0
VERTEX
  8
0TOC_DRE
 10
201975.80
 20
9198982.00
  0
VERTEX
  8
0TOC_DRE
 10
202154.80
 20
9198897.00
  0
VERTEX
  8
0TOC_DRE
 10
202351.45
 20
9198802.00
  0
VERTEX
  8
0TOC_DRE
 10
202508.14
 20
9198705.00
  0
VERTEX
  8
0TOC_DRE
 10
202692.88
 20
9198575.00
  0
VERTEX
  8
0TOC_DRE
 10
202867.61
 20
9198445.00
  0
VERTEX
  8
0TOC_DRE
 10
203011.92
 20
9198340.00
  0
VERTEX
  8
0TOC_DRE
 10
203222.16
 20
9198181.00
  0
VERTEX
  8
0TOC_DRE
 10
203402.84
 20
9197994.00
  0
VERTEX
  8
0TOC_DRE
 10
203543.39
 20
9197813.00
  0
VERTEX
  8
0TOC_DRE
 10
203670.64
 20
9197680.00
  0
VERTEX
  8
0TOC_DRE
 10
203864.53
 20
9197450.00
  0
VERTEX
  8
0TOC_DRE
 10
204022.58
 20
9197270.00
  0
VERTEX
  8
0TOC_DRE
 10
204165.30
 20
9197110.00
  0
VERTEX
  8
0TOC_DRE
 10
204158.05
 20
9196942.00
  0
VERTEX
  8
0TOC_DRE
 10
204153.06
 20
9196789.00
  0
VERTEX
  8
0TOC_DRE
 10
204275.31
 20
9196656.00
  0
VERTEX
  8
0TOC_DRE
 10
204358.55
 20
9196462.00
  0
VERTEX
  8
0TOC_DRE
 10
204465.39
 20
9196201.00
  0
VERTEX
  8
0TOC_DRE
 10
204515.78
 20
9196027.00
  0
VERTEX
  8
0TOC_DRE
 10
204561.06
 20
9195860.00
  0
VERTEX
  8
0TOC_DRE
 10
204679.83
 20
9195634.00
  0
VERTEX
  8
0TOC_DRE
 10
204853.80
 20
9195399.00
  0
VERTEX
  8
0TOC_DRE
 10
204964.41
 20
9195213.00
  0
VERTEX
  8
0TOC_DRE
 10
205100.77
 20
9194983.00
  0
VERTEX
  8
0TOC_DRE
 10
205180.56
 20
9194846.00
  0
VERTEX
  8
0TOC_DRE
 10
205290.69
 20
9194690.00
  0
VERTEX
  8
0TOC_DRE
 10
205416.22
 20
9194510.00
  0
VERTEX
  8
0TOC_DRE
 10
205592.77
 20
9194270.00
  0
VERTEX
  8
0TOC_DRE
 10
205720.69
 20
9194097.00
  0
VERTEX
  8
0TOC_DRE
 10
205823.27
 20
9193943.00
  0
VERTEX
  8
0TOC_DRE
 10
205987.55
 20
9193688.00
  0
VERTEX
  8
0TOC_DRE
 10
206035.56
 20
9193506.00
  0
VERTEX
  8
0TOC_DRE
 10
206083.08
 20
9193354.00
  0
VERTEX
  8
0TOC_DRE
 10
206126.47
 20
9193150.00
  0
VERTEX
  8
0TOC_DRE
 10
206196.30
 20
9193011.00
  0
VERTEX
  8
0TOC_DRE
 10
206311.09
 20
9192875.00
  0
VERTEX
  8
0TOC_DRE
 10
206484.03
 20
9192702.00
  0
VERTEX
  8
0TOC_DRE
 10
206589.48
 20
9192526.00
  0
VERTEX
  8
0TOC_DRE
 10
206632.03
 20
9192372.00
  0
VERTEX
  8
0TOC_DRE
 10
206715.59
 20
9192158.00
  0
VERTEX
  8
0TOC_DRE
 10
206767.88
 20
9192021.00
  0
VERTEX
  8
0TOC_DRE
 10
206898.55
 20
9191833.00
  0
VERTEX
  8
0TOC_DRE
 10
207065.56
 20
9191716.00
  0
VERTEX
  8
0TOC_DRE
 10
207337.58
 20
9191489.00
  0
SEQEND
  8
0TOC_DRE
  0
POLYLINE
  8
0TOC_DRE
 66
     1
  0
VERTEX
  8
0TOC_DRE
 10
224029.84
 20
9183957.00
  0
VERTEX
  8
0TOC_DRE
 10
224174.53
 20
9184010.00
  0
VERTEX
  8
0TOC_DRE
 10
224374.00
 20
9184068.00
  0
VERTEX
  8
0TOC_DRE
 10
224589.75
 20
9184230.00
  0
VERTEX
  8
0TOC_DRE
 10
224807.50
 20
9184438.00
  0
VERTEX
  8
0TOC_DRE
 10
224918.42
 20
9184582.00
  0
VERTEX
  8
0TOC_DRE
 10
225018.52
 20
9184796.00
  0
VERTEX
  8
0TOC_DRE
 10
225072.08
 20
9184925.00
  0
VERTEX
  8
0TOC_DRE
 10
225200.05
 20
9185109.00
  0
VERTEX
  8
0TOC_DRE
 10
225315.39
 20
9185303.00
  0
VERTEX
  8
0TOC_DRE
 10
225413.17
 20
9185502.00
  0
VERTEX
  8
0TOC_DRE
 10
225563.61
 20
9185689.00
  0
VERTEX
  8
0TOC_DRE
 10
225656.84
 20
9185848.00
  0
VERTEX
  8
0TOC_DRE
 10
225767.22
 20
9186040.00
  0
VERTEX
  8
0TOC_DRE
 10
225832.61
 20
9186226.00
  0
VERTEX
  8
0TOC_DRE
 10
225877.67
 20
9186442.00
  0
VERTEX
  8
0TOC_DRE
 10
225903.31
 20
9186605.00
  0
VERTEX
  8
0TOC_DRE
 10
225925.61
 20
9186843.00
  0
VERTEX
  8
0TOC_DRE
 10
225938.59
 20
9187019.00
  0
VERTEX
  8
0TOC_DRE
 10
225961.42
 20
9187210.00
  0
VERTEX
  8
0TOC_DRE
 10
225972.17
 20
9187363.00
  0
VERTEX
  8
0TOC_DRE
 10
225982.58
 20
9187546.00
  0
VERTEX
  8
0TOC_DRE
 10
225975.91
 20
9187691.00
  0
VERTEX
  8
0TOC_DRE
 10
225953.38
 20
9187911.00
  0
VERTEX
  8
0TOC_DRE
 10
225931.88
 20
9188041.00
  0
VERTEX
  8
0TOC_DRE
 10
225899.73
 20
9188226.00
  0
VERTEX
  8
0TOC_DRE
 10
225864.91
 20
9188426.00
  0
VERTEX
  8
0TOC_DRE
 10
225818.08
 20
9188583.00
  0
VERTEX
  8
0TOC_DRE
 10
225776.34
 20
9188733.00
  0
VERTEX
  8
0TOC_DRE
 10
225693.55
 20
9188973.00
  0
VERTEX
  8
0TOC_DRE
 10
225659.16
 20
9189135.00
  0
VERTEX
  8
0TOC_DRE
 10
225620.09
 20
9189270.00
  0
VERTEX
  8
0TOC_DRE
 10
225562.53
 20
9189490.00
  0
VERTEX
  8
0TOC_DRE
 10
225496.80
 20
9189770.00
  0
VERTEX
  8
0TOC_DRE
 10
225457.27
 20
9189945.00
  0
VERTEX
  8
0TOC_DRE
 10
225404.91
 20
9190147.00
  0
VERTEX
  8
0TOC_DRE
 10
225347.97
 20
9190314.00
  0
VERTEX
  8
0TOC_DRE
 10
225280.64
 20
9190514.00
  0
VERTEX
  8
0TOC_DRE
 10
225173.45
 20
9190698.00
  0
VERTEX
  8
0TOC_DRE
 10
224992.31
 20
9191007.00
  0
VERTEX
  8
0TOC_DRE
 10
224920.78
 20
9191136.00
  0
VERTEX
  8
0TOC_DRE
 10
224849.00
 20
9191288.00
  0
VERTEX
  8
0TOC_DRE
 10
224736.02
 20
9191543.00
  0
VERTEX
  8
0TOC_DRE
 10
224578.45
 20
9191759.00
  0
VERTEX
  8
0TOC_DRE
 10
224451.03
 20
9191963.00
  0
VERTEX
  8
0TOC_DRE
 10
224344.45
 20
9192095.00
  0
VERTEX
  8
0TOC_DRE
 10
224245.27
 20
9192236.00
  0
VERTEX
  8
0TOC_DRE
 10
224150.72
 20
9192411.00
  0
VERTEX
  8
0TOC_DRE
 10
223907.58
 20
9192663.00
  0
SEQEND
  8
0TOC_DRE
  0
POLYLINE
  8
0TOC_DRE
 66
     1
  0
VERTEX
  8
0TOC_DRE
 10
223972.55
 20
9193535.00
  0
VERTEX
  8
0TOC_DRE
 10
224250.78
 20
9193284.00
  0
VERTEX
  8
0TOC_DRE
 10
224385.06
 20
9193135.00
  0
VERTEX
  8
0TOC_DRE
 10
224544.70
 20
9192956.00
  0
VERTEX
  8
0TOC_DRE
 10
224742.20
 20
9192748.00
  0
VERTEX
  8
0TOC_DRE
 10
224884.63
 20
9192544.00
  0
VERTEX
  8
0TOC_DRE
 10
225039.92
 20
9192308.00
  0
VERTEX
  8
0TOC_DRE
 10
225113.95
 20
9192178.00
  0
VERTEX
  8
0TOC_DRE
 10
225255.69
 20
9192035.00
  0
VERTEX
  8
0TOC_DRE
 10
225348.17
 20
9191823.00
  0
VERTEX
  8
0TOC_DRE
 10
225491.20
 20
9191566.00
  0
VERTEX
  8
0TOC_DRE
 10
225593.34
 20
9191384.00
  0
VERTEX
  8
0TOC_DRE
 10
225702.84
 20
9191215.00
  0
VERTEX
  8
0TOC_DRE
 10
225774.42
 20
9191081.00
  0
VERTEX
  8
0TOC_DRE
 10
225836.23
 20
9190926.00
  0
VERTEX
  8
0TOC_DRE
 10
225941.73
 20
9190669.00
  0
VERTEX
  8
0TOC_DRE
 10
226092.39
 20
9190403.00
  0
VERTEX
  8
0TOC_DRE
 10
226200.08
 20
9190174.00
  0
VERTEX
  8
0TOC_DRE
 10
226285.48
 20
9189924.00
  0
VERTEX
  8
0TOC_DRE
 10
226329.70
 20
9189777.00
  0
VERTEX
  8
0TOC_DRE
 10
226386.20
 20
9189650.00
  0
VERTEX
  8
0TOC_DRE
 10
226445.39
 20
9189505.00
  0
VERTEX
  8
0TOC_DRE
 10
226487.02
 20
9189365.00
  0
VERTEX
  8
0TOC_DRE
 10
226501.67
 20
9189177.00
  0
VERTEX
  8
0TOC_DRE
 10
226528.64
 20
9189007.00
  0
VERTEX
  8
0TOC_DRE
 10
226542.67
 20
9188875.00
  0
VERTEX
  8
0TOC_DRE
 10
226586.72
 20
9188742.00
  0
VERTEX
  8
0TOC_DRE
 10
226633.64
 20
9188577.00
  0
VERTEX
  8
0TOC_DRE
 10
226698.20
 20
9188400.00
  0
VERTEX
  8
0TOC_DRE
 10
226758.08
 20
9188196.00
  0
VERTEX
  8
0TOC_DRE
 10
226830.30
 20
9188006.00
  0
VERTEX
  8
0TOC_DRE
 10
226844.44
 20
9187863.00
  0
VERTEX
  8
0TOC_DRE
 10
226858.55
 20
9187723.00
  0
VERTEX
  8
0TOC_DRE
 10
226860.06
 20
9187593.00
  0
VERTEX
  8
0TOC_DRE
 10
226862.06
 20
9187418.00
  0
VERTEX
  8
0TOC_DRE
 10
226849.06
 20
9187242.00
  0
VERTEX
  8
0TOC_DRE
 10
226826.11
 20
9187061.00
  0
VERTEX
  8
0TOC_DRE
 10
226748.97
 20
9186810.00
  0
VERTEX
  8
0TOC_DRE
 10
226685.69
 20
9186656.00
  0
VERTEX
  8
0TOC_DRE
 10
226620.25
 20
9186473.00
  0
VERTEX
  8
0TOC_DRE
 10
226582.09
 20
9186310.00
  0
VERTEX
  8
0TOC_DRE
 10
226566.47
 20
9186147.00
  0
VERTEX
  8
0TOC_DRE
 10
226547.92
 20
9186019.00
  0
VERTEX
  8
0TOC_DRE
 10
226487.03
 20
9185875.00
  0
VERTEX
  8
0TOC_DRE
 10
226433.92
 20
9185707.00
  0
VERTEX
  8
0TOC_DRE
 10
226396.31
 20
9185496.00
  0
VERTEX
  8
0TOC_DRE
 10
226368.38
 20
9185315.00
  0
VERTEX
  8
0TOC_DRE
 10
226315.02
 20
9185169.00
  0
VERTEX
  8
0TOC_DRE
 10
226211.41
 20
9185043.00
  0
VERTEX
  8
0TOC_DRE
 10
226107.91
 20
9184906.00
  0
VERTEX
  8
0TOC_DRE
 10
226079.56
 20
9184761.00
  0
VERTEX
  8
0TOC_DRE
 10
225994.66
 20
9184529.00
  0
VERTEX
  8
0TOC_DRE
 10
225881.08
 20
9184400.00
  0
VERTEX
  8
0TOC_DRE
 10
225785.19
 20
9184254.00
  0
VERTEX
  8
0TOC_DRE
 10
225606.95
 20
9184092.00
  0
VERTEX
  8
0TOC_DRE
 10
225441.41
 20
9183912.00
  0
VERTEX
  8
0TOC_DRE
 10
225315.64
 20
9183755.00
  0
VERTEX
  8
0TOC_DRE
 10
225059.69
 20
9183607.00
  0
VERTEX
  8
0TOC_DRE
 10
224921.03
 20
9183483.00
  0
VERTEX
  8
0TOC_DRE
 10
224781.73
 20
9183413.00
  0
VERTEX
  8
0TOC_DRE
 10
224652.47
 20
9183342.00
  0
VERTEX
  8
0TOC_DRE
 10
224455.98
 20
9183244.00
  0
VERTEX
  8
0TOC_DRE
 10
224247.50
 20
9183149.00
  0
SEQEND
  8
0TOC_DRE
  0
LINE
  8
0TOC_DRE
 10
224247.50
 20
9183149.00
 11
224050.05
 21
9183094.00
  0
POLYLINE
  8
0TOC_DRE
 66
     1
  0
VERTEX
  8
0TOC_DRE
 10
224050.05
 20
9183094.00
  0
VERTEX
  8
0TOC_DRE
 10
223822.75
 20
9183035.00
  0
VERTEX
  8
0TOC_DRE
 10
223674.92
 20
9182898.00
  0
VERTEX
  8
0TOC_DRE
 10
223449.83
 20
9182744.00
  0
VERTEX
  8
0TOC_DRE
 10
223308.89
 20
9182644.00
  0
VERTEX
  8
0TOC_DRE
 10
223143.19
 20
9182529.00
  0
VERTEX
  8
0TOC_DRE
 10
223007.13
 20
9182436.00
  0
VERTEX
  8
0TOC_DRE
 10
222894.27
 20
9182302.00
  0
VERTEX
  8
0TOC_DRE
 10
222656.05
 20
9182185.00
  0
VERTEX
  8
0TOC_DRE
 10
222461.61
 20
9182145.00
  0
VERTEX
  8
0TOC_DRE
 10
222302.13
 20
9182107.00
  0
VERTEX
  8
0TOC_DRE
 10
222097.86
 20
9182056.00
  0
VERTEX
  8
0TOC_DRE
 10
221938.42
 20
9182016.00
  0
VERTEX
  8
0TOC_DRE
 10
221777.03
 20
9181943.00
  0
VERTEX
  8
0TOC_DRE
 10
221606.77
 20
9181800.00
  0
VERTEX
  8
0TOC_DRE
 10
221381.31
 20
9181669.00
  0
VERTEX
  8
0TOC_DRE
 10
221251.95
 20
9181624.00
  0
VERTEX
  8
0TOC_DRE
 10
221117.50
 20
9181587.00
  0
VERTEX
  8
0TOC_DRE
 10
220983.19
 20
9181540.00
  0
VERTEX
  8
0TOC_DRE
 10
220777.11
 20
9181446.00
  0
VERTEX
  8
0TOC_DRE
 10
220646.38
 20
9181334.00
  0
VERTEX
  8
0TOC_DRE
 10
220490.59
 20
9181224.00
  0
VERTEX
  8
0TOC_DRE
 10
220328.83
 20
9181174.00
  0
VERTEX
  8
0TOC_DRE
 10
220124.27
 20
9181140.00
  0
VERTEX
  8
0TOC_DRE
 10
219987.25
 20
9181106.00
  0
VERTEX
  8
0TOC_DRE
 10
219850.50
 20
9181056.00
  0
VERTEX
  8
0TOC_DRE
 10
219711.56
 20
9180986.00
  0
VERTEX
  8
0TOC_DRE
 10
219559.72
 20
9180941.00
  0
VERTEX
  8
0TOC_DRE
 10
219383.11
 20
9180881.00
  0
VERTEX
  8
0TOC_DRE
 10
219256.19
 20
9180841.00
  0
VERTEX
  8
0TOC_DRE
 10
219060.27
 20
9180738.00
  0
VERTEX
  8
0TOC_DRE
 10
218878.78
 20
9180670.00
  0
VERTEX
  8
0TOC_DRE
 10
218734.28
 20
9180635.00
  0
VERTEX
  8
0TOC_DRE
 10
218584.31
 20
9180627.00
  0
VERTEX
  8
0TOC_DRE
 10
218311.81
 20
9180618.00
  0
VERTEX
  8
0TOC_DRE
 10
218157.38
 20
9180578.00
  0
VERTEX
  8
0TOC_DRE
 10
217961.02
 20
9180502.00
  0
VERTEX
  8
0TOC_DRE
 10
217762.47
 20
9180406.00
  0
VERTEX
  8
0TOC_DRE
 10
217512.11
 20
9180267.00
  0
VERTEX
  8
0TOC_DRE
 10
217316.41
 20
9180151.00
  0
VERTEX
  8
0TOC_DRE
 10
217128.33
 20
9180028.00
  0
VERTEX
  8
0TOC_DRE
 10
216957.20
 20
9179937.00
  0
VERTEX
  8
0TOC_DRE
 10
216828.41
 20
9179860.00
  0
VERTEX
  8
0TOC_DRE
 10
216700.22
 20
9179746.00
  0
VERTEX
  8
0TOC_DRE
 10
216502.25
 20
9179615.00
  0
VERTEX
  8
0TOC_DRE
 10
216354.02
 20
9179502.00
  0
VERTEX
  8
0TOC_DRE
 10
216228.08
 20
9179402.00
  0
VERTEX
  8
0TOC_DRE
 10
215994.64
 20
9179299.00
  0
VERTEX
  8
0TOC_DRE
 10
215916.69
 20
9179172.00
  0
VERTEX
  8
0TOC_DRE
 10
215677.16
 20
9178983.00
  0
VERTEX
  8
0TOC_DRE
 10
215543.02
 20
9178926.00
  0
VERTEX
  8
0TOC_DRE
 10
215415.28
 20
9178784.00
  0
VERTEX
  8
0TOC_DRE
 10
215347.66
 20
9178637.00
  0
VERTEX
  8
0TOC_DRE
 10
215208.31
 20
9178440.00
  0
VERTEX
  8
0TOC_DRE
 10
215020.06
 20
9178327.00
  0
VERTEX
  8
0TOC_DRE
 10
214972.14
 20
9178198.00
  0
VERTEX
  8
0TOC_DRE
 10
214824.08
 20
9177923.00
  0
VERTEX
  8
0TOC_DRE
 10
214705.33
 20
9177691.00
  0
VERTEX
  8
0TOC_DRE
 10
214584.89
 20
9177561.00
  0
VERTEX
  8
0TOC_DRE
 10
214492.66
 20
9177389.00
  0
VERTEX
  8
0TOC_DRE
 10
214470.13
 20
9177239.00
  0
VERTEX
  8
0TOC_DRE
 10
214295.86
 20
9176769.00
  0
SEQEND
  8
0TOC_DRE
  0
POLYLINE
  8
0TOC_DRE
 66
     1
  0
VERTEX
  8
0TOC_DRE
 10
214295.86
 20
9176769.00
  0
VERTEX
  8
0TOC_DRE
 10
213995.64
 20
9176277.00
  0
VERTEX
  8
0TOC_DRE
 10
213876.52
 20
9176068.00
  0
VERTEX
  8
0TOC_DRE
 10
213781.38
 20
9175921.00
  0
VERTEX
  8
0TOC_DRE
 10
213533.33
 20
9175642.00
  0
VERTEX
  8
0TOC_DRE
 10
213405.70
 20
9175492.00
  0
VERTEX
  8
0TOC_DRE
 10
213267.64
 20
9175370.00
  0
VERTEX
  8
0TOC_DRE
 10
213134.41
 20
9175257.00
  0
VERTEX
  8
0TOC_DRE
 10
213014.00
 20
9175125.00
  0
VERTEX
  8
0TOC_DRE
 10
212847.70
 20
9174895.00
  0
VERTEX
  8
0TOC_DRE
 10
212732.38
 20
9174758.00
  0
VERTEX
  8
0TOC_DRE
 10
212642.61
 20
9174588.00
  0
VERTEX
  8
0TOC_DRE
 10
212537.25
 20
9174454.00
  0
VERTEX
  8
0TOC_DRE
 10
212484.30
 20
9174328.00
  0
VERTEX
  8
0TOC_DRE
 10
212392.27
 20
9174144.00
  0
VERTEX
  8
0TOC_DRE
 10
212347.59
 20
9173970.00
  0
VERTEX
  8
0TOC_DRE
 10
212241.02
 20
9173758.00
  0
VERTEX
  8
0TOC_DRE
 10
212170.59
 20
9173630.00
  0
VERTEX
  8
0TOC_DRE
 10
212053.22
 20
9173465.00
  0
VERTEX
  8
0TOC_DRE
 10
211940.66
 20
9173313.00
  0
VERTEX
  8
0TOC_DRE
 10
211860.19
 20
9173187.00
  0
VERTEX
  8
0TOC_DRE
 10
211735.89
 20
9172987.00
  0
VERTEX
  8
0TOC_DRE
 10
211600.95
 20
9172827.00
  0
VERTEX
  8
0TOC_DRE
 10
211468.42
 20
9172672.00
  0
VERTEX
  8
0TOC_DRE
 10
211313.91
 20
9172484.00
  0
VERTEX
  8
0TOC_DRE
 10
211100.55
 20
9172226.00
  0
VERTEX
  8
0TOC_DRE
 10
211023.02
 20
9172072.00
  0
VERTEX
  8
0TOC_DRE
 10
210883.81
 20
9171867.00
  0
VERTEX
  8
0TOC_DRE
 10
210635.06
 20
9171630.00
  0
VERTEX
  8
0TOC_DRE
 10
210494.69
 20
9171495.00
  0
VERTEX
  8
0TOC_DRE
 10
210371.83
 20
9171360.00
  0
VERTEX
  8
0TOC_DRE
 10
210257.55
 20
9171161.00
  0
VERTEX
  8
0TOC_DRE
 10
210147.48
 20
9171009.00
  0
VERTEX
  8
0TOC_DRE
 10
210045.20
 20
9170839.00
  0
VERTEX
  8
0TOC_DRE
 10
209919.39
 20
9170732.00
  0
VERTEX
  8
0TOC_DRE
 10
209851.92
 20
9170576.00
  0
VERTEX
  8
0TOC_DRE
 10
209770.06
 20
9170338.00
  0
SEQEND
  8
0TOC_DRE
  0
POLYLINE
  8
0TOC_DRE
 66
     1
  0
VERTEX
  8
0TOC_DRE
 10
224029.84
 20
9183957.00
  0
VERTEX
  8
0TOC_DRE
 10
223828.38
 20
9183911.00
  0
VERTEX
  8
0TOC_DRE
 10
223630.94
 20
9183748.00
  0
VERTEX
  8
0TOC_DRE
 10
223407.84
 20
9183624.00
  0
VERTEX
  8
0TOC_DRE
 10
223213.61
 20
9183571.00
  0
VERTEX
  8
0TOC_DRE
 10
223047.05
 20
9183508.00
  0
VERTEX
  8
0TOC_DRE
 10
222858.64
 20
9183405.00
  0
VERTEX
  8
0TOC_DRE
 10
222745.86
 20
9183266.00
  0
VERTEX
  8
0TOC_DRE
 10
222562.81
 20
9183140.00
  0
VERTEX
  8
0TOC_DRE
 10
222413.34
 20
9183102.00
  0
VERTEX
  8
0TOC_DRE
 10
222197.52
 20
9182994.00
  0
VERTEX
  8
0TOC_DRE
 10
222020.94
 20
9182931.00
  0
VERTEX
  8
0TOC_DRE
 10
221886.92
 20
9182866.00
  0
VERTEX
  8
0TOC_DRE
 10
221643.70
 20
9182749.00
  0
VERTEX
  8
0TOC_DRE
 10
221462.58
 20
9182659.00
  0
VERTEX
  8
0TOC_DRE
 10
221288.81
 20
9182579.00
  0
VERTEX
  8
0TOC_DRE
 10
221104.94
 20
9182503.00
  0
VERTEX
  8
0TOC_DRE
 10
220924.28
 20
9182385.00
  0
VERTEX
  8
0TOC_DRE
 10
220778.22
 20
9182292.00
  0
VERTEX
  8
0TOC_DRE
 10
220602.64
 20
9182169.00
  0
VERTEX
  8
0TOC_DRE
 10
220382.50
 20
9182018.00
  0
VERTEX
  8
0TOC_DRE
 10
220219.45
 20
9181893.00
  0
VERTEX
  8
0TOC_DRE
 10
220021.17
 20
9181782.00
  0
VERTEX
  8
0TOC_DRE
 10
219852.47
 20
9181697.00
  0
VERTEX
  8
0TOC_DRE
 10
219723.75
 20
9181614.00
  0
VERTEX
  8
0TOC_DRE
 10
219551.94
 20
9181567.00
  0
VERTEX
  8
0TOC_DRE
 10
219332.94
 20
9181498.00
  0
VERTEX
  8
0TOC_DRE
 10
219118.58
 20
9181452.00
  0
VERTEX
  8
0TOC_DRE
 10
218980.83
 20
9181462.00
  0
VERTEX
  8
0TOC_DRE
 10
218823.06
 20
9181472.00
  0
VERTEX
  8
0TOC_DRE
 10
218680.41
 20
9181477.00
  0
VERTEX
  8
0TOC_DRE
 10
218474.92
 20
9181499.00
  0
VERTEX
  8
0TOC_DRE
 10
218254.98
 20
9181488.00
  0
VERTEX
  8
0TOC_DRE
 10
218107.94
 20
9181455.00
  0
VERTEX
  8
0TOC_DRE
 10
217931.36
 20
9181393.00
  0
VERTEX
  8
0TOC_DRE
 10
217750.00
 20
9181317.00
  0
VERTEX
  8
0TOC_DRE
 10
217546.75
 20
9181204.00
  0
VERTEX
  8
0TOC_DRE
 10
217392.89
 20
9181128.00
  0
VERTEX
  8
0TOC_DRE
 10
217199.89
 20
9181000.00
  0
VERTEX
  8
0TOC_DRE
 10
216961.92
 20
9180869.00
  0
VERTEX
  8
0TOC_DRE
 10
216791.95
 20
9180708.00
  0
VERTEX
  8
0TOC_DRE
 10
216636.17
 20
9180598.00
  0
VERTEX
  8
0TOC_DRE
 10
216428.17
 20
9180469.00
  0
VERTEX
  8
0TOC_DRE
 10
216247.38
 20
9180359.00
  0
VERTEX
  8
0TOC_DRE
 10
216120.58
 20
9180312.00
  0
VERTEX
  8
0TOC_DRE
 10
215917.78
 20
9180171.00
  0
VERTEX
  8
0TOC_DRE
 10
215775.08
 20
9180026.00
  0
VERTEX
  8
0TOC_DRE
 10
215500.05
 20
9179866.00
  0
VERTEX
  8
0TOC_DRE
 10
215364.31
 20
9179754.00
  0
VERTEX
  8
0TOC_DRE
 10
215165.25
 20
9179538.00
  0
VERTEX
  8
0TOC_DRE
 10
214988.08
 20
9179360.00
  0
VERTEX
  8
0TOC_DRE
 10
214876.25
 20
9179163.00
  0
VERTEX
  8
0TOC_DRE
 10
214756.47
 20
9178993.00
  0
VERTEX
  8
0TOC_DRE
 10
214542.69
 20
9178759.00
  0
VERTEX
  8
0TOC_DRE
 10
214452.30
 20
9178628.00
  0
VERTEX
  8
0TOC_DRE
 10
214359.44
 20
9178494.00
  0
VERTEX
  8
0TOC_DRE
 10
214249.67
 20
9178324.00
  0
VERTEX
  8
0TOC_DRE
 10
214198.36
 20
9178098.00
  0
VERTEX
  8
0TOC_DRE
 10
214110.63
 20
9177956.00
  0
VERTEX
  8
0TOC_DRE
 10
214022.83
 20
9177820.00
  0
VERTEX
  8
0TOC_DRE
 10
213950.64
 20
9177646.00
  0
VERTEX
  8
0TOC_DRE
 10
213885.78
 20
9177482.00
  0
VERTEX
  8
0TOC_DRE
 10
213783.67
 20
9177303.00
  0
VERTEX
  8
0TOC_DRE
 10
213646.03
 20
9177003.00
  0
VERTEX
  8
0TOC_DRE
 10
213456.97
 20
9176787.00
  0
VERTEX
  8
0TOC_DRE
 10
213337.75
 20
9176582.00
  0
VERTEX
  8
0TOC_DRE
 10
213193.55
 20
9176377.00
  0
VERTEX
  8
0TOC_DRE
 10
212982.95
 20
9176101.00
  0
VERTEX
  8
0TOC_DRE
 10
212882.73
 20
9175959.00
  0
VERTEX
  8
0TOC_DRE
 10
212772.38
 20
9175825.00
  0
VERTEX
  8
0TOC_DRE
 10
212704.42
 20
9175698.00
  0
VERTEX
  8
0TOC_DRE
 10
212524.28
 20
9175548.00
  0
VERTEX
  8
0TOC_DRE
 10
212416.52
 20
9175408.00
  0
VERTEX
  8
0TOC_DRE
 10
212291.16
 20
9175274.00
  0
VERTEX
  8
0TOC_DRE
 10
212225.77
 20
9175142.00
  0
VERTEX
  8
0TOC_DRE
 10
212021.41
 20
9174944.00
  0
VERTEX
  8
0TOC_DRE
 10
211936.34
 20
9174792.00
  0
VERTEX
  8
0TOC_DRE
 10
211809.77
 20
9174580.00
  0
VERTEX
  8
0TOC_DRE
 10
211704.75
 20
9174426.00
  0
VERTEX
  8
0TOC_DRE
 10
211503.55
 20
9174187.00
  0
VERTEX
  8
0TOC_DRE
 10
211408.78
 20
9174018.00
  0
VERTEX
  8
0TOC_DRE
 10
211345.86
 20
9173889.00
  0
VERTEX
  8
0TOC_DRE
 10
211261.98
 20
9173665.00
  0
VERTEX
  8
0TOC_DRE
 10
211090.72
 20
9173432.00
  0
VERTEX
  8
0TOC_DRE
 10
210995.78
 20
9173273.00
  0
VERTEX
  8
0TOC_DRE
 10
210864.73
 20
9173028.00
  0
VERTEX
  8
0TOC_DRE
 10
210814.81
 20
9172869.00
  0
VERTEX
  8
0TOC_DRE
 10
210758.11
 20
9172666.00
  0
VERTEX
  8
0TOC_DRE
 10
210702.69
 20
9172537.00
  0
VERTEX
  8
0TOC_DRE
 10
210582.34
 20
9172402.00
  0
VERTEX
  8
0TOC_DRE
 10
210436.98
 20
9172267.00
  0
VERTEX
  8
0TOC_DRE
 10
210258.31
 20
9172179.00
  0
VERTEX
  8
0TOC_DRE
 10
210132.05
 20
9172100.00
  0
VERTEX
  8
0TOC_DRE
 10
209931.75
 20
9171959.00
  0
VERTEX
  8
0TOC_DRE
 10
209776.42
 20
9171821.00
  0
VERTEX
  8
0TOC_DRE
 10
209676.56
 20
9171657.00
  0
VERTEX
  8
0TOC_DRE
 10
209565.03
 20
9171442.00
  0
VERTEX
  8
0TOC_DRE
 10
209464.92
 20
9171293.00
  0
VERTEX
  8
0TOC_DRE
 10
209401.56
 20
9171039.00
  0
VERTEX
  8
0TOC_DRE
 10
209374.64
 20
9170851.00
  0
VERTEX
  8
0TOC_DRE
 10
209287.58
 20
9170669.00
  0
VERTEX
  8
0TOC_DRE
 10
209202.52
 20
9170518.00
  0
VERTEX
  8
0TOC_DRE
 10
209124.83
 20
9170374.00
  0
VERTEX
  8
0TOC_DRE
 10
209107.30
 20
9170223.00
  0
VERTEX
  8
0TOC_DRE
 10
209102.53
 20
9170061.00
  0
SEQEND
  8
0TOC_DRE
  0
LINE
  8
0TOC_DRE
 10
209770.06
 20
9170338.00
 11
209682.58
 21
9169989.00
  0
POLYLINE
  8
0TOC_DRE
 66
     1
  0
VERTEX
  8
0TOC_DRE
 10
209682.58
 20
9169989.00
  0
VERTEX
  8
0TOC_DRE
 10
209648.75
 20
9169722.00
  0
VERTEX
  8
0TOC_DRE
 10
209650.59
 20
9169597.00
  0
VERTEX
  8
0TOC_DRE
 10
209642.58
 20
9169461.00
  0
VERTEX
  8
0TOC_DRE
 10
209640.33
 20
9169274.00
  0
VERTEX
  8
0TOC_DRE
 10
209667.27
 20
9169142.00
  0
VERTEX
  8
0TOC_DRE
 10
209785.19
 20
9168943.00
  0
VERTEX
  8
0TOC_DRE
 10
209898.23
 20
9168737.00
  0
VERTEX
  8
0TOC_DRE
 10
210062.81
 20
9168597.00
  0
VERTEX
  8
0TOC_DRE
 10
210210.11
 20
9168442.00
  0
VERTEX
  8
0TOC_DRE
 10
210339.92
 20
9168286.00
  0
VERTEX
  8
0TOC_DRE
 10
210514.45
 20
9168148.00
  0
VERTEX
  8
0TOC_DRE
 10
210671.33
 20
9168023.00
  0
VERTEX
  8
0TOC_DRE
 10
210780.83
 20
9167887.00
  0
VERTEX
  8
0TOC_DRE
 10
210872.84
 20
9167751.00
  0
VERTEX
  8
0TOC_DRE
 10
210957.30
 20
9167619.00
  0
VERTEX
  8
0TOC_DRE
 10
211056.98
 20
9167300.00
  0
SEQEND
  8
0TOC_DRE
  0
POLYLINE
  8
0TOC_DRE
 66
     1
  0
VERTEX
  8
0TOC_DRE
 10
210422.11
 20
9166938.00
  0
VERTEX
  8
0TOC_DRE
 10
210412.59
 20
9167252.00
  0
VERTEX
  8
0TOC_DRE
 10
210392.64
 20
9167419.00
  0
VERTEX
  8
0TOC_DRE
 10
210324.77
 20
9167613.00
  0
VERTEX
  8
0TOC_DRE
 10
210192.80
 20
9167746.00
  0
VERTEX
  8
0TOC_DRE
 10
210047.53
 20
9167934.00
  0
VERTEX
  8
0TOC_DRE
 10
209916.06
 20
9168032.00
  0
VERTEX
  8
0TOC_DRE
 10
209801.36
 20
9168181.00
  0
VERTEX
  8
0TOC_DRE
 10
209729.14
 20
9168332.00
  0
VERTEX
  8
0TOC_DRE
 10
209626.72
 20
9168496.00
  0
VERTEX
  8
0TOC_DRE
 10
209476.66
 20
9168669.00
  0
VERTEX
  8
0TOC_DRE
 10
209397.11
 20
9168808.00
  0
VERTEX
  8
0TOC_DRE
 10
209337.30
 20
9168964.00
  0
VERTEX
  8
0TOC_DRE
 10
209257.53
 20
9169118.00
  0
VERTEX
  8
0TOC_DRE
 10
209210.38
 20
9169265.00
  0
VERTEX
  8
0TOC_DRE
 10
209172.41
 20
9169467.00
  0
VERTEX
  8
0TOC_DRE
 10
209149.73
 20
9169649.00
  0
VERTEX
  8
0TOC_DRE
 10
209137.53
 20
9169799.00
  0
VERTEX
  8
0TOC_DRE
 10
209102.53
 20
9170061.00
  0
SEQEND
  8
0TOC_DRE
  0
POLYLINE
  8
0TOC_DRE
 66
     1
  0
VERTEX
  8
0TOC_DRE
 10
202695.34
 20
9149605.00
  0
VERTEX
  8
0TOC_DRE
 10
202848.50
 20
9149699.00
  0
VERTEX
  8
0TOC_DRE
 10
202984.36
 20
9149814.00
  0
VERTEX
  8
0TOC_DRE
 10
203215.16
 20
9149932.00
  0
VERTEX
  8
0TOC_DRE
 10
203495.45
 20
9150086.00
  0
VERTEX
  8
0TOC_DRE
 10
203688.13
 20
9150246.00
  0
VERTEX
  8
0TOC_DRE
 10
203913.47
 20
9150397.00
  0
VERTEX
  8
0TOC_DRE
 10
204128.97
 20
9150535.00
  0
VERTEX
  8
0TOC_DRE
 10
204352.28
 20
9150653.00
  0
VERTEX
  8
0TOC_DRE
 10
204552.28
 20
9150826.00
  0
VERTEX
  8
0TOC_DRE
 10
204792.97
 20
9150952.00
  0
VERTEX
  8
0TOC_DRE
 10
204957.86
 20
9151132.00
  0
VERTEX
  8
0TOC_DRE
 10
205172.50
 20
9151330.00
  0
VERTEX
  8
0TOC_DRE
 10
205410.80
 20
9151449.00
  0
VERTEX
  8
0TOC_DRE
 10
205537.28
 20
9151520.00
  0
VERTEX
  8
0TOC_DRE
 10
205676.47
 20
9151577.00
  0
VERTEX
  8
0TOC_DRE
 10
205908.56
 20
9151778.00
  0
VERTEX
  8
0TOC_DRE
 10
206076.09
 20
9151948.00
  0
VERTEX
  8
0TOC_DRE
 10
206230.66
 20
9152150.00
  0
VERTEX
  8
0TOC_DRE
 10
206320.52
 20
9152332.00
  0
VERTEX
  8
0TOC_DRE
 10
206435.09
 20
9152533.00
  0
VERTEX
  8
0TOC_DRE
 10
206562.63
 20
9152703.00
  0
VERTEX
  8
0TOC_DRE
 10
206693.58
 20
9152810.00
  0
VERTEX
  8
0TOC_DRE
 10
206913.72
 20
9152973.00
  0
VERTEX
  8
0TOC_DRE
 10
207127.33
 20
9153071.00
  0
VERTEX
  8
0TOC_DRE
 10
207333.58
 20
9153159.00
  0
VERTEX
  8
0TOC_DRE
 10
207482.84
 20
9153381.00
  0
VERTEX
  8
0TOC_DRE
 10
207637.73
 20
9153561.00
  0
VERTEX
  8
0TOC_DRE
 10
207781.64
 20
9153808.00
  0
VERTEX
  8
0TOC_DRE
 10
207859.69
 20
9153942.00
  0
VERTEX
  8
0TOC_DRE
 10
207952.45
 20
9154095.00
  0
VERTEX
  8
0TOC_DRE
 10
208062.89
 20
9154237.00
  0
VERTEX
  8
0TOC_DRE
 10
208207.97
 20
9154404.00
  0
VERTEX
  8
0TOC_DRE
 10
208370.14
 20
9154599.00
  0
VERTEX
  8
0TOC_DRE
 10
208516.36
 20
9154859.00
  0
VERTEX
  8
0TOC_DRE
 10
208659.05
 20
9155018.00
  0
VERTEX
  8
0TOC_DRE
 10
208764.61
 20
9155152.00
  0
VERTEX
  8
0TOC_DRE
 10
208809.69
 20
9155318.00
  0
VERTEX
  8
0TOC_DRE
 10
208850.23
 20
9155451.00
  0
VERTEX
  8
0TOC_DRE
 10
208910.58
 20
9155599.00
  0
VERTEX
  8
0TOC_DRE
 10
208982.09
 20
9155838.00
  0
VERTEX
  8
0TOC_DRE
 10
209071.44
 20
9156054.00
  0
VERTEX
  8
0TOC_DRE
 10
209146.41
 20
9156228.00
  0
VERTEX
  8
0TOC_DRE
 10
209226.05
 20
9156424.00
  0
VERTEX
  8
0TOC_DRE
 10
209283.98
 20
9156565.00
  0
VERTEX
  8
0TOC_DRE
 10
209354.47
 20
9156704.00
  0
VERTEX
  8
0TOC_DRE
 10
209517.34
 20
9156851.00
  0
VERTEX
  8
0TOC_DRE
 10
209588.00
 20
9156977.00
  0
VERTEX
  8
0TOC_DRE
 10
209621.06
 20
9157110.00
  0
VERTEX
  8
0TOC_DRE
 10
209702.66
 20
9157344.00
  0
VERTEX
  8
0TOC_DRE
 10
209738.03
 20
9157489.00
  0
VERTEX
  8
0TOC_DRE
 10
209763.25
 20
9157645.00
  0
VERTEX
  8
0TOC_DRE
 10
209772.13
 20
9157892.00
  0
VERTEX
  8
0TOC_DRE
 10
209743.91
 20
9158112.00
  0
VERTEX
  8
0TOC_DRE
 10
209726.73
 20
9158259.00
  0
VERTEX
  8
0TOC_DRE
 10
209691.75
 20
9158429.00
  0
VERTEX
  8
0TOC_DRE
 10
209661.39
 20
9158623.00
  0
VERTEX
  8
0TOC_DRE
 10
209607.50
 20
9158888.00
  0
VERTEX
  8
0TOC_DRE
 10
209584.50
 20
9159092.00
  0
VERTEX
  8
0TOC_DRE
 10
209554.08
 20
9159292.00
  0
VERTEX
  8
0TOC_DRE
 10
209495.92
 20
9159506.00
  0
VERTEX
  8
0TOC_DRE
 10
209443.58
 20
9159666.00
  0
VERTEX
  8
0TOC_DRE
 10
209349.19
 20
9159964.00
  0
VERTEX
  8
0TOC_DRE
 10
209319.02
 20
9160147.00
  0
VERTEX
  8
0TOC_DRE
 10
209294.95
 20
9160424.00
  0
VERTEX
  8
0TOC_DRE
 10
209316.06
 20
9160689.00
  0
VERTEX
  8
0TOC_DRE
 10
209311.97
 20
9160969.00
  0
VERTEX
  8
0TOC_DRE
 10
209308.30
 20
9161219.00
  0
VERTEX
  8
0TOC_DRE
 10
209305.66
 20
9161399.00
  0
VERTEX
  8
0TOC_DRE
 10
209287.88
 20
9161589.00
  0
VERTEX
  8
0TOC_DRE
 10
209283.41
 20
9161894.00
  0
VERTEX
  8
0TOC_DRE
 10
209293.05
 20
9162089.00
  0
VERTEX
  8
0TOC_DRE
 10
209300.48
 20
9162434.00
  0
VERTEX
  8
0TOC_DRE
 10
209336.45
 20
9162710.00
  0
VERTEX
  8
0TOC_DRE
 10
209373.05
 20
9162943.00
  0
VERTEX
  8
0TOC_DRE
 10
209397.94
 20
9163121.00
  0
VERTEX
  8
0TOC_DRE
 10
209461.59
 20
9163385.00
  0
VERTEX
  8
0TOC_DRE
 10
209548.95
 20
9163566.00
  0
VERTEX
  8
0TOC_DRE
 10
209645.17
 20
9163825.00
  0
VERTEX
  8
0TOC_DRE
 10
209727.28
 20
9164023.00
  0
VERTEX
  8
0TOC_DRE
 10
209796.88
 20
9164222.00
  0
VERTEX
  8
0TOC_DRE
 10
209901.19
 20
9164441.00
  0
VERTEX
  8
0TOC_DRE
 10
209990.86
 20
9164635.00
  0
VERTEX
  8
0TOC_DRE
 10
210079.73
 20
9164884.00
  0
VERTEX
  8
0TOC_DRE
 10
210139.30
 20
9165085.00
  0
VERTEX
  8
0TOC_DRE
 10
210178.92
 20
9165280.00
  0
VERTEX
  8
0TOC_DRE
 10
210200.86
 20
9165491.00
  0
VERTEX
  8
0TOC_DRE
 10
210228.84
 20
9165629.00
  0
VERTEX
  8
0TOC_DRE
 10
210281.16
 20
9165812.00
  0
VERTEX
  8
0TOC_DRE
 10
210360.28
 20
9166043.00
  0
VERTEX
  8
0TOC_DRE
 10
210408.42
 20
9166341.00
  0
VERTEX
  8
0TOC_DRE
 10
210448.17
 20
9166529.00
  0
VERTEX
  8
0TOC_DRE
 10
210444.30
 20
9166794.00
  0
VERTEX
  8
0TOC_DRE
 10
210422.11
 20
9166938.00
  0
SEQEND
  8
0TOC_DRE
  0
POLYLINE
  8
0TOC_DRE
 66
     1
  0
VERTEX
  8
0TOC_DRE
 10
211056.98
 20
9167300.00
  0
VERTEX
  8
0TOC_DRE
 10
211069.91
 20
9167101.00
  0
VERTEX
  8
0TOC_DRE
 10
211086.11
 20
9166849.00
  0
VERTEX
  8
0TOC_DRE
 10
211073.48
 20
9166686.00
  0
VERTEX
  8
0TOC_DRE
 10
211020.47
 20
9166550.00
  0
VERTEX
  8
0TOC_DRE
 10
210920.83
 20
9166354.00
  0
VERTEX
  8
0TOC_DRE
 10
210895.56
 20
9166201.00
  0
VERTEX
  8
0TOC_DRE
 10
210860.48
 20
9166035.00
  0
VERTEX
  8
0TOC_DRE
 10
210852.44
 20
9165902.00
  0
VERTEX
  8
0TOC_DRE
 10
210868.02
 20
9165693.00
  0
VERTEX
  8
0TOC_DRE
 10
210870.03
 20
9165555.00
  0
VERTEX
  8
0TOC_DRE
 10
210793.95
 20
9165286.00
  0
VERTEX
  8
0TOC_DRE
 10
210742.09
 20
9165071.00
  0
VERTEX
  8
0TOC_DRE
 10
210650.63
 20
9164829.00
  0
VERTEX
  8
0TOC_DRE
 10
210597.56
 20
9164696.00
  0
VERTEX
  8
0TOC_DRE
 10
210490.06
 20
9164524.00
  0
VERTEX
  8
0TOC_DRE
 10
210412.38
 20
9164366.00
  0
VERTEX
  8
0TOC_DRE
 10
210394.42
 20
9164225.00
  0
VERTEX
  8
0TOC_DRE
 10
210349.20
 20
9164070.00
  0
VERTEX
  8
0TOC_DRE
 10
210319.34
 20
9163889.00
  0
VERTEX
  8
0TOC_DRE
 10
210294.30
 20
9163721.00
  0
VERTEX
  8
0TOC_DRE
 10
210230.13
 20
9163493.00
  0
VERTEX
  8
0TOC_DRE
 10
210204.53
 20
9163363.00
  0
VERTEX
  8
0TOC_DRE
 10
210172.41
 20
9163167.00
  0
VERTEX
  8
0TOC_DRE
 10
210134.59
 20
9163016.00
  0
VERTEX
  8
0TOC_DRE
 10
210101.47
 20
9162888.00
  0
VERTEX
  8
0TOC_DRE
 10
210010.42
 20
9162617.00
  0
VERTEX
  8
0TOC_DRE
 10
209975.02
 20
9162474.00
  0
VERTEX
  8
0TOC_DRE
 10
209942.52
 20
9162303.00
  0
VERTEX
  8
0TOC_DRE
 10
209915.27
 20
9162116.00
  0
VERTEX
  8
0TOC_DRE
 10
209907.27
 20
9161978.00
  0
VERTEX
  8
0TOC_DRE
 10
209909.73
 20
9161810.00
  0
VERTEX
  8
0TOC_DRE
 10
209907.52
 20
9161620.00
  0
VERTEX
  8
0TOC_DRE
 10
209905.31
 20
9161430.00
  0
VERTEX
  8
0TOC_DRE
 10
209898.05
 20
9161243.00
  0
VERTEX
  8
0TOC_DRE
 10
209895.91
 20
9161047.00
  0
VERTEX
  8
0TOC_DRE
 10
209898.14
 20
9160895.00
  0
VERTEX
  8
0TOC_DRE
 10
209901.41
 20
9160672.00
  0
VERTEX
  8
0TOC_DRE
 10
209903.86
 20
9160505.00
  0
VERTEX
  8
0TOC_DRE
 10
209901.88
 20
9160300.00
  0
VERTEX
  8
0TOC_DRE
 10
209899.44
 20
9160125.00
  0
VERTEX
  8
0TOC_DRE
 10
209901.45
 20
9159987.00
  0
VERTEX
  8
0TOC_DRE
 10
209903.36
 20
9159857.00
  0
VERTEX
  8
0TOC_DRE
 10
209918.20
 20
9159697.00
  0
VERTEX
  8
0TOC_DRE
 10
209920.17
 20
9159562.00
  0
VERTEX
  8
0TOC_DRE
 10
209951.30
 20
9159315.00
  0
VERTEX
  8
0TOC_DRE
 10
209965.86
 20
9159175.00
  0
VERTEX
  8
0TOC_DRE
 10
210007.91
 20
9159036.00
  0
VERTEX
  8
0TOC_DRE
 10
210068.44
 20
9158829.00
  0
VERTEX
  8
0TOC_DRE
 10
210126.23
 20
9158640.00
  0
VERTEX
  8
0TOC_DRE
 10
210173.28
 20
9158501.00
  0
VERTEX
  8
0TOC_DRE
 10
210213.05
 20
9158346.00
  0
VERTEX
  8
0TOC_DRE
 10
210255.75
 20
9158162.00
  0
VERTEX
  8
0TOC_DRE
 10
210301.08
 20
9157970.00
  0
VERTEX
  8
0TOC_DRE
 10
210315.48
 20
9157840.00
  0
VERTEX
  8
0TOC_DRE
 10
210330.44
 20
9157673.00
  0
VERTEX
  8
0TOC_DRE
 10
210344.88
 20
9157540.00
  0
VERTEX
  8
0TOC_DRE
 10
210347.22
 20
9157380.00
  0
VERTEX
  8
0TOC_DRE
 10
210349.94
 20
9157195.00
  0
VERTEX
  8
0TOC_DRE
 10
210312.55
 20
9157017.00
  0
VERTEX
  8
0TOC_DRE
 10
210171.31
 20
9156758.00
  0
VERTEX
  8
0TOC_DRE
 10
210063.53
 20
9156606.00
  0
VERTEX
  8
0TOC_DRE
 10
209970.69
 20
9156457.00
  0
VERTEX
  8
0TOC_DRE
 10
209907.70
 20
9156319.00
  0
VERTEX
  8
0TOC_DRE
 10
209826.05
 20
9156090.00
  0
VERTEX
  8
0TOC_DRE
 10
209760.53
 20
9155954.00
  0
VERTEX
  8
0TOC_DRE
 10
209685.77
 20
9155765.00
  0
VERTEX
  8
0TOC_DRE
 10
209608.64
 20
9155569.00
  0
VERTEX
  8
0TOC_DRE
 10
209524.11
 20
9155366.00
  0
VERTEX
  8
0TOC_DRE
 10
209461.31
 20
9155215.00
  0
VERTEX
  8
0TOC_DRE
 10
209385.69
 20
9155086.00
  0
VERTEX
  8
0TOC_DRE
 10
209307.88
 20
9154935.00
  0
VERTEX
  8
0TOC_DRE
 10
209257.30
 20
9154804.00
  0
VERTEX
  8
0TOC_DRE
 10
209192.25
 20
9154636.00
  0
VERTEX
  8
0TOC_DRE
 10
209134.19
 20
9154502.00
  0
VERTEX
  8
0TOC_DRE
 10
209038.67
 20
9154366.00
  0
VERTEX
  8
0TOC_DRE
 10
208986.28
 20
9154188.00
  0
VERTEX
  8
0TOC_DRE
 10
208884.00
 20
9154001.00
  0
VERTEX
  8
0TOC_DRE
 10
208667.52
 20
9153758.00
  0
VERTEX
  8
0TOC_DRE
 10
208485.13
 20
9153578.00
  0
VERTEX
  8
0TOC_DRE
 10
208357.30
 20
9153428.00
  0
VERTEX
  8
0TOC_DRE
 10
208111.13
 20
9153165.00
  0
VERTEX
  8
0TOC_DRE
 10
207943.39
 20
9153007.00
  0
VERTEX
  8
0TOC_DRE
 10
207706.73
 20
9152777.00
  0
VERTEX
  8
0TOC_DRE
 10
207572.11
 20
9152580.00
  0
VERTEX
  8
0TOC_DRE
 10
207459.20
 20
9152435.00
  0
VERTEX
  8
0TOC_DRE
 10
207262.91
 20
9152180.00
  0
VERTEX
  8
0TOC_DRE
 10
207102.69
 20
9152023.00
  0
VERTEX
  8
0TOC_DRE
 10
206980.03
 20
9151861.00
  0
VERTEX
  8
0TOC_DRE
 10
206711.36
 20
9151597.00
  0
VERTEX
  8
0TOC_DRE
 10
206523.11
 20
9151474.00
  0
VERTEX
  8
0TOC_DRE
 10
206374.70
 20
9151365.00
  0
VERTEX
  8
0TOC_DRE
 10
206229.41
 20
9151213.00
  0
VERTEX
  8
0TOC_DRE
 10
206051.75
 20
9151050.00
  0
VERTEX
  8
0TOC_DRE
 10
205906.31
 20
9150908.00
  0
VERTEX
  8
0TOC_DRE
 10
205704.33
 20
9150700.00
  0
VERTEX
  8
0TOC_DRE
 10
205547.00
 20
9150515.00
  0
VERTEX
  8
0TOC_DRE
 10
205364.36
 20
9150353.00
  0
VERTEX
  8
0TOC_DRE
 10
205186.75
 20
9150188.00
  0
VERTEX
  8
0TOC_DRE
 10
205052.48
 20
9150136.00
  0
VERTEX
  8
0TOC_DRE
 10
204884.69
 20
9149983.00
  0
VERTEX
  8
0TOC_DRE
 10
204686.34
 20
9149868.00
  0
VERTEX
  8
0TOC_DRE
 10
204517.59
 20
9149780.00
  0
VERTEX
  8
0TOC_DRE
 10
204389.41
 20
9149656.00
  0
VERTEX
  8
0TOC_DRE
 10
204176.80
 20
9149491.00
  0
VERTEX
  8
0TOC_DRE
 10
203933.41
 20
9149377.00
  0
VERTEX
  8
0TOC_DRE
 10
203784.19
 20
9149322.00
  0
VERTEX
  8
0TOC_DRE
 10
203506.00
 20
9149196.00
  0
VERTEX
  8
0TOC_DRE
 10
203294.53
 20
9149123.00
  0
VERTEX
  8
0TOC_DRE
 10
203167.73
 20
9149074.00
  0
VERTEX
  8
0TOC_DRE
 10
203023.59
 20
9149030.00
  0
SEQEND
  8
0TOC_DRE
  0
POLYLINE
  8
0TOC_DRE
 66
     1
  0
VERTEX
  8
0TOC_DRE
 10
203023.59
 20
9149030.00
  0
VERTEX
  8
0TOC_DRE
 10
202762.11
 20
9148940.00
  0
VERTEX
  8
0TOC_DRE
 10
202615.42
 20
9148883.00
  0
VERTEX
  8
0TOC_DRE
 10
202389.30
 20
9148788.00
  0
VERTEX
  8
0TOC_DRE
 10
202255.39
 20
9148711.00
  0
VERTEX
  8
0TOC_DRE
 10
202095.98
 20
9148668.00
  0
VERTEX
  8
0TOC_DRE
 10
201870.14
 20
9148553.00
  0
VERTEX
  8
0TOC_DRE
 10
201724.23
 20
9148443.00
  0
VERTEX
  8
0TOC_DRE
 10
201567.53
 20
9148386.00
  0
VERTEX
  8
0TOC_DRE
 10
201398.64
 20
9148308.00
  0
VERTEX
  8
0TOC_DRE
 10
201254.34
 20
9148259.00
  0
VERTEX
  8
0TOC_DRE
 10
201060.56
 20
9148174.00
  0
VERTEX
  8
0TOC_DRE
 10
200916.70
 20
9148094.00
  0
VERTEX
  8
0TOC_DRE
 10
200740.05
 20
9148034.00
  0
VERTEX
  8
0TOC_DRE
 10
200613.70
 20
9147955.00
  0
VERTEX
  8
0TOC_DRE
 10
200487.22
 20
9147883.00
  0
VERTEX
  8
0TOC_DRE
 10
200326.16
 20
9147783.00
  0
VERTEX
  8
0TOC_DRE
 10
200169.61
 20
9147716.00
  0
VERTEX
  8
0TOC_DRE
 10
199971.16
 20
9147608.00
  0
VERTEX
  8
0TOC_DRE
 10
199834.70
 20
9147536.00
  0
VERTEX
  8
0TOC_DRE
 10
199566.31
 20
9147422.00
  0
VERTEX
  8
0TOC_DRE
 10
199387.61
 20
9147332.00
  0
VERTEX
  8
0TOC_DRE
 10
199103.16
 20
9147121.00
  0
VERTEX
  8
0TOC_DRE
 10
198891.17
 20
9146913.00
  0
VERTEX
  8
0TOC_DRE
 10
198734.97
 20
9146823.00
  0
VERTEX
  8
0TOC_DRE
 10
198473.27
 20
9146594.00
  0
VERTEX
  8
0TOC_DRE
 10
198252.58
 20
9146468.00
  0
VERTEX
  8
0TOC_DRE
 10
198091.44
 20
9146374.00
  0
VERTEX
  8
0TOC_DRE
 10
197960.63
 20
9146257.00
  0
VERTEX
  8
0TOC_DRE
 10
197746.33
 20
9146036.00
  0
VERTEX
  8
0TOC_DRE
 10
197591.58
 20
9145846.00
  0
VERTEX
  8
0TOC_DRE
 10
197466.39
 20
9145687.00
  0
VERTEX
  8
0TOC_DRE
 10
197226.86
 20
9145481.00
  0
VERTEX
  8
0TOC_DRE
 10
197080.98
 20
9145369.00
  0
VERTEX
  8
0TOC_DRE
 10
196917.31
 20
9145277.00
  0
VERTEX
  8
0TOC_DRE
 10
196652.75
 20
9145073.00
  0
VERTEX
  8
0TOC_DRE
 10
196432.75
 20
9144900.00
  0
VERTEX
  8
0TOC_DRE
 10
196251.58
 20
9144807.00
  0
VERTEX
  8
0TOC_DRE
 10
196095.00
 20
9144742.00
  0
VERTEX
  8
0TOC_DRE
 10
195953.97
 20
9144640.00
  0
VERTEX
  8
0TOC_DRE
 10
195781.25
 20
9144483.00
  0
VERTEX
  8
0TOC_DRE
 10
195632.39
 20
9144403.00
  0
VERTEX
  8
0TOC_DRE
 10
195416.77
 20
9144273.00
  0
VERTEX
  8
0TOC_DRE
 10
195208.09
 20
9144180.00
  0
VERTEX
  8
0TOC_DRE
 10
195059.34
 20
9144092.00
  0
VERTEX
  8
0TOC_DRE
 10
194826.27
 20
9143959.00
  0
VERTEX
  8
0TOC_DRE
 10
194674.91
 20
9143879.00
  0
VERTEX
  8
0TOC_DRE
 10
194518.63
 20
9143795.00
  0
VERTEX
  8
0TOC_DRE
 10
194369.88
 20
9143708.00
  0
VERTEX
  8
0TOC_DRE
 10
194097.63
 20
9143516.00
  0
VERTEX
  8
0TOC_DRE
 10
193971.53
 20
9143419.00
  0
VERTEX
  8
0TOC_DRE
 10
193833.36
 20
9143292.00
  0
VERTEX
  8
0TOC_DRE
 10
193696.27
 20
9143093.00
  0
VERTEX
  8
0TOC_DRE
 10
193584.72
 20
9142856.00
  0
VERTEX
  8
0TOC_DRE
 10
193470.33
 20
9142642.00
  0
VERTEX
  8
0TOC_DRE
 10
193447.72
 20
9142479.00
  0
VERTEX
  8
0TOC_DRE
 10
193382.59
 20
9142316.00
  0
VERTEX
  8
0TOC_DRE
 10
193273.00
 20
9142117.00
  0
VERTEX
  8
0TOC_DRE
 10
193197.66
 20
9141968.00
  0
VERTEX
  8
0TOC_DRE
 10
193042.00
 20
9141841.00
  0
VERTEX
  8
0TOC_DRE
 10
192890.23
 20
9141789.00
  0
VERTEX
  8
0TOC_DRE
 10
192681.34
 20
9141711.00
  0
VERTEX
  8
0TOC_DRE
 10
192550.09
 20
9141624.00
  0
VERTEX
  8
0TOC_DRE
 10
192416.72
 20
9141512.00
  0
VERTEX
  8
0TOC_DRE
 10
192178.19
 20
9141408.00
  0
VERTEX
  8
0TOC_DRE
 10
192013.97
 20
9141354.00
  0
VERTEX
  8
0TOC_DRE
 10
191789.27
 20
9141330.00
  0
VERTEX
  8
0TOC_DRE
 10
191567.22
 20
9141297.00
  0
VERTEX
  8
0TOC_DRE
 10
191345.09
 20
9141269.00
  0
VERTEX
  8
0TOC_DRE
 10
191143.22
 20
9141224.00
  0
VERTEX
  8
0TOC_DRE
 10
190898.78
 20
9141183.00
  0
VERTEX
  8
0TOC_DRE
 10
190571.58
 20
9141158.00
  0
VERTEX
  8
0TOC_DRE
 10
190246.97
 20
9141128.00
  0
VERTEX
  8
0TOC_DRE
 10
190054.63
 20
9141116.00
  0
VERTEX
  8
0TOC_DRE
 10
189794.92
 20
9141092.00
  0
VERTEX
  8
0TOC_DRE
 10
189601.17
 20
9141004.00
  0
VERTEX
  8
0TOC_DRE
 10
189447.61
 20
9140905.00
  0
VERTEX
  8
0TOC_DRE
 10
189189.02
 20
9140806.00
  0
VERTEX
  8
0TOC_DRE
 10
189037.47
 20
9140739.00
  0
VERTEX
  8
0TOC_DRE
 10
188903.64
 20
9140657.00
  0
VERTEX
  8
0TOC_DRE
 10
188777.17
 20
9140585.00
  0
VERTEX
  8
0TOC_DRE
 10
188575.16
 20
9140380.00
  0
VERTEX
  8
0TOC_DRE
 10
188373.69
 20
9140307.00
  0
VERTEX
  8
0TOC_DRE
 10
188179.61
 20
9140241.00
  0
VERTEX
  8
0TOC_DRE
 10
188041.16
 20
9140134.00
  0
VERTEX
  8
0TOC_DRE
 10
187834.73
 20
9140059.00
  0
VERTEX
  8
0TOC_DRE
 10
187641.89
 20
9139909.00
  0
VERTEX
  8
0TOC_DRE
 10
187328.95
 20
9139764.00
  0
VERTEX
  8
0TOC_DRE
 10
187115.28
 20
9139671.00
  0
VERTEX
  8
0TOC_DRE
 10
186851.17
 20
9139607.00
  0
VERTEX
  8
0TOC_DRE
 10
186617.66
 20
9139504.00
  0
VERTEX
  8
0TOC_DRE
 10
186389.09
 20
9139403.00
  0
VERTEX
  8
0TOC_DRE
 10
186085.59
 20
9139297.00
  0
VERTEX
  8
0TOC_DRE
 10
185761.61
 20
9139224.00
  0
VERTEX
  8
0TOC_DRE
 10
185494.92
 20
9139166.00
  0
VERTEX
  8
0TOC_DRE
 10
185158.72
 20
9139073.00
  0
VERTEX
  8
0TOC_DRE
 10
184810.13
 20
9138973.00
  0
VERTEX
  8
0TOC_DRE
 10
184564.13
 20
9138867.00
  0
VERTEX
  8
0TOC_DRE
 10
184250.98
 20
9138738.00
  0
VERTEX
  8
0TOC_DRE
 10
183947.08
 20
9138489.00
  0
VERTEX
  8
0TOC_DRE
 10
183672.81
 20
9138265.00
  0
VERTEX
  8
0TOC_DRE
 10
183384.33
 20
9138158.00
  0
VERTEX
  8
0TOC_DRE
 10
183110.47
 20
9138077.00
  0
VERTEX
  8
0TOC_DRE
 10
182826.36
 20
9138012.00
  0
VERTEX
  8
0TOC_DRE
 10
182542.41
 20
9137938.00
  0
VERTEX
  8
0TOC_DRE
 10
182238.77
 20
9137842.00
  0
VERTEX
  8
0TOC_DRE
 10
181918.19
 20
9137707.00
  0
VERTEX
  8
0TOC_DRE
 10
181645.00
 20
9137581.00
  0
VERTEX
  8
0TOC_DRE
 10
181384.00
 20
9137474.00
  0
VERTEX
  8
0TOC_DRE
 10
181173.31
 20
9137349.00
  0
VERTEX
  8
0TOC_DRE
 10
181007.75
 20
9137214.00
  0
VERTEX
  8
0TOC_DRE
 10
180854.41
 20
9137099.00
  0
VERTEX
  8
0TOC_DRE
 10
180669.08
 20
9136949.00
  0
VERTEX
  8
0TOC_DRE
 10
180514.05
 20
9136779.00
  0
VERTEX
  8
0TOC_DRE
 10
180328.31
 20
9136657.00
  0
VERTEX
  8
0TOC_DRE
 10
180193.02
 20
9136505.00
  0
VERTEX
  8
0TOC_DRE
 10
180061.69
 20
9136253.00
  0
VERTEX
  8
0TOC_DRE
 10
179962.16
 20
9136049.00
  0
VERTEX
  8
0TOC_DRE
 10
179865.09
 20
9135847.00
  0
VERTEX
  8
0TOC_DRE
 10
179765.30
 20
9135661.00
  0
VERTEX
  8
0TOC_DRE
 10
179650.48
 20
9135477.00
  0
VERTEX
  8
0TOC_DRE
 10
179607.53
 20
9135336.00
  0
VERTEX
  8
0TOC_DRE
 10
179557.56
 20
9135163.00
  0
VERTEX
  8
0TOC_DRE
 10
179572.97
 20
9134966.00
  0
VERTEX
  8
0TOC_DRE
 10
179587.98
 20
9134793.00
  0
VERTEX
  8
0TOC_DRE
 10
179640.44
 20
9134626.00
  0
VERTEX
  8
0TOC_DRE
 10
179709.25
 20
9134367.00
  0
VERTEX
  8
0TOC_DRE
 10
179740.81
 20
9134090.00
  0
VERTEX
  8
0TOC_DRE
 10
179742.67
 20
9133793.00
  0
VERTEX
  8
0TOC_DRE
 10
179719.88
 20
9133642.00
  0
VERTEX
  8
0TOC_DRE
 10
179697.27
 20
9133479.00
  0
VERTEX
  8
0TOC_DRE
 10
179694.56
 20
9133322.00
  0
VERTEX
  8
0TOC_DRE
 10
179681.81
 20
9133169.00
  0
VERTEX
  8
0TOC_DRE
 10
179658.86
 20
9133029.00
  0
VERTEX
  8
0TOC_DRE
 10
179595.06
 20
9132775.00
  0
VERTEX
  8
0TOC_DRE
 10
179557.33
 20
9132620.00
  0
VERTEX
  8
0TOC_DRE
 10
179506.67
 20
9132494.00
  0
VERTEX
  8
0TOC_DRE
 10
179469.09
 20
9132328.00
  0
VERTEX
  8
0TOC_DRE
 10
179407.20
 20
9132115.00
  0
VERTEX
  8
0TOC_DRE
 10
179341.69
 20
9131979.00
  0
VERTEX
  8
0TOC_DRE
 10
179260.31
 20
9131730.00
  0
VERTEX
  8
0TOC_DRE
 10
179212.33
 20
9131592.00
  0
VERTEX
  8
0TOC_DRE
 10
179156.70
 20
9131464.00
  0
VERTEX
  8
0TOC_DRE
 10
179126.22
 20
9131326.00
  0
VERTEX
  8
0TOC_DRE
 10
179078.23
 20
9131187.00
  0
VERTEX
  8
0TOC_DRE
 10
178992.77
 20
9131049.00
  0
VERTEX
  8
0TOC_DRE
 10
178872.61
 20
9130887.00
  0
VERTEX
  8
0TOC_DRE
 10
178827.02
 20
9130756.00
  0
VERTEX
  8
0TOC_DRE
 10
178711.94
 20
9130590.00
  0
VERTEX
  8
0TOC_DRE
 10
178629.44
 20
9130418.00
  0
VERTEX
  8
0TOC_DRE
 10
178596.52
 20
9130275.00
  0
VERTEX
  8
0TOC_DRE
 10
178513.55
 20
9130137.00
  0
VERTEX
  8
0TOC_DRE
 10
178368.39
 20
9129975.00
  0
VERTEX
  8
0TOC_DRE
 10
178171.27
 20
9129777.00
  0
VERTEX
  8
0TOC_DRE
 10
177942.92
 20
9129661.00
  0
VERTEX
  8
0TOC_DRE
 10
177794.39
 20
9129559.00
  0
VERTEX
  8
0TOC_DRE
 10
177630.28
 20
9129496.00
  0
VERTEX
  8
0TOC_DRE
 10
177500.80
 20
9129460.00
  0
VERTEX
  8
0TOC_DRE
 10
177315.72
 20
9129292.00
  0
VERTEX
  8
0TOC_DRE
 10
177140.64
 20
9129124.00
  0
VERTEX
  8
0TOC_DRE
 10
176984.06
 20
9129060.00
  0
VERTEX
  8
0TOC_DRE
 10
176830.06
 20
9128990.00
  0
VERTEX
  8
0TOC_DRE
 10
176629.47
 20
9128857.00
  0
VERTEX
  8
0TOC_DRE
 10
176456.20
 20
9128737.00
  0
VERTEX
  8
0TOC_DRE
 10
176284.36
 20
9128520.00
  0
VERTEX
  8
0TOC_DRE
 10
176184.91
 20
9128311.00
  0
VERTEX
  8
0TOC_DRE
 10
176129.83
 20
9128145.00
  0
VERTEX
  8
0TOC_DRE
 10
176112.36
 20
9127972.00
  0
VERTEX
  8
0TOC_DRE
 10
176094.55
 20
9127822.00
  0
VERTEX
  8
0TOC_DRE
 10
176091.94
 20
9127659.00
  0
VERTEX
  8
0TOC_DRE
 10
176146.67
 20
9127507.00
  0
VERTEX
  8
0TOC_DRE
 10
176264.78
 20
9127296.00
  0
VERTEX
  8
0TOC_DRE
 10
176280.58
 20
9127072.00
  0
VERTEX
  8
0TOC_DRE
 10
176268.00
 20
9126906.00
  0
VERTEX
  8
0TOC_DRE
 10
176332.95
 20
9126740.00
  0
VERTEX
  8
0TOC_DRE
 10
176395.88
 20
9126541.00
  0
VERTEX
  8
0TOC_DRE
 10
176441.61
 20
9126321.00
  0
VERTEX
  8
0TOC_DRE
 10
176469.64
 20
9126114.00
  0
VERTEX
  8
0TOC_DRE
 10
176509.75
 20
9125937.00
  0
VERTEX
  8
0TOC_DRE
 10
176507.23
 20
9125767.00
  0
VERTEX
  8
0TOC_DRE
 10
176474.47
 20
9125614.00
  0
VERTEX
  8
0TOC_DRE
 10
176447.95
 20
9125376.00
  0
VERTEX
  8
0TOC_DRE
 10
176404.02
 20
9125133.00
  0
VERTEX
  8
0TOC_DRE
 10
176324.41
 20
9124934.00
  0
VERTEX
  8
0TOC_DRE
 10
176195.98
 20
9124655.00
  0
VERTEX
  8
0TOC_DRE
 10
176030.88
 20
9124490.00
  0
VERTEX
  8
0TOC_DRE
 10
175898.69
 20
9124295.00
  0
VERTEX
  8
0TOC_DRE
 10
175749.09
 20
9124096.00
  0
VERTEX
  8
0TOC_DRE
 10
175543.69
 20
9123950.00
  0
VERTEX
  8
0TOC_DRE
 10
175406.89
 20
9123731.00
  0
VERTEX
  8
0TOC_DRE
 10
175237.06
 20
9123546.00
  0
VERTEX
  8
0TOC_DRE
 10
175078.94
 20
9123416.00
  0
VERTEX
  8
0TOC_DRE
 10
174969.75
 20
9123189.00
  0
VERTEX
  8
0TOC_DRE
 10
174890.14
 20
9122991.00
  0
VERTEX
  8
0TOC_DRE
 10
174803.16
 20
9122784.00
  0
VERTEX
  8
0TOC_DRE
 10
174688.61
 20
9122561.00
  0
SEQEND
  8
0TOC_DRE
  0
POLYLINE
  8
0TOC_DRE
 66
     1
  0
VERTEX
  8
0TOC_DRE
 10
174688.61
 20
9122561.00
  0
VERTEX
  8
0TOC_DRE
 10
174510.34
 20
9122290.00
  0
VERTEX
  8
0TOC_DRE
 10
174421.14
 20
9122064.00
  0
VERTEX
  8
0TOC_DRE
 10
174329.55
 20
9121830.00
  0
VERTEX
  8
0TOC_DRE
 10
174273.00
 20
9121594.00
  0
VERTEX
  8
0TOC_DRE
 10
174206.38
 20
9121363.00
  0
VERTEX
  8
0TOC_DRE
 10
174159.53
 20
9121147.00
  0
VERTEX
  8
0TOC_DRE
 10
174138.02
 20
9120909.00
  0
VERTEX
  8
0TOC_DRE
 10
174131.16
 20
9120694.00
  0
VERTEX
  8
0TOC_DRE
 10
174134.13
 20
9120492.00
  0
VERTEX
  8
0TOC_DRE
 10
174149.56
 20
9120292.00
  0
VERTEX
  8
0TOC_DRE
 10
174178.56
 20
9120020.00
  0
VERTEX
  8
0TOC_DRE
 10
174262.33
 20
9119763.00
  0
VERTEX
  8
0TOC_DRE
 10
174304.23
 20
9119634.00
  0
VERTEX
  8
0TOC_DRE
 10
174404.95
 20
9119415.00
  0
VERTEX
  8
0TOC_DRE
 10
174451.89
 20
9119283.00
  0
VERTEX
  8
0TOC_DRE
 10
174514.89
 20
9119079.00
  0
VERTEX
  8
0TOC_DRE
 10
174572.23
 20
9118920.00
  0
VERTEX
  8
0TOC_DRE
 10
174614.33
 20
9118778.00
  0
VERTEX
  8
0TOC_DRE
 10
174628.91
 20
9118636.00
  0
VERTEX
  8
0TOC_DRE
 10
174643.31
 20
9118506.00
  0
VERTEX
  8
0TOC_DRE
 10
174630.38
 20
9118366.00
  0
VERTEX
  8
0TOC_DRE
 10
174600.77
 20
9118168.00
  0
VERTEX
  8
0TOC_DRE
 10
174602.64
 20
9118040.00
  0
VERTEX
  8
0TOC_DRE
 10
174670.97
 20
9117814.00
  0
VERTEX
  8
0TOC_DRE
 10
174745.38
 20
9117685.00
  0
VERTEX
  8
0TOC_DRE
 10
174754.89
 20
9117547.00
  0
VERTEX
  8
0TOC_DRE
 10
174759.95
 20
9117372.00
  0
VERTEX
  8
0TOC_DRE
 10
174787.63
 20
9117190.00
  0
VERTEX
  8
0TOC_DRE
 10
174827.83
 20
9117006.00
  0
VERTEX
  8
0TOC_DRE
 10
174854.89
 20
9116866.00
  0
VERTEX
  8
0TOC_DRE
 10
174897.19
 20
9116709.00
  0
VERTEX
  8
0TOC_DRE
 10
174924.09
 20
9116579.00
  0
VERTEX
  8
0TOC_DRE
 10
174980.78
 20
9116295.00
  0
VERTEX
  8
0TOC_DRE
 10
175009.19
 20
9116063.00
  0
VERTEX
  8
0TOC_DRE
 10
175023.88
 20
9115913.00
  0
VERTEX
  8
0TOC_DRE
 10
175026.22
 20
9115753.00
  0
VERTEX
  8
0TOC_DRE
 10
175028.67
 20
9115585.00
  0
VERTEX
  8
0TOC_DRE
 10
175035.89
 20
9115408.00
  0
SEQEND
  8
0TOC_DRE
  0
POLYLINE
  8
0TOC_DRE
 66
     1
  0
VERTEX
  8
0TOC_DRE
 10
174520.34
 20
9115329.00
  0
VERTEX
  8
0TOC_DRE
 10
174477.19
 20
9115510.00
  0
VERTEX
  8
0TOC_DRE
 10
174453.86
 20
9115737.00
  0
VERTEX
  8
0TOC_DRE
 10
174430.38
 20
9115975.00
  0
VERTEX
  8
0TOC_DRE
 10
174416.53
 20
9116237.00
  0
VERTEX
  8
0TOC_DRE
 10
174407.75
 20
9116494.00
  0
VERTEX
  8
0TOC_DRE
 10
174344.89
 20
9116689.00
  0
VERTEX
  8
0TOC_DRE
 10
174243.30
 20
9116967.00
  0
VERTEX
  8
0TOC_DRE
 10
174114.86
 20
9117201.00
  0
VERTEX
  8
0TOC_DRE
 10
174041.16
 20
9117452.00
  0
VERTEX
  8
0TOC_DRE
 10
174014.14
 20
9117589.00
  0
VERTEX
  8
0TOC_DRE
 10
173996.03
 20
9117802.00
  0
VERTEX
  8
0TOC_DRE
 10
173978.47
 20
9117976.00
  0
VERTEX
  8
0TOC_DRE
 10
173961.02
 20
9118144.00
  0
VERTEX
  8
0TOC_DRE
 10
173902.86
 20
9118358.00
  0
VERTEX
  8
0TOC_DRE
 10
173845.33
 20
9118530.00
  0
VERTEX
  8
0TOC_DRE
 10
173805.75
 20
9118672.00
  0
VERTEX
  8
0TOC_DRE
 10
173772.89
 20
9118866.00
  0
VERTEX
  8
0TOC_DRE
 10
173713.48
 20
9118995.00
  0
VERTEX
  8
0TOC_DRE
 10
173659.08
 20
9119125.00
  0
VERTEX
  8
0TOC_DRE
 10
173591.52
 20
9119299.00
  0
VERTEX
  8
0TOC_DRE
 10
173551.42
 20
9119476.00
  0
VERTEX
  8
0TOC_DRE
 10
173533.23
 20
9119693.00
  0
VERTEX
  8
0TOC_DRE
 10
173515.08
 20
9119908.00
  0
VERTEX
  8
0TOC_DRE
 10
173502.22
 20
9120103.00
  0
VERTEX
  8
0TOC_DRE
 10
173494.03
 20
9120320.00
  0
VERTEX
  8
0TOC_DRE
 10
173492.17
 20
9120448.00
  0
VERTEX
  8
0TOC_DRE
 10
173488.36
 20
9120708.00
  0
VERTEX
  8
0TOC_DRE
 10
173512.70
 20
9120923.00
  0
VERTEX
  8
0TOC_DRE
 10
173571.09
 20
9121204.00
  0
VERTEX
  8
0TOC_DRE
 10
173634.75
 20
9121467.00
  0
VERTEX
  8
0TOC_DRE
 10
173668.33
 20
9121736.00
  0
VERTEX
  8
0TOC_DRE
 10
173678.52
 20
9121893.00
  0
VERTEX
  8
0TOC_DRE
 10
173760.00
 20
9122134.00
  0
VERTEX
  8
0TOC_DRE
 10
173800.38
 20
9122280.00
  0
VERTEX
  8
0TOC_DRE
 10
173872.73
 20
9122461.00
  0
VERTEX
  8
0TOC_DRE
 10
173964.94
 20
9122653.00
  0
VERTEX
  8
0TOC_DRE
 10
174005.53
 20
9122783.00
  0
VERTEX
  8
0TOC_DRE
 10
174082.81
 20
9122969.00
  0
VERTEX
  8
0TOC_DRE
 10
174193.41
 20
9123101.00
  0
VERTEX
  8
0TOC_DRE
 10
174302.17
 20
9123357.00
  0
VERTEX
  8
0TOC_DRE
 10
174538.13
 20
9123636.00
  0
VERTEX
  8
0TOC_DRE
 10
174737.91
 20
9123824.00
  0
VERTEX
  8
0TOC_DRE
 10
174878.13
 20
9123981.00
  0
VERTEX
  8
0TOC_DRE
 10
175066.52
 20
9124094.00
  0
VERTEX
  8
0TOC_DRE
 10
175212.58
 20
9124193.00
  0
VERTEX
  8
0TOC_DRE
 10
175298.06
 20
9124332.00
  0
VERTEX
  8
0TOC_DRE
 10
175442.14
 20
9124566.00
  0
VERTEX
  8
0TOC_DRE
 10
175596.34
 20
9124794.00
  0
VERTEX
  8
0TOC_DRE
 10
175706.23
 20
9124973.00
  0
VERTEX
  8
0TOC_DRE
 10
175786.94
 20
9125267.00
  0
VERTEX
  8
0TOC_DRE
 10
175824.92
 20
9125405.00
  0
VERTEX
  8
0TOC_DRE
 10
175872.70
 20
9125728.00
  0
VERTEX
  8
0TOC_DRE
 10
175882.27
 20
9125928.00
  0
VERTEX
  8
0TOC_DRE
 10
175880.00
 20
9126083.00
  0
VERTEX
  8
0TOC_DRE
 10
175889.89
 20
9126261.00
  0
VERTEX
  8
0TOC_DRE
 10
175900.13
 20
9126416.00
  0
VERTEX
  8
0TOC_DRE
 10
175893.06
 20
9126556.00
  0
VERTEX
  8
0TOC_DRE
 10
175886.09
 20
9126691.00
  0
VERTEX
  8
0TOC_DRE
 10
175868.08
 20
9126896.00
  0
VERTEX
  8
0TOC_DRE
 10
175841.17
 20
9127025.00
  0
VERTEX
  8
0TOC_DRE
 10
175795.20
 20
9127262.00
  0
VERTEX
  8
0TOC_DRE
 10
175778.00
 20
9127412.00
  0
VERTEX
  8
0TOC_DRE
 10
175750.41
 20
9127589.00
  0
VERTEX
  8
0TOC_DRE
 10
175738.23
 20
9127737.00
  0
VERTEX
  8
0TOC_DRE
 10
175731.33
 20
9127867.00
  0
VERTEX
  8
0TOC_DRE
 10
175688.81
 20
9128039.00
  0
VERTEX
  8
0TOC_DRE
 10
175671.58
 20
9128191.00
  0
VERTEX
  8
0TOC_DRE
 10
175669.56
 20
9128328.00
  0
VERTEX
  8
0TOC_DRE
 10
175694.05
 20
9128534.00
  0
VERTEX
  8
0TOC_DRE
 10
175753.17
 20
9128765.00
  0
VERTEX
  8
0TOC_DRE
 10
175838.08
 20
9128943.00
  0
VERTEX
  8
0TOC_DRE
 10
176036.31
 20
9129066.00
  0
VERTEX
  8
0TOC_DRE
 10
176182.48
 20
9129158.00
  0
VERTEX
  8
0TOC_DRE
 10
176332.56
 20
9129326.00
  0
VERTEX
  8
0TOC_DRE
 10
176496.48
 20
9129400.00
  0
VERTEX
  8
0TOC_DRE
 10
176647.95
 20
9129473.00
  0
VERTEX
  8
0TOC_DRE
 10
176832.95
 20
9129645.00
  0
VERTEX
  8
0TOC_DRE
 10
177061.16
 20
9129771.00
  0
VERTEX
  8
0TOC_DRE
 10
177193.28
 20
9129798.00
  0
VERTEX
  8
0TOC_DRE
 10
177354.61
 20
9129880.00
  0
VERTEX
  8
0TOC_DRE
 10
177563.56
 20
9129953.00
  0
VERTEX
  8
0TOC_DRE
 10
177722.50
 20
9130028.00
  0
VERTEX
  8
0TOC_DRE
 10
177935.25
 20
9130183.00
  0
VERTEX
  8
0TOC_DRE
 10
178111.55
 20
9130268.00
  0
VERTEX
  8
0TOC_DRE
 10
178236.19
 20
9130465.00
  0
VERTEX
  8
0TOC_DRE
 10
178340.78
 20
9130664.00
  0
VERTEX
  8
0TOC_DRE
 10
178469.47
 20
9130926.00
  0
VERTEX
  8
0TOC_DRE
 10
178570.94
 20
9131168.00
  0
VERTEX
  8
0TOC_DRE
 10
178646.88
 20
9131446.00
  0
VERTEX
  8
0TOC_DRE
 10
178702.06
 20
9131605.00
  0
VERTEX
  8
0TOC_DRE
 10
178754.94
 20
9131751.00
  0
VERTEX
  8
0TOC_DRE
 10
178816.92
 20
9131956.00
  0
VERTEX
  8
0TOC_DRE
 10
178814.95
 20
9132091.00
  0
VERTEX
  8
0TOC_DRE
 10
178837.72
 20
9132244.00
  0
VERTEX
  8
0TOC_DRE
 10
178884.38
 20
9132473.00
  0
VERTEX
  8
0TOC_DRE
 10
178922.55
 20
9132598.00
  0
VERTEX
  8
0TOC_DRE
 10
178967.63
 20
9132764.00
  0
VERTEX
  8
0TOC_DRE
 10
179021.31
 20
9133025.00
  0
VERTEX
  8
0TOC_DRE
 10
179080.66
 20
9133241.00
  0
VERTEX
  8
0TOC_DRE
 10
179137.20
 20
9133476.00
  0
VERTEX
  8
0TOC_DRE
 10
179173.36
 20
9133740.00
  0
VERTEX
  8
0TOC_DRE
 10
179195.31
 20
9133947.00
  0
VERTEX
  8
0TOC_DRE
 10
179217.61
 20
9134133.00
  0
VERTEX
  8
0TOC_DRE
 10
179204.59
 20
9134338.00
  0
VERTEX
  8
0TOC_DRE
 10
179176.64
 20
9134540.00
  0
VERTEX
  8
0TOC_DRE
 10
179158.52
 20
9134752.00
  0
VERTEX
  8
0TOC_DRE
 10
179155.48
 20
9134960.00
  0
VERTEX
  8
0TOC_DRE
 10
179131.73
 20
9135214.00
  0
VERTEX
  8
0TOC_DRE
 10
179119.06
 20
9135397.00
  0
VERTEX
  8
0TOC_DRE
 10
179129.25
 20
9135554.00
  0
VERTEX
  8
0TOC_DRE
 10
179179.83
 20
9135858.00
  0
VERTEX
  8
0TOC_DRE
 10
179234.97
 20
9136019.00
  0
VERTEX
  8
0TOC_DRE
 10
179321.23
 20
9136275.00
  0
VERTEX
  8
0TOC_DRE
 10
179371.28
 20
9136443.00
  0
VERTEX
  8
0TOC_DRE
 10
179496.31
 20
9136612.00
  0
VERTEX
  8
0TOC_DRE
 10
179588.56
 20
9136801.00
  0
VERTEX
  8
0TOC_DRE
 10
179701.11
 20
9136970.00
  0
VERTEX
  8
0TOC_DRE
 10
179809.16
 20
9137105.00
  0
VERTEX
  8
0TOC_DRE
 10
179972.55
 20
9137217.00
  0
VERTEX
  8
0TOC_DRE
 10
180100.56
 20
9137354.00
  0
VERTEX
  8
0TOC_DRE
 10
180221.00
 20
9137495.00
  0
VERTEX
  8
0TOC_DRE
 10
180355.41
 20
9137537.00
  0
VERTEX
  8
0TOC_DRE
 10
180487.53
 20
9137564.00
  0
VERTEX
  8
0TOC_DRE
 10
180631.14
 20
9137661.00
  0
VERTEX
  8
0TOC_DRE
 10
180910.31
 20
9137720.00
  0
VERTEX
  8
0TOC_DRE
 10
181084.22
 20
9137798.00
  0
VERTEX
  8
0TOC_DRE
 10
181245.13
 20
9137908.00
  0
VERTEX
  8
0TOC_DRE
 10
181483.84
 20
9137998.00
  0
VERTEX
  8
0TOC_DRE
 10
181672.55
 20
9138089.00
  0
VERTEX
  8
0TOC_DRE
 10
181814.28
 20
9138143.00
  0
VERTEX
  8
0TOC_DRE
 10
182008.42
 20
9138203.00
  0
VERTEX
  8
0TOC_DRE
 10
182174.45
 20
9138306.00
  0
VERTEX
  8
0TOC_DRE
 10
182342.39
 20
9138448.00
  0
VERTEX
  8
0TOC_DRE
 10
182508.61
 20
9138538.00
  0
VERTEX
  8
0TOC_DRE
 10
182662.03
 20
9138648.00
  0
VERTEX
  8
0TOC_DRE
 10
182900.05
 20
9138786.00
  0
VERTEX
  8
0TOC_DRE
 10
183179.73
 20
9138980.00
  0
VERTEX
  8
0TOC_DRE
 10
183343.42
 20
9139073.00
  0
VERTEX
  8
0TOC_DRE
 10
183569.70
 20
9139158.00
  0
VERTEX
  8
0TOC_DRE
 10
183713.67
 20
9139230.00
  0
VERTEX
  8
0TOC_DRE
 10
183882.70
 20
9139298.00
  0
VERTEX
  8
0TOC_DRE
 10
184049.39
 20
9139355.00
  0
VERTEX
  8
0TOC_DRE
 10
184190.94
 20
9139422.00
  0
VERTEX
  8
0TOC_DRE
 10
184414.50
 20
9139523.00
  0
VERTEX
  8
0TOC_DRE
 10
184588.91
 20
9139565.00
  0
VERTEX
  8
0TOC_DRE
 10
184755.48
 20
9139630.00
  0
VERTEX
  8
0TOC_DRE
 10
185009.70
 20
9139686.00
  0
VERTEX
  8
0TOC_DRE
 10
185174.05
 20
9139734.00
  0
VERTEX
  8
0TOC_DRE
 10
185435.80
 20
9139787.00
  0
VERTEX
  8
0TOC_DRE
 10
185577.52
 20
9139842.00
  0
VERTEX
  8
0TOC_DRE
 10
185784.03
 20
9139912.00
  0
VERTEX
  8
0TOC_DRE
 10
186040.16
 20
9140009.00
  0
VERTEX
  8
0TOC_DRE
 10
186174.56
 20
9140050.00
  0
VERTEX
  8
0TOC_DRE
 10
186351.30
 20
9140106.00
  0
VERTEX
  8
0TOC_DRE
 10
186512.91
 20
9140168.00
  0
VERTEX
  8
0TOC_DRE
 10
186719.52
 20
9140231.00
  0
VERTEX
  8
0TOC_DRE
 10
186983.16
 20
9140327.00
  0
VERTEX
  8
0TOC_DRE
 10
187169.58
 20
9140402.00
  0
VERTEX
  8
0TOC_DRE
 10
187437.41
 20
9140554.00
  0
VERTEX
  8
0TOC_DRE
 10
187583.98
 20
9140618.00
  0
VERTEX
  8
0TOC_DRE
 10
187715.53
 20
9140685.00
  0
VERTEX
  8
0TOC_DRE
 10
187922.00
 20
9140758.00
  0
VERTEX
  8
0TOC_DRE
 10
188108.31
 20
9140841.00
  0
VERTEX
  8
0TOC_DRE
 10
188279.86
 20
9140908.00
  0
VERTEX
  8
0TOC_DRE
 10
188431.95
 20
9140938.00
  0
VERTEX
  8
0TOC_DRE
 10
188583.42
 20
9141010.00
  0
VERTEX
  8
0TOC_DRE
 10
188712.39
 20
9141082.00
  0
VERTEX
  8
0TOC_DRE
 10
188946.09
 20
9141173.00
  0
VERTEX
  8
0TOC_DRE
 10
189157.27
 20
9141266.00
  0
VERTEX
  8
0TOC_DRE
 10
189371.20
 20
9141341.00
  0
VERTEX
  8
0TOC_DRE
 10
189530.39
 20
9141398.00
  0
VERTEX
  8
0TOC_DRE
 10
189691.70
 20
9141481.00
  0
VERTEX
  8
0TOC_DRE
 10
189830.67
 20
9141553.00
  0
VERTEX
  8
0TOC_DRE
 10
190094.09
 20
9141664.00
  0
VERTEX
  8
0TOC_DRE
 10
190395.41
 20
9141748.00
  0
VERTEX
  8
0TOC_DRE
 10
190589.27
 20
9141828.00
  0
VERTEX
  8
0TOC_DRE
 10
190748.31
 20
9141896.00
  0
VERTEX
  8
0TOC_DRE
 10
190933.30
 20
9141898.00
  0
VERTEX
  8
0TOC_DRE
 10
191113.11
 20
9141913.00
  0
VERTEX
  8
0TOC_DRE
 10
191280.61
 20
9141916.00
  0
VERTEX
  8
0TOC_DRE
 10
191450.02
 20
9141958.00
  0
VERTEX
  8
0TOC_DRE
 10
191686.47
 20
9142032.00
  0
VERTEX
  8
0TOC_DRE
 10
191841.06
 20
9142061.00
  0
VERTEX
  8
0TOC_DRE
 10
192045.47
 20
9142104.00
  0
VERTEX
  8
0TOC_DRE
 10
192294.14
 20
9142198.00
  0
VERTEX
  8
0TOC_DRE
 10
192470.53
 20
9142275.00
  0
VERTEX
  8
0TOC_DRE
 10
192629.09
 20
9142375.00
  0
VERTEX
  8
0TOC_DRE
 10
192807.00
 20
9142520.00
  0
VERTEX
  8
0TOC_DRE
 10
192959.25
 20
9142710.00
  0
VERTEX
  8
0TOC_DRE
 10
193108.92
 20
9142904.00
  0
VERTEX
  8
0TOC_DRE
 10
193190.98
 20
9143106.00
  0
VERTEX
  8
0TOC_DRE
 10
193314.16
 20
9143232.00
  0
VERTEX
  8
0TOC_DRE
 10
193436.80
 20
9143394.00
  0
VERTEX
  8
0TOC_DRE
 10
193519.67
 20
9143540.00
  0
VERTEX
  8
0TOC_DRE
 10
193612.47
 20
9143692.00
  0
VERTEX
  8
0TOC_DRE
 10
193852.03
 20
9143895.00
  0
VERTEX
  8
0TOC_DRE
 10
194063.83
 20
9144116.00
  0
VERTEX
  8
0TOC_DRE
 10
194189.75
 20
9144225.00
  0
VERTEX
  8
0TOC_DRE
 10
194407.84
 20
9144358.00
  0
VERTEX
  8
0TOC_DRE
 10
194536.48
 20
9144453.00
  0
VERTEX
  8
0TOC_DRE
 10
194750.92
 20
9144663.00
  0
VERTEX
  8
0TOC_DRE
 10
194927.06
 20
9144758.00
  0
VERTEX
  8
0TOC_DRE
 10
195147.80
 20
9144881.00
  0
VERTEX
  8
0TOC_DRE
 10
195409.02
 20
9144973.00
  0
VERTEX
  8
0TOC_DRE
 10
195582.31
 20
9145090.00
  0
VERTEX
  8
0TOC_DRE
 10
195757.94
 20
9145220.00
  0
VERTEX
  8
0TOC_DRE
 10
195921.77
 20
9145302.00
  0
VERTEX
  8
0TOC_DRE
 10
196107.23
 20
9145443.00
  0
VERTEX
  8
0TOC_DRE
 10
196233.70
 20
9145514.00
  0
VERTEX
  8
0TOC_DRE
 10
196439.55
 20
9145630.00
  0
VERTEX
  8
0TOC_DRE
 10
196605.25
 20
9145755.00
  0
VERTEX
  8
0TOC_DRE
 10
196795.61
 20
9145903.00
  0
VERTEX
  8
0TOC_DRE
 10
197009.08
 20
9146181.00
  0
VERTEX
  8
0TOC_DRE
 10
197245.38
 20
9146437.00
  0
VERTEX
  8
0TOC_DRE
 10
197470.25
 20
9146617.00
  0
VERTEX
  8
0TOC_DRE
 10
197643.31
 20
9146752.00
  0
VERTEX
  8
0TOC_DRE
 10
197962.64
 20
9146972.00
  0
VERTEX
  8
0TOC_DRE
 10
198149.08
 20
9147217.00
  0
VERTEX
  8
0TOC_DRE
 10
198302.80
 20
9147307.00
  0
VERTEX
  8
0TOC_DRE
 10
198615.14
 20
9147491.00
  0
VERTEX
  8
0TOC_DRE
 10
198852.94
 20
9147645.00
  0
VERTEX
  8
0TOC_DRE
 10
199122.78
 20
9147829.00
  0
VERTEX
  8
0TOC_DRE
 10
199323.67
 20
9147941.00
  0
VERTEX
  8
0TOC_DRE
 10
199466.95
 20
9148061.00
  0
VERTEX
  8
0TOC_DRE
 10
199726.14
 20
9148290.00
  0
VERTEX
  8
0TOC_DRE
 10
199909.95
 20
9148372.00
  0
VERTEX
  8
0TOC_DRE
 10
200090.69
 20
9148495.00
  0
VERTEX
  8
0TOC_DRE
 10
200398.03
 20
9148679.00
  0
VERTEX
  8
0TOC_DRE
 10
200551.70
 20
9148772.00
  0
VERTEX
  8
0TOC_DRE
 10
200742.95
 20
9148859.00
  0
VERTEX
  8
0TOC_DRE
 10
200956.89
 20
9148935.00
  0
VERTEX
  8
0TOC_DRE
 10
201217.55
 20
9149064.00
  0
VERTEX
  8
0TOC_DRE
 10
201371.27
 20
9149153.00
  0
VERTEX
  8
0TOC_DRE
 10
201504.78
 20
9149255.00
  0
VERTEX
  8
0TOC_DRE
 10
201724.95
 20
9149246.00
  0
VERTEX
  8
0TOC_DRE
 10
201855.03
 20
9149243.00
  0
VERTEX
  8
0TOC_DRE
 10
202086.61
 20
9149308.00
  0
VERTEX
  8
0TOC_DRE
 10
202357.84
 20
9149397.00
  0
VERTEX
  8
0TOC_DRE
 10
202504.03
 20
9149489.00
  0
VERTEX
  8
0TOC_DRE
 10
202695.34
 20
9149605.00
  0
SEQEND
  8
0TOC_DRE
  0
LINE
  8
0TOC_DRE
 10
174733.02
 20
9114527.00
 11
175050.48
 21
9114532.00
  0
POLYLINE
  8
0TOC_DRE
 66
     1
  0
VERTEX
  8
0TOC_DRE
 10
174733.02
 20
9114527.00
  0
VERTEX
  8
0TOC_DRE
 10
174638.92
 20
9114755.00
  0
VERTEX
  8
0TOC_DRE
 10
174592.56
 20
9114998.00
  0
VERTEX
  8
0TOC_DRE
 10
174520.34
 20
9115329.00
  0
SEQEND
  8
0TOC_DRE
  0
POLYLINE
  8
0TOC_DRE
 66
     1
  0
VERTEX
  8
0TOC_DRE
 10
175280.81
 20
9114519.00
  0
VERTEX
  8
0TOC_DRE
 10
175221.92
 20
9114731.00
  0
VERTEX
  8
0TOC_DRE
 10
175143.84
 20
9115011.00
  0
VERTEX
  8
0TOC_DRE
 10
175078.64
 20
9115260.00
  0
VERTEX
  8
0TOC_DRE
 10
175035.89
 20
9115408.00
  0
SEQEND
  8
0TOC_DRE
  0
LINE
  8
0TOC_DRE
 10
175280.81
 20
9114519.00
 11
175050.48
 21
9114532.00
  0
ENDSEC
  0
EOF
