  0
SECTION
  2
HEADER
  9
$EXTMIN
 10
162637.52           
 20
8446741.00          
  9
$EXTMAX
 10
509107.75           
 20
8677085.00          
  9
$LUPREC
 70
     7
  0
ENDSEC
  0
SECTION
  2
ENTITIES
  0
LINE
  8
0PAR_GRD
 10
174098.66
 20
8600000.00
 11
500000.00
 21
8600000.00
  0
LINE
  8
0PAR_GRD
 10
173871.36
 20
8620000.00
 11
500000.00
 21
8620000.00
  0
LINE
  8
0PAR_GRD
 10
173644.06
 20
8640000.00
 11
500000.00
 21
8640000.00
  0
LINE
  8
0PAR_GRD
 10
173416.77
 20
8660000.00
 11
500000.00
 21
8660000.00
  0
LINE
  8
0PAR_GRD
 10
174325.95
 20
8580000.00
 11
500000.00
 21
8580000.00
  0
LINE
  8
0PAR_GRD
 10
174553.25
 20
8560000.00
 11
500000.00
 21
8560000.00
  0
LINE
  8
0PAR_GRD
 10
174796.36
 20
8540000.00
 11
500000.00
 21
8540000.00
  0
LINE
  8
0PAR_GRD
 10
175285.73
 20
8500000.00
 11
500000.00
 21
8500000.00
  0
LINE
  8
0PAR_GRD
 10
175041.05
 20
8520000.00
 11
500000.00
 21
8520000.00
  0
LINE
  8
0PAR_GRD
 10
175530.42
 20
8480000.00
 11
500000.00
 21
8480000.00
  0
LINE
  8
0PAR_GRD
 10
175775.11
 20
8460000.00
 11
500000.00
 21
8460000.00
  0
LINE
  8
0PAR_GRD
 10
180000.00
 20
8450253.00
 11
180000.00
 21
8671717.00
  0
LINE
  8
0PAR_GRD
 10
200000.00
 20
8450440.00
 11
200000.00
 21
8671880.00
  0
LINE
  8
0PAR_GRD
 10
220000.00
 20
8450628.00
 11
220000.00
 21
8672044.00
  0
LINE
  8
0PAR_GRD
 10
240000.00
 20
8450816.00
 11
240000.00
 21
8672207.00
  0
LINE
  8
0PAR_GRD
 10
260000.00
 20
8451003.00
 11
260000.00
 21
8672371.00
  0
LINE
  8
0PAR_GRD
 10
340000.00
 20
8451754.00
 11
340000.00
 21
8673019.00
  0
LINE
  8
0PAR_GRD
 10
360000.00
 20
8451825.00
 11
360000.00
 21
8673072.00
  0
LINE
  8
0PAR_GRD
 10
380000.00
 20
8451888.00
 11
380000.00
 21
8673125.00
  0
LINE
  8
0PAR_GRD
 10
400000.00
 20
8451952.00
 11
400000.00
 21
8673178.00
  0
LINE
  8
0PAR_GRD
 10
420000.00
 20
8452015.00
 11
420000.00
 21
8673230.00
  0
LINE
  8
0PAR_GRD
 10
440000.00
 20
8452078.00
 11
440000.00
 21
8673283.00
  0
LINE
  8
0PAR_GRD
 10
460000.00
 20
8452142.00
 11
460000.00
 21
8673336.00
  0
LINE
  8
0PAR_GRD
 10
480000.00
 20
8452205.00
 11
480000.00
 21
8673389.00
  0
LINE
  8
0PAR_GRD
 10
500000.00
 20
8452268.00
 11
500000.00
 21
8673442.00
  0
LINE
  8
0PAR_GRD
 10
280000.00
 20
8451191.00
 11
280000.00
 21
8672534.00
  0
LINE
  8
0PAR_GRD
 10
300000.00
 20
8451379.00
 11
300000.00
 21
8672697.00
  0
LINE
  8
0PAR_GRD
 10
320000.00
 20
8451566.00
 11
320000.00
 21
8672861.00
  0
TEXT
  8
1PAR_GRD
 10
257842.06
 20
8674202.00
 40
1000.00
  1
  260
  0
TEXT
  8
1PAR_GRD
 10
258009.64
 20
8448520.00
 40
1000.00
  1
  260
  0
TEXT
  8
1PAR_GRD
 10
174631.11
 20
8672603.00
 40
1000.00
  1
00'
  0
TEXT
  8
1PAR_GRD
 10
168284.92
 20
8672603.00
 40
1000.00
  1
o 48
  0
TEXT
  8
1PAR_GRD
 10
176575.31
 20
8448520.00
 40
1000.00
  1
  180
  0
TEXT
  8
1PAR_GRD
 10
177419.42
 20
8446741.00
 40
1000.00
  1
00'
  0
TEXT
  8
1PAR_GRD
 10
166536.98
 20
8459389.00
 40
1000.00
  1
 8460
  0
TEXT
  8
1PAR_GRD
 10
167862.66
 20
8659559.00
 40
1000.00
  1
kmN
  0
TEXT
  8
1PAR_GRD
 10
167282.83
 20
8479504.00
 40
1000.00
  1
 8480
  0
TEXT
  8
1PAR_GRD
 10
167282.83
 20
8499504.00
 40
1000.00
  1
 8500
  0
TEXT
  8
1PAR_GRD
 10
167282.83
 20
8519504.00
 40
1000.00
  1
 8520
  0
TEXT
  8
1PAR_GRD
 10
167282.83
 20
8539504.00
 40
1000.00
  1
 8540
  0
TEXT
  8
1PAR_GRD
 10
167282.83
 20
8559504.00
 40
1000.00
  1
 8560
  0
TEXT
  8
1PAR_GRD
 10
167282.83
 20
8579504.00
 40
1000.00
  1
 8580
  0
TEXT
  8
1PAR_GRD
 10
167282.83
 20
8599504.00
 40
1000.00
  1
 8600
  0
TEXT
  8
1PAR_GRD
 10
167282.83
 20
8619504.00
 40
1000.00
  1
 8620
  0
TEXT
  8
1PAR_GRD
 10
167282.83
 20
8639504.00
 40
1000.00
  1
 8640
  0
TEXT
  8
1PAR_GRD
 10
168716.08
 20
8669136.00
 40
1000.00
  1
o
  0
TEXT
  8
1PAR_GRD
 10
162637.52
 20
8668543.00
 40
1000.00
  1
s -12
  0
TEXT
  8
1PAR_GRD
 10
163810.64
 20
8659504.00
 40
1000.00
  1
 8660
  0
TEXT
  8
1PAR_GRD
 10
164995.05
 20
8451149.00
 40
1000.00
  1
s -14
  0
TEXT
  8
1PAR_GRD
 10
172195.45
 20
8451088.00
 40
1000.00
  1
00'
  0
TEXT
  8
1PAR_GRD
 10
171110.08
 20
8446795.00
 40
1000.00
  1
o 48
  0
TEXT
  8
1PAR_GRD
 10
171045.25
 20
8459387.00
 40
1000.00
  1
kmN
  0
TEXT
  8
1PAR_GRD
 10
171165.16
 20
8451810.00
 40
1000.00
  1
o
  0
TEXT
  8
1PAR_GRD
 10
169803.30
 20
8668543.00
 40
1000.00
  1
00'
  0
TEXT
  8
1PAR_GRD
 10
176252.84
 20
8447440.00
 40
1000.00
  1
o
  0
TEXT
  8
1PAR_GRD
 10
218009.64
 20
8448520.00
 40
1000.00
  1
  220
  0
TEXT
  8
1PAR_GRD
 10
198009.64
 20
8448520.00
 40
1000.00
  1
  200
  0
TEXT
  8
1PAR_GRD
 10
180668.98
 20
8448547.00
 40
1000.00
  1
kmE
  0
TEXT
  8
1PAR_GRD
 10
238009.64
 20
8448520.00
 40
1000.00
  1
  240
  0
TEXT
  8
1PAR_GRD
 10
176768.81
 20
8674202.00
 40
1000.00
  1
  180
  0
TEXT
  8
1PAR_GRD
 10
173464.53
 20
8673303.00
 40
1000.00
  1
o
  0
TEXT
  8
1PAR_GRD
 10
217842.06
 20
8674202.00
 40
1000.00
  1
  220
  0
TEXT
  8
1PAR_GRD
 10
197842.06
 20
8674202.00
 40
1000.00
  1
  200
  0
TEXT
  8
1PAR_GRD
 10
181070.61
 20
8674189.00
 40
1000.00
  1
kmE
  0
TEXT
  8
1PAR_GRD
 10
237842.06
 20
8674202.00
 40
1000.00
  1
  240
  0
TEXT
  8
1PAR_GRD
 10
278009.66
 20
8448520.00
 40
1000.00
  1
  280
  0
TEXT
  8
1PAR_GRD
 10
298009.63
 20
8448520.00
 40
1000.00
  1
  300
  0
TEXT
  8
1PAR_GRD
 10
318009.63
 20
8448520.00
 40
1000.00
  1
  320
  0
TEXT
  8
1PAR_GRD
 10
338009.63
 20
8448520.00
 40
1000.00
  1
  340
  0
TEXT
  8
1PAR_GRD
 10
358009.63
 20
8448520.00
 40
1000.00
  1
  360
  0
TEXT
  8
1PAR_GRD
 10
378009.63
 20
8448520.00
 40
1000.00
  1
  380
  0
TEXT
  8
1PAR_GRD
 10
398009.63
 20
8448520.00
 40
1000.00
  1
  400
  0
TEXT
  8
1PAR_GRD
 10
418009.66
 20
8448520.00
 40
1000.00
  1
  420
  0
TEXT
  8
1PAR_GRD
 10
502513.16
 20
8459622.00
 40
1000.00
  1
 8460
  0
TEXT
  8
1PAR_GRD
 10
502513.16
 20
8479622.00
 40
1000.00
  1
 8480
  0
TEXT
  8
1PAR_GRD
 10
502513.16
 20
8499622.00
 40
1000.00
  1
 8500
  0
TEXT
  8
1PAR_GRD
 10
502513.16
 20
8519622.00
 40
1000.00
  1
 8520
  0
TEXT
  8
1PAR_GRD
 10
502513.16
 20
8539622.00
 40
1000.00
  1
 8540
  0
TEXT
  8
1PAR_GRD
 10
502513.16
 20
8559622.00
 40
1000.00
  1
 8560
  0
TEXT
  8
1PAR_GRD
 10
502513.16
 20
8579622.00
 40
1000.00
  1
 8580
  0
TEXT
  8
1PAR_GRD
 10
502513.16
 20
8599622.00
 40
1000.00
  1
 8600
  0
TEXT
  8
1PAR_GRD
 10
502513.16
 20
8619622.00
 40
1000.00
  1
 8620
  0
TEXT
  8
1PAR_GRD
 10
502513.16
 20
8639622.00
 40
1000.00
  1
 8640
  0
TEXT
  8
1PAR_GRD
 10
502513.16
 20
8659622.00
 40
1000.00
  1
 8660
  0
TEXT
  8
1PAR_GRD
 10
501783.50
 20
8453503.00
 40
1000.00
  1
s -14
  0
TEXT
  8
1PAR_GRD
 10
500974.91
 20
8670314.00
 40
1000.00
  1
s -12
  0
TEXT
  8
1PAR_GRD
 10
438009.66
 20
8448520.00
 40
1000.00
  1
  440
  0
TEXT
  8
1PAR_GRD
 10
458009.66
 20
8448520.00
 40
1000.00
  1
  460
  0
TEXT
  8
1PAR_GRD
 10
478009.66
 20
8448520.00
 40
1000.00
  1
  480
  0
TEXT
  8
1PAR_GRD
 10
498009.66
 20
8449291.00
 40
1000.00
  1
  500
  0
TEXT
  8
1PAR_GRD
 10
495111.78
 20
8447253.00
 40
1000.00
  1
o 45
  0
TEXT
  8
1PAR_GRD
 10
502317.97
 20
8449279.00
 40
1000.00
  1
kmE
  0
TEXT
  8
1PAR_GRD
 10
500291.38
 20
8447953.00
 40
1000.00
  1
o
  0
TEXT
  8
1PAR_GRD
 10
501457.97
 20
8447253.00
 40
1000.00
  1
00'
  0
TEXT
  8
1PAR_GRD
 10
509107.75
 20
8453567.00
 40
1000.00
  1
00'
  0
TEXT
  8
1PAR_GRD
 10
508437.75
 20
8670439.00
 40
1000.00
  1
00'
  0
TEXT
  8
1PAR_GRD
 10
506828.72
 20
8459615.00
 40
1000.00
  1
kmN
  0
TEXT
  8
1PAR_GRD
 10
507124.34
 20
8659602.00
 40
1000.00
  1
kmN
  0
TEXT
  8
1PAR_GRD
 10
507950.84
 20
8454173.00
 40
1000.00
  1
o
  0
TEXT
  8
1PAR_GRD
 10
507287.31
 20
8670957.00
 40
1000.00
  1
o
  0
TEXT
  8
1PAR_GRD
 10
277842.06
 20
8674202.00
 40
1000.00
  1
  280
  0
TEXT
  8
1PAR_GRD
 10
297842.06
 20
8674202.00
 40
1000.00
  1
  300
  0
TEXT
  8
1PAR_GRD
 10
317842.06
 20
8674202.00
 40
1000.00
  1
  320
  0
TEXT
  8
1PAR_GRD
 10
337842.06
 20
8674202.00
 40
1000.00
  1
  340
  0
TEXT
  8
1PAR_GRD
 10
357842.06
 20
8674202.00
 40
1000.00
  1
  360
  0
TEXT
  8
1PAR_GRD
 10
377842.06
 20
8674202.00
 40
1000.00
  1
  380
  0
TEXT
  8
1PAR_GRD
 10
397842.06
 20
8674202.00
 40
1000.00
  1
  400
  0
TEXT
  8
1PAR_GRD
 10
417842.06
 20
8674202.00
 40
1000.00
  1
  420
  0
TEXT
  8
1PAR_GRD
 10
437842.06
 20
8674202.00
 40
1000.00
  1
  440
  0
TEXT
  8
1PAR_GRD
 10
457842.06
 20
8674202.00
 40
1000.00
  1
  460
  0
TEXT
  8
1PAR_GRD
 10
477842.06
 20
8674202.00
 40
1000.00
  1
  480
  0
TEXT
  8
1PAR_GRD
 10
494308.94
 20
8676385.00
 40
1000.00
  1
o 45
  0
TEXT
  8
1PAR_GRD
 10
499488.56
 20
8677085.00
 40
1000.00
  1
o
  0
TEXT
  8
1PAR_GRD
 10
497842.06
 20
8674202.00
 40
1000.00
  1
  500
  0
TEXT
  8
1PAR_GRD
 10
501912.59
 20
8674189.00
 40
1000.00
  1
kmE
  0
TEXT
  8
1PAR_GRD
 10
500614.91
 20
8676538.00
 40
1000.00
  1
00'
  0
ENDSEC
  0
EOF
