  0
SECTION
  2
HEADER
  9
$EXTMIN
 10
488868.88           
 20
8666856.00          
  9
$EXTMAX
 10
836733.31           
 20
8898257.00          
  9
$LUPREC
 70
     7
  0
ENDSEC
  0
SECTION
  2
ENTITIES
  0
LINE
  8
0PAL_GRD
 10
500000.00
 20
8880000.00
 11
828804.94
 21
8880000.00
  0
LINE
  8
0PAL_GRD
 10
500000.00
 20
8860000.00
 11
828613.94
 21
8860000.00
  0
LINE
  8
0PAL_GRD
 10
500000.00
 20
8840000.00
 11
828422.88
 21
8840000.00
  0
LINE
  8
0PAL_GRD
 10
500000.00
 20
8820000.00
 11
828231.88
 21
8820000.00
  0
LINE
  8
0PAL_GRD
 10
500000.00
 20
8800000.00
 11
828040.88
 21
8800000.00
  0
LINE
  8
0PAL_GRD
 10
500000.00
 20
8780000.00
 11
827847.75
 21
8780000.00
  0
LINE
  8
0PAL_GRD
 10
500000.00
 20
8760000.00
 11
827638.75
 21
8760000.00
  0
LINE
  8
0PAL_GRD
 10
500000.00
 20
8740000.00
 11
827429.81
 21
8740000.00
  0
LINE
  8
0PAL_GRD
 10
500000.00
 20
8720000.00
 11
827220.81
 21
8720000.00
  0
LINE
  8
0PAL_GRD
 10
500000.00
 20
8700000.00
 11
827011.88
 21
8700000.00
  0
LINE
  8
0PAL_GRD
 10
500000.00
 20
8680000.00
 11
826802.88
 21
8680000.00
  0
LINE
  8
0PAL_GRD
 10
500000.00
 20
8680000.00
 11
500000.00
 21
8894584.00
  0
LINE
  8
0PAL_GRD
 10
520000.00
 20
8673387.00
 11
520000.00
 21
8894538.00
  0
LINE
  8
0PAL_GRD
 10
540000.00
 20
8673333.00
 11
540000.00
 21
8894493.00
  0
LINE
  8
0PAL_GRD
 10
560000.00
 20
8673278.00
 11
560000.00
 21
8894447.00
  0
LINE
  8
0PAL_GRD
 10
580000.00
 20
8673224.00
 11
580000.00
 21
8894402.00
  0
LINE
  8
0PAL_GRD
 10
600000.00
 20
8673170.00
 11
600000.00
 21
8894356.00
  0
LINE
  8
0PAL_GRD
 10
620000.00
 20
8673115.00
 11
620000.00
 21
8894311.00
  0
LINE
  8
0PAL_GRD
 10
640000.00
 20
8673061.00
 11
640000.00
 21
8894265.00
  0
LINE
  8
0PAL_GRD
 10
660000.00
 20
8673006.00
 11
660000.00
 21
8894220.00
  0
LINE
  8
0PAL_GRD
 10
680000.00
 20
8672861.00
 11
680000.00
 21
8894104.00
  0
LINE
  8
0PAL_GRD
 10
700000.00
 20
8672697.00
 11
700000.00
 21
8893967.00
  0
LINE
  8
0PAL_GRD
 10
720000.00
 20
8672534.00
 11
720000.00
 21
8893831.00
  0
LINE
  8
0PAL_GRD
 10
740000.00
 20
8672371.00
 11
740000.00
 21
8893694.00
  0
LINE
  8
0PAL_GRD
 10
760000.00
 20
8672207.00
 11
760000.00
 21
8893558.00
  0
LINE
  8
0PAL_GRD
 10
780000.00
 20
8672044.00
 11
780000.00
 21
8893421.00
  0
LINE
  8
0PAL_GRD
 10
800000.00
 20
8671881.00
 11
800000.00
 21
8893285.00
  0
LINE
  8
0PAL_GRD
 10
820000.00
 20
8671717.00
 11
820000.00
 21
8893148.00
  0
TEXT
  8
1PAL_GRD
 10
678022.06
 20
8895911.00
 40
1000.00
  1
6
  0
TEXT
  8
1PAL_GRD
 10
498306.47
 20
8859907.00
 40
1000.00
  1
60
  0
TEXT
  8
1PAL_GRD
 10
498306.47
 20
8839907.00
 40
1000.00
  1
40
  0
TEXT
  8
1PAL_GRD
 10
498306.47
 20
8819907.00
 40
1000.00
  1
20
  0
TEXT
  8
1PAL_GRD
 10
493526.81
 20
8680027.00
 40
1000.00
  1
86
  0
TEXT
  8
1PAL_GRD
 10
495331.28
 20
8699771.00
 40
1000.00
  1
87
  0
TEXT
  8
1PAL_GRD
 10
495331.28
 20
8719771.00
 40
1000.00
  1
87
  0
TEXT
  8
1PAL_GRD
 10
495331.28
 20
8739771.00
 40
1000.00
  1
87
  0
TEXT
  8
1PAL_GRD
 10
496071.44
 20
8759919.00
 40
1000.00
  1
87
  0
TEXT
  8
1PAL_GRD
 10
496071.44
 20
8779919.00
 40
1000.00
  1
87
  0
TEXT
  8
1PAL_GRD
 10
498353.56
 20
8668890.00
 40
1000.00
  1
5
  0
TEXT
  8
1PAL_GRD
 10
497932.28
 20
8779907.00
 40
1000.00
  1
80
  0
TEXT
  8
1PAL_GRD
 10
497932.28
 20
8759907.00
 40
1000.00
  1
60
  0
TEXT
  8
1PAL_GRD
 10
497192.13
 20
8739758.00
 40
1000.00
  1
40
  0
TEXT
  8
1PAL_GRD
 10
497192.13
 20
8719758.00
 40
1000.00
  1
20
  0
TEXT
  8
1PAL_GRD
 10
497192.13
 20
8699758.00
 40
1000.00
  1
00
  0
TEXT
  8
1PAL_GRD
 10
495111.28
 20
8680067.00
 40
1000.00
  1
80 KmN
  0
TEXT
  8
1PAL_GRD
 10
496197.25
 20
8799899.00
 40
1000.00
  1
88
  0
TEXT
  8
1PAL_GRD
 10
496571.44
 20
8819899.00
 40
1000.00
  1
88
  0
TEXT
  8
1PAL_GRD
 10
496571.44
 20
8839899.00
 40
1000.00
  1
88
  0
TEXT
  8
1PAL_GRD
 10
496571.44
 20
8859899.00
 40
1000.00
  1
88
  0
TEXT
  8
1PAL_GRD
 10
493764.97
 20
8879993.00
 40
1000.00
  1
88
  0
TEXT
  8
1PAL_GRD
 10
498121.47
 20
8898247.00
 40
1000.00
  1
5
  0
TEXT
  8
1PAL_GRD
 10
495500.00
 20
8880000.00
 40
1000.00
  1
80 KmN
  0
TEXT
  8
1PAL_GRD
 10
497932.28
 20
8799907.00
 40
1000.00
  1
00
  0
TEXT
  8
1PAL_GRD
 10
499500.00
 20
8668900.00
 40
1000.00
  1
00 KmE
  0
TEXT
  8
1PAL_GRD
 10
499267.94
 20
8898257.00
 40
1000.00
  1
00 KmE
  0
TEXT
  8
1PAL_GRD
 10
519979.66
 20
8669052.00
 40
1000.00
  1
5
  0
TEXT
  8
1PAL_GRD
 10
521126.09
 20
8669062.00
 40
1000.00
  1
20
  0
TEXT
  8
1PAL_GRD
 10
518121.47
 20
8896236.00
 40
1000.00
  1
5
  0
TEXT
  8
1PAL_GRD
 10
519267.94
 20
8896246.00
 40
1000.00
  1
20
  0
TEXT
  8
1PAL_GRD
 10
539979.63
 20
8669052.00
 40
1000.00
  1
5
  0
TEXT
  8
1PAL_GRD
 10
541126.06
 20
8669062.00
 40
1000.00
  1
40
  0
TEXT
  8
1PAL_GRD
 10
539267.94
 20
8896246.00
 40
1000.00
  1
40
  0
TEXT
  8
1PAL_GRD
 10
538121.50
 20
8896236.00
 40
1000.00
  1
5
  0
TEXT
  8
1PAL_GRD
 10
559979.63
 20
8669052.00
 40
1000.00
  1
5
  0
TEXT
  8
1PAL_GRD
 10
561126.06
 20
8669062.00
 40
1000.00
  1
60
  0
TEXT
  8
1PAL_GRD
 10
558121.50
 20
8896236.00
 40
1000.00
  1
5
  0
TEXT
  8
1PAL_GRD
 10
559267.94
 20
8896246.00
 40
1000.00
  1
60
  0
TEXT
  8
1PAL_GRD
 10
579979.63
 20
8669052.00
 40
1000.00
  1
5
  0
TEXT
  8
1PAL_GRD
 10
578121.50
 20
8896236.00
 40
1000.00
  1
5
  0
TEXT
  8
1PAL_GRD
 10
579267.94
 20
8896246.00
 40
1000.00
  1
80
  0
TEXT
  8
1PAL_GRD
 10
581126.06
 20
8669062.00
 40
1000.00
  1
80
  0
TEXT
  8
1PAL_GRD
 10
600112.25
 20
8669076.00
 40
1000.00
  1
6
  0
TEXT
  8
1PAL_GRD
 10
601126.06
 20
8669062.00
 40
1000.00
  1
00
  0
TEXT
  8
1PAL_GRD
 10
598022.06
 20
8896143.00
 40
1000.00
  1
6
  0
TEXT
  8
1PAL_GRD
 10
599035.88
 20
8896130.00
 40
1000.00
  1
00
  0
TEXT
  8
1PAL_GRD
 10
621126.06
 20
8669062.00
 40
1000.00
  1
20
  0
TEXT
  8
1PAL_GRD
 10
620112.25
 20
8669076.00
 40
1000.00
  1
6
  0
TEXT
  8
1PAL_GRD
 10
618022.06
 20
8896143.00
 40
1000.00
  1
6
  0
TEXT
  8
1PAL_GRD
 10
619035.88
 20
8896130.00
 40
1000.00
  1
20
  0
TEXT
  8
1PAL_GRD
 10
639299.25
 20
8669076.00
 40
1000.00
  1
6
  0
TEXT
  8
1PAL_GRD
 10
640313.06
 20
8669062.00
 40
1000.00
  1
40
  0
TEXT
  8
1PAL_GRD
 10
638022.06
 20
8896143.00
 40
1000.00
  1
6
  0
TEXT
  8
1PAL_GRD
 10
639035.88
 20
8896130.00
 40
1000.00
  1
40
  0
TEXT
  8
1PAL_GRD
 10
659299.25
 20
8669076.00
 40
1000.00
  1
6
  0
TEXT
  8
1PAL_GRD
 10
660313.06
 20
8669062.00
 40
1000.00
  1
60
  0
TEXT
  8
1PAL_GRD
 10
658022.06
 20
8896143.00
 40
1000.00
  1
6
  0
TEXT
  8
1PAL_GRD
 10
659035.88
 20
8896130.00
 40
1000.00
  1
60
  0
TEXT
  8
1PAL_GRD
 10
679299.25
 20
8669076.00
 40
1000.00
  1
6
  0
TEXT
  8
1PAL_GRD
 10
680313.06
 20
8669062.00
 40
1000.00
  1
80
  0
TEXT
  8
1PAL_GRD
 10
679035.88
 20
8895898.00
 40
1000.00
  1
80
  0
TEXT
  8
1PAL_GRD
 10
699408.56
 20
8669068.00
 40
1000.00
  1
7
  0
TEXT
  8
1PAL_GRD
 10
700313.06
 20
8669062.00
 40
1000.00
  1
00
  0
TEXT
  8
1PAL_GRD
 10
698131.38
 20
8895903.00
 40
1000.00
  1
7
  0
TEXT
  8
1PAL_GRD
 10
699035.88
 20
8895898.00
 40
1000.00
  1
00
  0
TEXT
  8
1PAL_GRD
 10
719408.56
 20
8669068.00
 40
1000.00
  1
7
  0
TEXT
  8
1PAL_GRD
 10
720313.06
 20
8669062.00
 40
1000.00
  1
20
  0
TEXT
  8
1PAL_GRD
 10
719035.88
 20
8895898.00
 40
1000.00
  1
20
  0
TEXT
  8
1PAL_GRD
 10
718131.38
 20
8895903.00
 40
1000.00
  1
7
  0
TEXT
  8
1PAL_GRD
 10
739408.56
 20
8669068.00
 40
1000.00
  1
7
  0
TEXT
  8
1PAL_GRD
 10
740313.06
 20
8669062.00
 40
1000.00
  1
40
  0
TEXT
  8
1PAL_GRD
 10
738131.38
 20
8895903.00
 40
1000.00
  1
7
  0
TEXT
  8
1PAL_GRD
 10
739035.88
 20
8895898.00
 40
1000.00
  1
40
  0
TEXT
  8
1PAL_GRD
 10
759662.63
 20
8669062.00
 40
1000.00
  1
60
  0
TEXT
  8
1PAL_GRD
 10
758758.13
 20
8669068.00
 40
1000.00
  1
7
  0
TEXT
  8
1PAL_GRD
 10
758943.69
 20
8895671.00
 40
1000.00
  1
7
  0
TEXT
  8
1PAL_GRD
 10
759848.13
 20
8895666.00
 40
1000.00
  1
60
  0
TEXT
  8
1PAL_GRD
 10
778758.13
 20
8669068.00
 40
1000.00
  1
7
  0
TEXT
  8
1PAL_GRD
 10
779662.63
 20
8669062.00
 40
1000.00
  1
80
  0
TEXT
  8
1PAL_GRD
 10
778943.69
 20
8895671.00
 40
1000.00
  1
7
  0
TEXT
  8
1PAL_GRD
 10
779848.13
 20
8895666.00
 40
1000.00
  1
80
  0
TEXT
  8
1PAL_GRD
 10
799662.63
 20
8669062.00
 40
1000.00
  1
00
  0
TEXT
  8
1PAL_GRD
 10
798492.06
 20
8669060.00
 40
1000.00
  1
8
  0
TEXT
  8
1PAL_GRD
 10
799848.13
 20
8895666.00
 40
1000.00
  1
00
  0
TEXT
  8
1PAL_GRD
 10
798677.56
 20
8895664.00
 40
1000.00
  1
8
  0
TEXT
  8
1PAL_GRD
 10
818633.75
 20
8666904.00
 40
1000.00
  1
8
  0
TEXT
  8
1PAL_GRD
 10
819592.44
 20
8666856.00
 40
1000.00
  1
20 KmE
  0
TEXT
  8
1PAL_GRD
 10
817981.38
 20
8895780.00
 40
1000.00
  1
8
  0
TEXT
  8
1PAL_GRD
 10
819151.88
 20
8895782.00
 40
1000.00
  1
20 KmE
  0
TEXT
  8
1PAL_GRD
 10
830943.50
 20
8679675.00
 40
1000.00
  1
80 KmN
  0
TEXT
  8
1PAL_GRD
 10
829122.69
 20
8679684.00
 40
1000.00
  1
86
  0
TEXT
  8
1PAL_GRD
 10
829082.63
 20
8699688.00
 40
1000.00
  1
87
  0
TEXT
  8
1PAL_GRD
 10
829082.63
 20
8719688.00
 40
1000.00
  1
87
  0
TEXT
  8
1PAL_GRD
 10
829082.63
 20
8739688.00
 40
1000.00
  1
87
  0
TEXT
  8
1PAL_GRD
 10
829245.25
 20
8760013.00
 40
1000.00
  1
87
  0
TEXT
  8
1PAL_GRD
 10
829245.25
 20
8780013.00
 40
1000.00
  1
87
  0
TEXT
  8
1PAL_GRD
 10
831106.13
 20
8780000.00
 40
1000.00
  1
80
  0
TEXT
  8
1PAL_GRD
 10
831106.13
 20
8760000.00
 40
1000.00
  1
60
  0
TEXT
  8
1PAL_GRD
 10
830943.50
 20
8739675.00
 40
1000.00
  1
40
  0
TEXT
  8
1PAL_GRD
 10
830943.50
 20
8719675.00
 40
1000.00
  1
20
  0
TEXT
  8
1PAL_GRD
 10
830943.50
 20
8699675.00
 40
1000.00
  1
00
  0
TEXT
  8
1PAL_GRD
 10
831431.31
 20
8880163.00
 40
1000.00
  1
80 KmN
  0
TEXT
  8
1PAL_GRD
 10
829371.06
 20
8799993.00
 40
1000.00
  1
88
  0
TEXT
  8
1PAL_GRD
 10
829371.06
 20
8819993.00
 40
1000.00
  1
88
  0
TEXT
  8
1PAL_GRD
 10
829696.31
 20
8840155.00
 40
1000.00
  1
88
  0
TEXT
  8
1PAL_GRD
 10
829696.31
 20
8860155.00
 40
1000.00
  1
88
  0
TEXT
  8
1PAL_GRD
 10
829696.31
 20
8880155.00
 40
1000.00
  1
88
  0
TEXT
  8
1PAL_GRD
 10
831431.31
 20
8860163.00
 40
1000.00
  1
60
  0
TEXT
  8
1PAL_GRD
 10
831431.31
 20
8840163.00
 40
1000.00
  1
40
  0
TEXT
  8
1PAL_GRD
 10
831106.13
 20
8820000.00
 40
1000.00
  1
20
  0
TEXT
  8
1PAL_GRD
 10
489054.38
 20
8673708.00
 40
1000.00
  1
s -12
  0
TEXT
  8
1PAL_GRD
 10
495378.06
 20
8674394.00
 40
1000.00
  1
o
  0
TEXT
  8
1PAL_GRD
 10
496498.25
 20
8673708.00
 40
1000.00
  1
00'
  0
TEXT
  8
1PAL_GRD
 10
496715.06
 20
8671756.00
 40
1000.00
  1
o 51
  0
TEXT
  8
1PAL_GRD
 10
501593.34
 20
8672262.00
 40
1000.00
  1
o
  0
TEXT
  8
1PAL_GRD
 10
502858.06
 20
8671611.00
 40
1000.00
  1
00'
  0
TEXT
  8
1PAL_GRD
 10
488868.88
 20
8893034.00
 40
1000.00
  1
s -10
  0
TEXT
  8
1PAL_GRD
 10
495161.59
 20
8893933.00
 40
1000.00
  1
o
  0
TEXT
  8
1PAL_GRD
 10
496451.41
 20
8892995.00
 40
1000.00
  1
00'
  0
TEXT
  8
1PAL_GRD
 10
498093.00
 20
8895302.00
 40
1000.00
  1
o 51
  0
TEXT
  8
1PAL_GRD
 10
502783.22
 20
8896045.00
 40
1000.00
  1
o
  0
TEXT
  8
1PAL_GRD
 10
503916.69
 20
8895185.00
 40
1000.00
  1
00'
  0
TEXT
  8
1PAL_GRD
 10
829361.75
 20
8891463.00
 40
1000.00
  1
s -10
  0
TEXT
  8
1PAL_GRD
 10
835579.94
 20
8892265.00
 40
1000.00
  1
o
  0
TEXT
  8
1PAL_GRD
 10
836733.31
 20
8891413.00
 40
1000.00
  1
00'
  0
TEXT
  8
1PAL_GRD
 10
822240.88
 20
8894071.00
 40
1000.00
  1
o 48
  0
TEXT
  8
1PAL_GRD
 10
827305.69
 20
8894974.00
 40
1000.00
  1
o
  0
TEXT
  8
1PAL_GRD
 10
828459.06
 20
8894021.00
 40
1000.00
  1
00'
  0
TEXT
  8
1PAL_GRD
 10
827453.75
 20
8672274.00
 40
1000.00
  1
s -12
  0
TEXT
  8
1PAL_GRD
 10
833637.31
 20
8673185.00
 40
1000.00
  1
o
  0
TEXT
  8
1PAL_GRD
 10
834643.94
 20
8672178.00
 40
1000.00
  1
00'
  0
TEXT
  8
1PAL_GRD
 10
819113.13
 20
8669781.00
 40
1000.00
  1
o 48
  0
TEXT
  8
1PAL_GRD
 10
824338.00
 20
8670452.00
 40
1000.00
  1
o
  0
TEXT
  8
1PAL_GRD
 10
825584.31
 20
8669685.00
 40
1000.00
  1
00'
  0
TEXT
  8
1PAL_GRD
 10
831024.38
 20
8799998.00
 40
1000.00
  1
00
  0
ENDSEC
  0
EOF
