  0
SECTION
  2
HEADER
  9
$EXTMIN
 10
493640.47           
 20
8890578.00          
  9
$EXTMAX
 10
833596.63           
 20
9119330.00          
  9
$LUPREC
 70
     7
  0
ENDSEC
  0
SECTION
  2
ENTITIES
  0
LINE
  8
0MIR_GRD
 10
500000.00
 20
8910000.00
 11
829076.25
 21
8910000.00
  0
LINE
  8
0MIR_GRD
 10
500000.00
 20
8930000.00
 11
829249.19
 21
8930000.00
  0
LINE
  8
0MIR_GRD
 10
500000.00
 20
8950000.00
 11
829422.19
 21
8950000.00
  0
LINE
  8
0MIR_GRD
 10
500000.00
 20
8970000.00
 11
829595.19
 21
8970000.00
  0
LINE
  8
0MIR_GRD
 10
500000.00
 20
8990000.00
 11
829768.19
 21
8990000.00
  0
LINE
  8
0MIR_GRD
 10
500000.00
 20
9110000.00
 11
830710.25
 21
9110000.00
  0
LINE
  8
0MIR_GRD
 10
500000.00
 20
9090000.00
 11
830555.31
 21
9090000.00
  0
LINE
  8
0MIR_GRD
 10
500000.00
 20
9070000.00
 11
830400.38
 21
9070000.00
  0
LINE
  8
0MIR_GRD
 10
500000.00
 20
9050000.00
 11
830245.44
 21
9050000.00
  0
LINE
  8
0MIR_GRD
 10
500000.00
 20
9030000.00
 11
830090.50
 21
9030000.00
  0
LINE
  8
0MIR_GRD
 10
500000.00
 20
9010000.00
 11
830000.00
 21
9010000.00
  0
LINE
  8
0MIR_GRD
 10
500000.00
 20
8894584.00
 11
500000.00
 21
9115699.00
  0
LINE
  8
0MIR_GRD
 10
520000.00
 20
8894538.00
 11
520000.00
 21
9115638.00
  0
LINE
  8
0MIR_GRD
 10
540000.00
 20
8894493.00
 11
540000.00
 21
9115578.00
  0
LINE
  8
0MIR_GRD
 10
560000.00
 20
8894447.00
 11
560000.00
 21
9115517.00
  0
LINE
  8
0MIR_GRD
 10
580000.00
 20
8894402.00
 11
580000.00
 21
9115456.00
  0
LINE
  8
0MIR_GRD
 10
600000.00
 20
8894356.00
 11
600000.00
 21
9115395.00
  0
LINE
  8
0MIR_GRD
 10
620000.00
 20
8894311.00
 11
620000.00
 21
9115329.00
  0
LINE
  8
0MIR_GRD
 10
640000.00
 20
8894265.00
 11
640000.00
 21
9115267.00
  0
LINE
  8
0MIR_GRD
 10
660000.00
 20
8894220.00
 11
660000.00
 21
9115205.00
  0
LINE
  8
0MIR_GRD
 10
680000.00
 20
8894104.00
 11
680000.00
 21
9115131.00
  0
LINE
  8
0MIR_GRD
 10
700000.00
 20
8893967.00
 11
700000.00
 21
9115047.00
  0
LINE
  8
0MIR_GRD
 10
720000.00
 20
8893831.00
 11
720000.00
 21
9114962.00
  0
LINE
  8
0MIR_GRD
 10
740000.00
 20
8893694.00
 11
740000.00
 21
9114877.00
  0
LINE
  8
0MIR_GRD
 10
760000.00
 20
8893558.00
 11
760000.00
 21
9114793.00
  0
LINE
  8
0MIR_GRD
 10
780000.00
 20
8893421.00
 11
780000.00
 21
9114708.00
  0
LINE
  8
0MIR_GRD
 10
800000.00
 20
8893285.00
 11
800000.00
 21
9114623.00
  0
LINE
  8
0MIR_GRD
 10
820000.00
 20
8893148.00
 11
820000.00
 21
9114539.00
  0
TEXT
  8
1MIR_GRD
 10
679060.81
 20
9117438.00
 40
1000.00
  1
80
  0
TEXT
  8
1MIR_GRD
 10
499263.56
 20
8893268.00
 40
1000.00
  1
51
  0
TEXT
  8
1MIR_GRD
 10
499674.16
 20
9116011.00
 40
1000.00
  1
51
  0
TEXT
  8
1MIR_GRD
 10
499500.00
 20
8890828.00
 40
1000.00
  1
00 KmE
  0
TEXT
  8
1MIR_GRD
 10
497814.50
 20
8894624.00
 40
1000.00
  1
00'
  0
TEXT
  8
1MIR_GRD
 10
497231.75
 20
8895158.00
 40
700.00
  1
o
  0
TEXT
  8
1MIR_GRD
 10
495036.97
 20
8894688.00
 40
1000.00
  1
-10
  0
TEXT
  8
1MIR_GRD
 10
493672.88
 20
8909943.00
 40
1000.00
  1
89
  0
TEXT
  8
1MIR_GRD
 10
493672.88
 20
8929943.00
 40
1000.00
  1
89
  0
TEXT
  8
1MIR_GRD
 10
493672.88
 20
8949943.00
 40
1000.00
  1
89
  0
TEXT
  8
1MIR_GRD
 10
493672.88
 20
8969943.00
 40
1000.00
  1
89
  0
TEXT
  8
1MIR_GRD
 10
493672.88
 20
8989943.00
 40
1000.00
  1
89
  0
TEXT
  8
1MIR_GRD
 10
494839.22
 20
8990000.00
 40
1000.00
  1
90
  0
TEXT
  8
1MIR_GRD
 10
493640.47
 20
9010003.00
 40
1000.00
  1
90
  0
TEXT
  8
1MIR_GRD
 10
498399.78
 20
8890816.00
 40
1000.00
  1
5
  0
TEXT
  8
1MIR_GRD
 10
495500.00
 20
9010000.00
 40
1000.00
  1
10
  0
TEXT
  8
1MIR_GRD
 10
495500.00
 20
8970000.00
 40
1000.00
  1
70
  0
TEXT
  8
1MIR_GRD
 10
495500.00
 20
8950000.00
 40
1000.00
  1
50
  0
TEXT
  8
1MIR_GRD
 10
495500.00
 20
8930000.00
 40
1000.00
  1
30
  0
TEXT
  8
1MIR_GRD
 10
495500.00
 20
8910000.00
 40
1000.00
  1
10 KmN
  0
TEXT
  8
1MIR_GRD
 10
493640.47
 20
9030003.00
 40
1000.00
  1
90
  0
TEXT
  8
1MIR_GRD
 10
493640.47
 20
9050003.00
 40
1000.00
  1
90
  0
TEXT
  8
1MIR_GRD
 10
493640.47
 20
9070003.00
 40
1000.00
  1
90
  0
TEXT
  8
1MIR_GRD
 10
494839.22
 20
9090000.00
 40
1000.00
  1
90
  0
TEXT
  8
1MIR_GRD
 10
493640.47
 20
9090003.00
 40
1000.00
  1
90
  0
TEXT
  8
1MIR_GRD
 10
494036.41
 20
9109906.00
 40
1000.00
  1
91
  0
TEXT
  8
1MIR_GRD
 10
498847.47
 20
9119319.00
 40
1000.00
  1
5
  0
TEXT
  8
1MIR_GRD
 10
497852.34
 20
9114740.00
 40
1000.00
  1
00'
  0
TEXT
  8
1MIR_GRD
 10
497352.19
 20
9115277.00
 40
700.00
  1
o
  0
TEXT
  8
1MIR_GRD
 10
495772.06
 20
9114729.00
 40
1000.00
  1
-8
  0
TEXT
  8
1MIR_GRD
 10
495386.34
 20
9109906.00
 40
1000.00
  1
10 KmN
  0
TEXT
  8
1MIR_GRD
 10
495500.00
 20
9070000.00
 40
1000.00
  1
70
  0
TEXT
  8
1MIR_GRD
 10
495500.00
 20
9050000.00
 40
1000.00
  1
50
  0
TEXT
  8
1MIR_GRD
 10
495500.00
 20
9030000.00
 40
1000.00
  1
30
  0
TEXT
  8
1MIR_GRD
 10
500671.88
 20
8893826.00
 40
700.00
  1
o
  0
TEXT
  8
1MIR_GRD
 10
501507.66
 20
8893256.00
 40
1000.00
  1
00'
  0
TEXT
  8
1MIR_GRD
 10
500949.97
 20
9116569.00
 40
700.00
  1
o
  0
TEXT
  8
1MIR_GRD
 10
501679.06
 20
9115999.00
 40
1000.00
  1
00'
  0
TEXT
  8
1MIR_GRD
 10
499947.69
 20
9119330.00
 40
1000.00
  1
00 KmE
  0
TEXT
  8
1MIR_GRD
 10
518399.78
 20
8890816.00
 40
1000.00
  1
5
  0
TEXT
  8
1MIR_GRD
 10
519500.00
 20
8890828.00
 40
1000.00
  1
20
  0
TEXT
  8
1MIR_GRD
 10
518985.41
 20
9117573.00
 40
1000.00
  1
5
  0
TEXT
  8
1MIR_GRD
 10
520085.63
 20
9117584.00
 40
1000.00
  1
20
  0
TEXT
  8
1MIR_GRD
 10
538399.75
 20
8890816.00
 40
1000.00
  1
5
  0
TEXT
  8
1MIR_GRD
 10
539500.00
 20
8890828.00
 40
1000.00
  1
40
  0
TEXT
  8
1MIR_GRD
 10
540085.63
 20
9117584.00
 40
1000.00
  1
40
  0
TEXT
  8
1MIR_GRD
 10
538985.38
 20
9117573.00
 40
1000.00
  1
5
  0
TEXT
  8
1MIR_GRD
 10
558399.75
 20
8890816.00
 40
1000.00
  1
5
  0
TEXT
  8
1MIR_GRD
 10
559500.00
 20
8890828.00
 40
1000.00
  1
60
  0
TEXT
  8
1MIR_GRD
 10
558985.38
 20
9117573.00
 40
1000.00
  1
5
  0
TEXT
  8
1MIR_GRD
 10
560085.63
 20
9117584.00
 40
1000.00
  1
60
  0
TEXT
  8
1MIR_GRD
 10
578818.94
 20
8890816.00
 40
1000.00
  1
5
  0
TEXT
  8
1MIR_GRD
 10
579919.19
 20
8890828.00
 40
1000.00
  1
80
  0
TEXT
  8
1MIR_GRD
 10
578985.38
 20
9117573.00
 40
1000.00
  1
5
  0
TEXT
  8
1MIR_GRD
 10
580085.63
 20
9117584.00
 40
1000.00
  1
80
  0
TEXT
  8
1MIR_GRD
 10
598750.75
 20
8890820.00
 40
1000.00
  1
6
  0
TEXT
  8
1MIR_GRD
 10
599919.19
 20
8890828.00
 40
1000.00
  1
00
  0
TEXT
  8
1MIR_GRD
 10
597892.38
 20
9117430.00
 40
1000.00
  1
6
  0
TEXT
  8
1MIR_GRD
 10
599060.81
 20
9117438.00
 40
1000.00
  1
00
  0
TEXT
  8
1MIR_GRD
 10
618750.75
 20
8890820.00
 40
1000.00
  1
6
  0
TEXT
  8
1MIR_GRD
 10
619919.19
 20
8890828.00
 40
1000.00
  1
20
  0
TEXT
  8
1MIR_GRD
 10
617892.38
 20
9117430.00
 40
1000.00
  1
6
  0
TEXT
  8
1MIR_GRD
 10
619060.81
 20
9117438.00
 40
1000.00
  1
20
  0
TEXT
  8
1MIR_GRD
 10
638750.75
 20
8890820.00
 40
1000.00
  1
6
  0
TEXT
  8
1MIR_GRD
 10
639919.19
 20
8890828.00
 40
1000.00
  1
40
  0
TEXT
  8
1MIR_GRD
 10
637892.38
 20
9117430.00
 40
1000.00
  1
6
  0
TEXT
  8
1MIR_GRD
 10
639060.81
 20
9117438.00
 40
1000.00
  1
40
  0
TEXT
  8
1MIR_GRD
 10
658750.75
 20
8890820.00
 40
1000.00
  1
6
  0
TEXT
  8
1MIR_GRD
 10
659919.19
 20
8890828.00
 40
1000.00
  1
60
  0
TEXT
  8
1MIR_GRD
 10
657892.38
 20
9117430.00
 40
1000.00
  1
6
  0
TEXT
  8
1MIR_GRD
 10
659060.81
 20
9117438.00
 40
1000.00
  1
60
  0
TEXT
  8
1MIR_GRD
 10
678226.81
 20
8890716.00
 40
1000.00
  1
6
  0
TEXT
  8
1MIR_GRD
 10
677892.38
 20
9117430.00
 40
1000.00
  1
6
  0
TEXT
  8
1MIR_GRD
 10
679395.19
 20
8890723.00
 40
1000.00
  1
80
  0
TEXT
  8
1MIR_GRD
 10
698334.69
 20
8890683.00
 40
1000.00
  1
7
  0
TEXT
  8
1MIR_GRD
 10
699395.19
 20
8890723.00
 40
1000.00
  1
00
  0
TEXT
  8
1MIR_GRD
 10
698877.63
 20
9117091.00
 40
1000.00
  1
7
  0
TEXT
  8
1MIR_GRD
 10
699938.19
 20
9117131.00
 40
1000.00
  1
00
  0
TEXT
  8
1MIR_GRD
 10
719395.19
 20
8890723.00
 40
1000.00
  1
20
  0
TEXT
  8
1MIR_GRD
 10
718334.69
 20
8890683.00
 40
1000.00
  1
7
  0
TEXT
  8
1MIR_GRD
 10
719938.19
 20
9117131.00
 40
1000.00
  1
20
  0
TEXT
  8
1MIR_GRD
 10
718877.63
 20
9117091.00
 40
1000.00
  1
7
  0
TEXT
  8
1MIR_GRD
 10
738334.69
 20
8890683.00
 40
1000.00
  1
7
  0
TEXT
  8
1MIR_GRD
 10
739395.19
 20
8890723.00
 40
1000.00
  1
40
  0
TEXT
  8
1MIR_GRD
 10
738877.63
 20
9117091.00
 40
1000.00
  1
7
  0
TEXT
  8
1MIR_GRD
 10
739938.19
 20
9117131.00
 40
1000.00
  1
40
  0
TEXT
  8
1MIR_GRD
 10
758544.25
 20
8890578.00
 40
1000.00
  1
7
  0
TEXT
  8
1MIR_GRD
 10
759604.81
 20
8890618.00
 40
1000.00
  1
60
  0
TEXT
  8
1MIR_GRD
 10
758877.63
 20
9117091.00
 40
1000.00
  1
7
  0
TEXT
  8
1MIR_GRD
 10
759938.19
 20
9117131.00
 40
1000.00
  1
60
  0
TEXT
  8
1MIR_GRD
 10
778544.25
 20
8890578.00
 40
1000.00
  1
7
  0
TEXT
  8
1MIR_GRD
 10
779604.81
 20
8890618.00
 40
1000.00
  1
80
  0
TEXT
  8
1MIR_GRD
 10
778877.63
 20
9117091.00
 40
1000.00
  1
7
  0
TEXT
  8
1MIR_GRD
 10
779938.19
 20
9117131.00
 40
1000.00
  1
80
  0
TEXT
  8
1MIR_GRD
 10
798425.69
 20
8890588.00
 40
1000.00
  1
8
  0
TEXT
  8
1MIR_GRD
 10
799604.81
 20
8890618.00
 40
1000.00
  1
00
  0
TEXT
  8
1MIR_GRD
 10
798759.06
 20
9117100.00
 40
1000.00
  1
8
  0
TEXT
  8
1MIR_GRD
 10
799938.19
 20
9117131.00
 40
1000.00
  1
00
  0
TEXT
  8
1MIR_GRD
 10
825772.75
 20
8891629.00
 40
1000.00
  1
48
  0
TEXT
  8
1MIR_GRD
 10
818425.69
 20
8890588.00
 40
1000.00
  1
8
  0
TEXT
  8
1MIR_GRD
 10
819604.81
 20
8890618.00
 40
1000.00
  1
20 KmE
  0
TEXT
  8
1MIR_GRD
 10
818320.88
 20
9116371.00
 40
1000.00
  1
8
  0
TEXT
  8
1MIR_GRD
 10
819500.00
 20
9116401.00
 40
1000.00
  1
20 KmE
  0
TEXT
  8
1MIR_GRD
 10
832000.00
 20
8910000.00
 40
1000.00
  1
10 KmN
  0
TEXT
  8
1MIR_GRD
 10
827325.63
 20
8892187.00
 40
700.00
  1
o
  0
TEXT
  8
1MIR_GRD
 10
828052.94
 20
8891653.00
 40
1000.00
  1
00'
  0
TEXT
  8
1MIR_GRD
 10
829623.38
 20
8893349.00
 40
1000.00
  1
-10
  0
TEXT
  8
1MIR_GRD
 10
831929.38
 20
8893876.00
 40
700.00
  1
o
  0
TEXT
  8
1MIR_GRD
 10
832440.25
 20
8893365.00
 40
1000.00
  1
00'
  0
TEXT
  8
1MIR_GRD
 10
830172.88
 20
8909943.00
 40
1000.00
  1
89
  0
TEXT
  8
1MIR_GRD
 10
830172.88
 20
8929943.00
 40
1000.00
  1
89
  0
TEXT
  8
1MIR_GRD
 10
830172.88
 20
8949943.00
 40
1000.00
  1
89
  0
TEXT
  8
1MIR_GRD
 10
830903.19
 20
8970089.00
 40
1000.00
  1
89
  0
TEXT
  8
1MIR_GRD
 10
830903.19
 20
8990089.00
 40
1000.00
  1
89
  0
TEXT
  8
1MIR_GRD
 10
832069.50
 20
8990146.00
 40
1000.00
  1
90
  0
TEXT
  8
1MIR_GRD
 10
830870.75
 20
9010149.00
 40
1000.00
  1
90
  0
TEXT
  8
1MIR_GRD
 10
832730.31
 20
9010146.00
 40
1000.00
  1
10
  0
TEXT
  8
1MIR_GRD
 10
832730.31
 20
8970146.00
 40
1000.00
  1
70
  0
TEXT
  8
1MIR_GRD
 10
832000.00
 20
8950000.00
 40
1000.00
  1
50
  0
TEXT
  8
1MIR_GRD
 10
832000.00
 20
8930000.00
 40
1000.00
  1
30
  0
TEXT
  8
1MIR_GRD
 10
833596.63
 20
9113349.00
 40
1000.00
  1
00'
  0
TEXT
  8
1MIR_GRD
 10
832730.31
 20
9109854.00
 40
1000.00
  1
10 KmN
  0
TEXT
  8
1MIR_GRD
 10
830870.75
 20
9030149.00
 40
1000.00
  1
90
  0
TEXT
  8
1MIR_GRD
 10
830870.75
 20
9049857.00
 40
1000.00
  1
90
  0
TEXT
  8
1MIR_GRD
 10
830870.75
 20
9069857.00
 40
1000.00
  1
90
  0
TEXT
  8
1MIR_GRD
 10
832736.63
 20
9089845.00
 40
1000.00
  1
90
  0
TEXT
  8
1MIR_GRD
 10
830870.75
 20
9089857.00
 40
1000.00
  1
90
  0
TEXT
  8
1MIR_GRD
 10
831149.00
 20
9109872.00
 40
1000.00
  1
91
  0
TEXT
  8
1MIR_GRD
 10
831403.63
 20
9113349.00
 40
1000.00
  1
-8
  0
TEXT
  8
1MIR_GRD
 10
832985.94
 20
9113884.00
 40
700.00
  1
o
  0
TEXT
  8
1MIR_GRD
 10
828494.19
 20
9115763.00
 40
700.00
  1
o
  0
TEXT
  8
1MIR_GRD
 10
826925.69
 20
9115206.00
 40
1000.00
  1
48
  0
TEXT
  8
1MIR_GRD
 10
829313.56
 20
9115159.00
 40
1000.00
  1
00'
  0
TEXT
  8
1MIR_GRD
 10
832730.31
 20
9069854.00
 40
1000.00
  1
70
  0
TEXT
  8
1MIR_GRD
 10
832730.31
 20
9049854.00
 40
1000.00
  1
50
  0
ENDSEC
  0
EOF
