  0
SECTION
  2
HEADER
  9
$EXTMIN
 10
762443.38           
 20
9335950.00          
  9
$EXTMAX
 10
832488.88           
 20
9418081.00          
  9
$LUPREC
 70
     7
  0
ENDSEC
  0
SECTION
  2
ENTITIES
  0
POLYLINE
  8
0MAR_ROD
 66
     1
  0
VERTEX
  8
0MAR_ROD
 10
762443.38
 20
9409685.00
  0
VERTEX
  8
0MAR_ROD
 10
762515.19
 20
9409614.00
  0
VERTEX
  8
0MAR_ROD
 10
763273.81
 20
9408846.00
  0
VERTEX
  8
0MAR_ROD
 10
763626.75
 20
9408623.00
  0
VERTEX
  8
0MAR_ROD
 10
763803.50
 20
9408474.00
  0
VERTEX
  8
0MAR_ROD
 10
763878.88
 20
9408450.00
  0
VERTEX
  8
0MAR_ROD
 10
764133.13
 20
9408028.00
  0
VERTEX
  8
0MAR_ROD
 10
764309.88
 20
9407879.00
  0
VERTEX
  8
0MAR_ROD
 10
764486.06
 20
9407805.00
  0
VERTEX
  8
0MAR_ROD
 10
764664.25
 20
9407482.00
  0
VERTEX
  8
0MAR_ROD
 10
764868.38
 20
9407060.00
  0
VERTEX
  8
0MAR_ROD
 10
765070.63
 20
9406862.00
  0
VERTEX
  8
0MAR_ROD
 10
765272.63
 20
9406688.00
  0
VERTEX
  8
0MAR_ROD
 10
765474.69
 20
9406515.00
  0
VERTEX
  8
0MAR_ROD
 10
765650.81
 20
9406441.00
  0
VERTEX
  8
0MAR_ROD
 10
765826.75
 20
9406391.00
  0
VERTEX
  8
0MAR_ROD
 10
766052.63
 20
9406367.00
  0
VERTEX
  8
0MAR_ROD
 10
766353.50
 20
9406368.00
  0
VERTEX
  8
0MAR_ROD
 10
766654.38
 20
9406369.00
  0
VERTEX
  8
0MAR_ROD
 10
766855.00
 20
9406369.00
  0
VERTEX
  8
0MAR_ROD
 10
767105.88
 20
9406345.00
  0
VERTEX
  8
0MAR_ROD
 10
767332.13
 20
9406271.00
  0
VERTEX
  8
0MAR_ROD
 10
767759.00
 20
9406198.00
  0
VERTEX
  8
0MAR_ROD
 10
768135.38
 20
9406174.00
  0
VERTEX
  8
0MAR_ROD
 10
768536.50
 20
9406175.00
  0
VERTEX
  8
0MAR_ROD
 10
769062.63
 20
9406226.00
  0
VERTEX
  8
0MAR_ROD
 10
769613.88
 20
9406277.00
  0
VERTEX
  8
0MAR_ROD
 10
769814.00
 20
9406327.00
  0
VERTEX
  8
0MAR_ROD
 10
770214.50
 20
9406403.00
  0
VERTEX
  8
0MAR_ROD
 10
770465.06
 20
9406429.00
  0
VERTEX
  8
0MAR_ROD
 10
770816.13
 20
9406429.00
  0
VERTEX
  8
0MAR_ROD
 10
771091.25
 20
9406505.00
  0
VERTEX
  8
0MAR_ROD
 10
771491.88
 20
9406580.00
  0
VERTEX
  8
0MAR_ROD
 10
771859.25
 20
9406581.00
  0
SEQEND
  8
0MAR_ROD
  0
POLYLINE
  8
0MAR_ROD
 66
     1
  0
VERTEX
  8
0MAR_ROD
 10
795302.69
 20
9413508.00
  0
VERTEX
  8
0MAR_ROD
 10
795354.50
 20
9413480.00
  0
VERTEX
  8
0MAR_ROD
 10
795605.63
 20
9413431.00
  0
VERTEX
  8
0MAR_ROD
 10
795931.81
 20
9413407.00
  0
VERTEX
  8
0MAR_ROD
 10
796307.94
 20
9413408.00
  0
VERTEX
  8
0MAR_ROD
 10
796508.50
 20
9413409.00
  0
VERTEX
  8
0MAR_ROD
 10
796583.75
 20
9413409.00
  0
VERTEX
  8
0MAR_ROD
 10
796809.38
 20
9413410.00
  0
VERTEX
  8
0MAR_ROD
 10
797010.00
 20
9413410.00
  0
VERTEX
  8
0MAR_ROD
 10
797160.88
 20
9413361.00
  0
VERTEX
  8
0MAR_ROD
 10
797562.19
 20
9413337.00
  0
VERTEX
  8
0MAR_ROD
 10
797812.94
 20
9413338.00
  0
VERTEX
  8
0MAR_ROD
 10
797963.38
 20
9413338.00
  0
VERTEX
  8
0MAR_ROD
 10
798138.88
 20
9413338.00
  0
VERTEX
  8
0MAR_ROD
 10
798189.00
 20
9413339.00
  0
VERTEX
  8
0MAR_ROD
 10
798389.63
 20
9413339.00
  0
VERTEX
  8
0MAR_ROD
 10
798590.19
 20
9413340.00
  0
VERTEX
  8
0MAR_ROD
 10
798916.13
 20
9413341.00
  0
VERTEX
  8
0MAR_ROD
 10
799116.75
 20
9413341.00
  0
VERTEX
  8
0MAR_ROD
 10
799292.44
 20
9413317.00
  0
VERTEX
  8
0MAR_ROD
 10
799367.88
 20
9413292.00
  0
VERTEX
  8
0MAR_ROD
 10
799543.38
 20
9413292.00
  0
VERTEX
  8
0MAR_ROD
 10
799869.38
 20
9413293.00
  0
VERTEX
  8
0MAR_ROD
 10
799919.50
 20
9413293.00
  0
VERTEX
  8
0MAR_ROD
 10
800120.06
 20
9413294.00
  0
VERTEX
  8
0MAR_ROD
 10
800447.69
 20
9413096.00
  0
VERTEX
  8
0MAR_ROD
 10
800699.88
 20
9412923.00
  0
VERTEX
  8
0MAR_ROD
 10
800901.88
 20
9412749.00
  0
VERTEX
  8
0MAR_ROD
 10
801129.00
 20
9412576.00
  0
VERTEX
  8
0MAR_ROD
 10
801280.75
 20
9412427.00
  0
VERTEX
  8
0MAR_ROD
 10
801457.63
 20
9412253.00
  0
VERTEX
  8
0MAR_ROD
 10
801609.13
 20
9412129.00
  0
VERTEX
  8
0MAR_ROD
 10
801785.06
 20
9412080.00
  0
VERTEX
  8
0MAR_ROD
 10
802262.50
 20
9411957.00
  0
VERTEX
  8
0MAR_ROD
 10
802514.50
 20
9411809.00
  0
VERTEX
  8
0MAR_ROD
 10
802690.00
 20
9411809.00
  0
VERTEX
  8
0MAR_ROD
 10
802865.50
 20
9411810.00
  0
VERTEX
  8
0MAR_ROD
 10
803041.00
 20
9411810.00
  0
VERTEX
  8
0MAR_ROD
 10
803265.19
 20
9411985.00
  0
VERTEX
  8
0MAR_ROD
 10
803489.19
 20
9412184.00
  0
VERTEX
  8
0MAR_ROD
 10
803689.81
 20
9412185.00
  0
VERTEX
  8
0MAR_ROD
 10
803890.38
 20
9412185.00
  0
VERTEX
  8
0MAR_ROD
 10
804091.75
 20
9412086.00
  0
VERTEX
  8
0MAR_ROD
 10
804267.69
 20
9412037.00
  0
VERTEX
  8
0MAR_ROD
 10
804493.75
 20
9411988.00
  0
VERTEX
  8
0MAR_ROD
 10
804669.75
 20
9411939.00
  0
VERTEX
  8
0MAR_ROD
 10
804920.88
 20
9411890.00
  0
VERTEX
  8
0MAR_ROD
 10
805121.50
 20
9411890.00
  0
VERTEX
  8
0MAR_ROD
 10
805297.00
 20
9411891.00
  0
VERTEX
  8
0MAR_ROD
 10
805723.25
 20
9411892.00
  0
VERTEX
  8
0MAR_ROD
 10
805948.88
 20
9411892.00
  0
VERTEX
  8
0MAR_ROD
 10
806124.13
 20
9411918.00
  0
VERTEX
  8
0MAR_ROD
 10
806449.75
 20
9411968.00
  0
VERTEX
  8
0MAR_ROD
 10
806700.44
 20
9411969.00
  0
VERTEX
  8
0MAR_ROD
 10
806901.00
 20
9411969.00
  0
VERTEX
  8
0MAR_ROD
 10
807101.38
 20
9411995.00
  0
VERTEX
  8
0MAR_ROD
 10
807301.56
 20
9412045.00
  0
VERTEX
  8
0MAR_ROD
 10
807520.25
 20
9412062.00
  0
SEQEND
  8
0MAR_ROD
  0
POLYLINE
  8
0MAR_ROD
 66
     1
  0
VERTEX
  8
0MAR_ROD
 10
772263.50
 20
9406721.00
  0
VERTEX
  8
0MAR_ROD
 10
772591.88
 20
9406956.00
  0
VERTEX
  8
0MAR_ROD
 10
773216.63
 20
9407206.00
  0
VERTEX
  8
0MAR_ROD
 10
773640.25
 20
9407531.00
  0
VERTEX
  8
0MAR_ROD
 10
774090.13
 20
9407706.00
  0
VERTEX
  8
0MAR_ROD
 10
774337.88
 20
9408055.00
  0
VERTEX
  8
0MAR_ROD
 10
774787.56
 20
9408255.00
  0
VERTEX
  8
0MAR_ROD
 10
775185.25
 20
9408678.00
  0
VERTEX
  8
0MAR_ROD
 10
775584.13
 20
9408953.00
  0
VERTEX
  8
0MAR_ROD
 10
775783.25
 20
9409128.00
  0
VERTEX
  8
0MAR_ROD
 10
775957.25
 20
9409302.00
  0
VERTEX
  8
0MAR_ROD
 10
776131.13
 20
9409501.00
  0
VERTEX
  8
0MAR_ROD
 10
776330.06
 20
9409701.00
  0
VERTEX
  8
0MAR_ROD
 10
776503.75
 20
9409925.00
  0
VERTEX
  8
0MAR_ROD
 10
776679.00
 20
9409950.00
  0
VERTEX
  8
0MAR_ROD
 10
776878.00
 20
9410150.00
  0
VERTEX
  8
0MAR_ROD
 10
777252.81
 20
9410300.00
  0
VERTEX
  8
0MAR_ROD
 10
777302.94
 20
9410300.00
  0
VERTEX
  8
0MAR_ROD
 10
777500.44
 20
9410673.00
  0
VERTEX
  8
0MAR_ROD
 10
777874.25
 20
9410948.00
  0
VERTEX
  8
0MAR_ROD
 10
778073.56
 20
9411098.00
  0
VERTEX
  8
0MAR_ROD
 10
778596.00
 20
9411596.00
  0
VERTEX
  8
0MAR_ROD
 10
778844.88
 20
9411821.00
  0
VERTEX
  8
0MAR_ROD
 10
779018.88
 20
9411995.00
  0
VERTEX
  8
0MAR_ROD
 10
779444.69
 20
9412046.00
  0
VERTEX
  8
0MAR_ROD
 10
779719.06
 20
9412221.00
  0
VERTEX
  8
0MAR_ROD
 10
780094.75
 20
9412271.00
  0
VERTEX
  8
0MAR_ROD
 10
780243.75
 20
9412446.00
  0
VERTEX
  8
0MAR_ROD
 10
780569.00
 20
9412521.00
  0
VERTEX
  8
0MAR_ROD
 10
780818.31
 20
9412696.00
  0
VERTEX
  8
0MAR_ROD
 10
781168.75
 20
9412771.00
  0
VERTEX
  8
0MAR_ROD
 10
781519.13
 20
9412847.00
  0
VERTEX
  8
0MAR_ROD
 10
781995.31
 20
9412873.00
  0
VERTEX
  8
0MAR_ROD
 10
782170.63
 20
9412898.00
  0
VERTEX
  8
0MAR_ROD
 10
782370.75
 20
9412949.00
  0
VERTEX
  8
0MAR_ROD
 10
782745.44
 20
9413124.00
  0
VERTEX
  8
0MAR_ROD
 10
782945.63
 20
9413174.00
  0
VERTEX
  8
0MAR_ROD
 10
783120.75
 20
9413224.00
  0
VERTEX
  8
0MAR_ROD
 10
783344.50
 20
9413448.00
  0
VERTEX
  8
0MAR_ROD
 10
783419.75
 20
9413449.00
  0
VERTEX
  8
0MAR_ROD
 10
783618.63
 20
9413648.00
  0
VERTEX
  8
0MAR_ROD
 10
783843.06
 20
9413798.00
  0
VERTEX
  8
0MAR_ROD
 10
783916.63
 20
9413997.00
  0
VERTEX
  8
0MAR_ROD
 10
783991.38
 20
9414047.00
  0
VERTEX
  8
0MAR_ROD
 10
784165.50
 20
9414221.00
  0
VERTEX
  8
0MAR_ROD
 10
784516.25
 20
9414247.00
  0
VERTEX
  8
0MAR_ROD
 10
784690.13
 20
9414446.00
  0
VERTEX
  8
0MAR_ROD
 10
784840.38
 20
9414472.00
  0
VERTEX
  8
0MAR_ROD
 10
789317.88
 20
9415751.00
  0
VERTEX
  8
0MAR_ROD
 10
789845.69
 20
9415604.00
  0
VERTEX
  8
0MAR_ROD
 10
790021.38
 20
9415579.00
  0
VERTEX
  8
0MAR_ROD
 10
790222.00
 20
9415580.00
  0
VERTEX
  8
0MAR_ROD
 10
790272.13
 20
9415580.00
  0
VERTEX
  8
0MAR_ROD
 10
790447.81
 20
9415556.00
  0
VERTEX
  8
0MAR_ROD
 10
790623.75
 20
9415506.00
  0
VERTEX
  8
0MAR_ROD
 10
791050.19
 20
9415483.00
  0
VERTEX
  8
0MAR_ROD
 10
791277.13
 20
9415334.00
  0
VERTEX
  8
0MAR_ROD
 10
791503.81
 20
9415210.00
  0
VERTEX
  8
0MAR_ROD
 10
791730.50
 20
9415087.00
  0
VERTEX
  8
0MAR_ROD
 10
791957.38
 20
9414938.00
  0
VERTEX
  8
0MAR_ROD
 10
792133.50
 20
9414864.00
  0
VERTEX
  8
0MAR_ROD
 10
792284.19
 20
9414839.00
  0
VERTEX
  8
0MAR_ROD
 10
792335.56
 20
9414690.00
  0
VERTEX
  8
0MAR_ROD
 10
792662.56
 20
9414567.00
  0
VERTEX
  8
0MAR_ROD
 10
793341.19
 20
9414370.00
  0
VERTEX
  8
0MAR_ROD
 10
793618.50
 20
9414197.00
  0
VERTEX
  8
0MAR_ROD
 10
793770.38
 20
9414023.00
  0
VERTEX
  8
0MAR_ROD
 10
793933.88
 20
9414003.00
  0
SEQEND
  8
0MAR_ROD
  0
POLYLINE
  8
0MAR_ROD
 66
     1
  0
VERTEX
  8
0MAR_ROD
 10
827817.63
 20
9381993.00
  0
VERTEX
  8
0MAR_ROD
 10
827686.50
 20
9381993.00
  0
VERTEX
  8
0MAR_ROD
 10
827410.75
 20
9381992.00
  0
VERTEX
  8
0MAR_ROD
 10
827134.94
 20
9381991.00
  0
VERTEX
  8
0MAR_ROD
 10
826783.88
 20
9381990.00
  0
VERTEX
  8
0MAR_ROD
 10
826583.50
 20
9381965.00
  0
VERTEX
  8
0MAR_ROD
 10
826283.69
 20
9381840.00
  0
VERTEX
  8
0MAR_ROD
 10
826033.56
 20
9381765.00
  0
VERTEX
  8
0MAR_ROD
 10
825884.19
 20
9381640.00
  0
VERTEX
  8
0MAR_ROD
 10
825585.38
 20
9381391.00
  0
VERTEX
  8
0MAR_ROD
 10
825336.06
 20
9381216.00
  0
VERTEX
  8
0MAR_ROD
 10
825161.81
 20
9381066.00
  0
VERTEX
  8
0MAR_ROD
 10
824814.13
 20
9380668.00
  0
VERTEX
  8
0MAR_ROD
 10
824663.88
 20
9380642.00
  0
VERTEX
  8
0MAR_ROD
 10
824538.50
 20
9380642.00
  0
VERTEX
  8
0MAR_ROD
 10
824389.38
 20
9380492.00
  0
VERTEX
  8
0MAR_ROD
 10
824089.88
 20
9380318.00
  0
VERTEX
  8
0MAR_ROD
 10
824015.31
 20
9380243.00
  0
VERTEX
  8
0MAR_ROD
 10
823991.69
 20
9380069.00
  0
SEQEND
  8
0MAR_ROD
  0
LINE
  8
0MAR_ROD
 10
832488.94
 20
9401018.00
 11
819878.88
 21
9407511.00
  0
POLYLINE
  8
0MAR_ROD
 66
     1
  0
VERTEX
  8
0MAR_ROD
 10
815434.50
 20
9366940.00
  0
VERTEX
  8
0MAR_ROD
 10
815376.63
 20
9366820.00
  0
VERTEX
  8
0MAR_ROD
 10
815303.00
 20
9366621.00
  0
VERTEX
  8
0MAR_ROD
 10
815229.69
 20
9366397.00
  0
VERTEX
  8
0MAR_ROD
 10
815232.19
 20
9366099.00
  0
VERTEX
  8
0MAR_ROD
 10
815235.75
 20
9365676.00
  0
VERTEX
  8
0MAR_ROD
 10
815238.88
 20
9365303.00
  0
VERTEX
  8
0MAR_ROD
 10
815241.50
 20
9364980.00
  0
VERTEX
  8
0MAR_ROD
 10
815222.25
 20
9364284.00
  0
VERTEX
  8
0MAR_ROD
 10
815200.13
 20
9363936.00
  0
VERTEX
  8
0MAR_ROD
 10
815200.75
 20
9363861.00
  0
VERTEX
  8
0MAR_ROD
 10
814929.88
 20
9363264.00
  0
VERTEX
  8
0MAR_ROD
 10
814756.88
 20
9362965.00
  0
VERTEX
  8
0MAR_ROD
 10
814631.94
 20
9362915.00
  0
VERTEX
  8
0MAR_ROD
 10
814261.44
 20
9362243.00
  0
VERTEX
  8
0MAR_ROD
 10
814086.31
 20
9362192.00
  0
VERTEX
  8
0MAR_ROD
 10
814036.81
 20
9362118.00
  0
VERTEX
  8
0MAR_ROD
 10
813813.63
 20
9361819.00
  0
VERTEX
  8
0MAR_ROD
 10
813640.38
 20
9361545.00
  0
VERTEX
  8
0MAR_ROD
 10
813492.63
 20
9361221.00
  0
VERTEX
  8
0MAR_ROD
 10
812971.50
 20
9360574.00
  0
VERTEX
  8
0MAR_ROD
 10
812748.75
 20
9360225.00
  0
VERTEX
  8
0MAR_ROD
 10
812577.81
 20
9359678.00
  0
VERTEX
  8
0MAR_ROD
 10
812357.75
 20
9359006.00
  0
VERTEX
  8
0MAR_ROD
 10
812285.06
 20
9358707.00
  0
VERTEX
  8
0MAR_ROD
 10
812113.25
 20
9358259.00
  0
VERTEX
  8
0MAR_ROD
 10
812040.38
 20
9357986.00
  0
VERTEX
  8
0MAR_ROD
 10
811966.75
 20
9357787.00
  0
VERTEX
  8
0MAR_ROD
 10
811843.69
 20
9357513.00
  0
VERTEX
  8
0MAR_ROD
 10
811795.25
 20
9357314.00
  0
VERTEX
  8
0MAR_ROD
 10
811745.63
 20
9357239.00
  0
VERTEX
  8
0MAR_ROD
 10
811746.25
 20
9357164.00
  0
VERTEX
  8
0MAR_ROD
 10
811747.75
 20
9356990.00
  0
VERTEX
  8
0MAR_ROD
 10
811748.75
 20
9356866.00
  0
VERTEX
  8
0MAR_ROD
 10
811826.50
 20
9356568.00
  0
VERTEX
  8
0MAR_ROD
 10
812030.00
 20
9356220.00
  0
VERTEX
  8
0MAR_ROD
 10
812081.13
 20
9356096.00
  0
VERTEX
  8
0MAR_ROD
 10
812257.88
 20
9355948.00
  0
VERTEX
  8
0MAR_ROD
 10
812308.50
 20
9355898.00
  0
VERTEX
  8
0MAR_ROD
 10
812384.50
 20
9355799.00
  0
VERTEX
  8
0MAR_ROD
 10
812560.50
 20
9355750.00
  0
VERTEX
  8
0MAR_ROD
 10
812612.06
 20
9355576.00
  0
VERTEX
  8
0MAR_ROD
 10
812763.75
 20
9355427.00
  0
VERTEX
  8
0MAR_ROD
 10
812915.25
 20
9355303.00
  0
VERTEX
  8
0MAR_ROD
 10
812966.81
 20
9355129.00
  0
VERTEX
  8
0MAR_ROD
 10
813118.88
 20
9354931.00
  0
VERTEX
  8
0MAR_ROD
 10
813120.13
 20
9354782.00
  0
VERTEX
  8
0MAR_ROD
 10
813296.13
 20
9354732.00
  0
VERTEX
  8
0MAR_ROD
 10
813347.50
 20
9354583.00
  0
VERTEX
  8
0MAR_ROD
 10
813425.19
 20
9354285.00
  0
VERTEX
  8
0MAR_ROD
 10
813426.63
 20
9354111.00
  0
VERTEX
  8
0MAR_ROD
 10
813579.13
 20
9353863.00
  0
VERTEX
  8
0MAR_ROD
 10
813632.19
 20
9353515.00
  0
VERTEX
  8
0MAR_ROD
 10
813683.63
 20
9353366.00
  0
VERTEX
  8
0MAR_ROD
 10
813763.13
 20
9352844.00
  0
VERTEX
  8
0MAR_ROD
 10
813813.50
 20
9352819.00
  0
VERTEX
  8
0MAR_ROD
 10
813866.38
 20
9352496.00
  0
VERTEX
  8
0MAR_ROD
 10
813892.69
 20
9352347.00
  0
VERTEX
  8
0MAR_ROD
 10
813893.75
 20
9352223.00
  0
VERTEX
  8
0MAR_ROD
 10
813896.88
 20
9351850.00
  0
VERTEX
  8
0MAR_ROD
 10
813898.25
 20
9351676.00
  0
VERTEX
  8
0MAR_ROD
 10
813948.88
 20
9351626.00
  0
VERTEX
  8
0MAR_ROD
 10
814025.25
 20
9351477.00
  0
VERTEX
  8
0MAR_ROD
 10
814101.38
 20
9351378.00
  0
VERTEX
  8
0MAR_ROD
 10
814151.75
 20
9351353.00
  0
VERTEX
  8
0MAR_ROD
 10
814227.13
 20
9351329.00
  0
VERTEX
  8
0MAR_ROD
 10
814305.50
 20
9350956.00
  0
VERTEX
  8
0MAR_ROD
 10
814382.56
 20
9350733.00
  0
VERTEX
  8
0MAR_ROD
 10
814460.50
 20
9350410.00
  0
VERTEX
  8
0MAR_ROD
 10
814463.25
 20
9350086.00
  0
VERTEX
  8
0MAR_ROD
 10
814643.88
 20
9349465.00
  0
VERTEX
  8
0MAR_ROD
 10
814697.50
 20
9349043.00
  0
VERTEX
  8
0MAR_ROD
 10
814699.00
 20
9348869.00
  0
VERTEX
  8
0MAR_ROD
 10
814704.00
 20
9348272.00
  0
VERTEX
  8
0MAR_ROD
 10
814706.00
 20
9348024.00
  0
VERTEX
  8
0MAR_ROD
 10
814707.88
 20
9347800.00
  0
VERTEX
  8
0MAR_ROD
 10
814662.13
 20
9347278.00
  0
VERTEX
  8
0MAR_ROD
 10
814640.63
 20
9346855.00
  0
VERTEX
  8
0MAR_ROD
 10
814617.00
 20
9346681.00
  0
VERTEX
  8
0MAR_ROD
 10
814586.25
 20
9346263.00
  0
SEQEND
  8
0MAR_ROD
  0
POLYLINE
  8
0MAR_ROD
 66
     1
  0
VERTEX
  8
0MAR_ROD
 10
813481.63
 20
9405462.00
  0
VERTEX
  8
0MAR_ROD
 10
813550.63
 20
9405349.00
  0
VERTEX
  8
0MAR_ROD
 10
813602.88
 20
9405101.00
  0
VERTEX
  8
0MAR_ROD
 10
813630.00
 20
9404852.00
  0
VERTEX
  8
0MAR_ROD
 10
813784.19
 20
9404405.00
  0
VERTEX
  8
0MAR_ROD
 10
813837.44
 20
9404032.00
  0
VERTEX
  8
0MAR_ROD
 10
813889.50
 20
9403809.00
  0
VERTEX
  8
0MAR_ROD
 10
813890.88
 20
9403635.00
  0
VERTEX
  8
0MAR_ROD
 10
813895.88
 20
9403038.00
  0
VERTEX
  8
0MAR_ROD
 10
814122.56
 20
9402914.00
  0
VERTEX
  8
0MAR_ROD
 10
814175.63
 20
9402567.00
  0
VERTEX
  8
0MAR_ROD
 10
814353.44
 20
9402293.00
  0
VERTEX
  8
0MAR_ROD
 10
814406.06
 20
9401995.00
  0
VERTEX
  8
0MAR_ROD
 10
814407.31
 20
9401846.00
  0
VERTEX
  8
0MAR_ROD
 10
814585.31
 20
9401548.00
  0
VERTEX
  8
0MAR_ROD
 10
814738.00
 20
9401275.00
  0
VERTEX
  8
0MAR_ROD
 10
814765.63
 20
9400977.00
  0
VERTEX
  8
0MAR_ROD
 10
814767.63
 20
9400728.00
  0
VERTEX
  8
0MAR_ROD
 10
814945.69
 20
9400431.00
  0
VERTEX
  8
0MAR_ROD
 10
815124.75
 20
9400008.00
  0
VERTEX
  8
0MAR_ROD
 10
815154.38
 20
9399462.00
  0
VERTEX
  8
0MAR_ROD
 10
815308.31
 20
9399039.00
  0
VERTEX
  8
0MAR_ROD
 10
815487.13
 20
9398642.00
  0
VERTEX
  8
0MAR_ROD
 10
815640.69
 20
9398269.00
  0
VERTEX
  8
0MAR_ROD
 10
815667.25
 20
9398096.00
  0
VERTEX
  8
0MAR_ROD
 10
815818.88
 20
9397947.00
  0
VERTEX
  8
0MAR_ROD
 10
815869.50
 20
9397897.00
  0
VERTEX
  8
0MAR_ROD
 10
815921.25
 20
9397698.00
  0
VERTEX
  8
0MAR_ROD
 10
815948.63
 20
9397425.00
  0
VERTEX
  8
0MAR_ROD
 10
816126.88
 20
9397102.00
  0
VERTEX
  8
0MAR_ROD
 10
816279.38
 20
9396854.00
  0
VERTEX
  8
0MAR_ROD
 10
816431.88
 20
9396606.00
  0
VERTEX
  8
0MAR_ROD
 10
816584.38
 20
9396358.00
  0
VERTEX
  8
0MAR_ROD
 10
816763.63
 20
9395911.00
  0
VERTEX
  8
0MAR_ROD
 10
817118.63
 20
9395439.00
  0
VERTEX
  8
0MAR_ROD
 10
817270.69
 20
9395241.00
  0
VERTEX
  8
0MAR_ROD
 10
817422.38
 20
9395092.00
  0
VERTEX
  8
0MAR_ROD
 10
817677.25
 20
9394595.00
  0
VERTEX
  8
0MAR_ROD
 10
818032.88
 20
9394049.00
  0
VERTEX
  8
0MAR_ROD
 10
818540.50
 20
9393305.00
  0
VERTEX
  8
0MAR_ROD
 10
818717.88
 20
9393082.00
  0
VERTEX
  8
0MAR_ROD
 10
818719.13
 20
9392933.00
  0
VERTEX
  8
0MAR_ROD
 10
818900.50
 20
9392237.00
  0
VERTEX
  8
0MAR_ROD
 10
819055.06
 20
9391740.00
  0
VERTEX
  8
0MAR_ROD
 10
819231.81
 20
9391591.00
  0
VERTEX
  8
0MAR_ROD
 10
819307.44
 20
9391542.00
  0
VERTEX
  8
0MAR_ROD
 10
819358.88
 20
9391393.00
  0
VERTEX
  8
0MAR_ROD
 10
819434.50
 20
9391343.00
  0
VERTEX
  8
0MAR_ROD
 10
819461.00
 20
9391169.00
  0
VERTEX
  8
0MAR_ROD
 10
819639.44
 20
9390822.00
  0
VERTEX
  8
0MAR_ROD
 10
819791.75
 20
9390599.00
  0
VERTEX
  8
0MAR_ROD
 10
819843.13
 20
9390449.00
  0
VERTEX
  8
0MAR_ROD
 10
819870.50
 20
9390176.00
  0
VERTEX
  8
0MAR_ROD
 10
820046.38
 20
9390127.00
  0
VERTEX
  8
0MAR_ROD
 10
820275.19
 20
9389755.00
  0
VERTEX
  8
0MAR_ROD
 10
820680.69
 20
9389234.00
  0
VERTEX
  8
0MAR_ROD
 10
820883.56
 20
9388961.00
  0
VERTEX
  8
0MAR_ROD
 10
821036.31
 20
9388688.00
  0
VERTEX
  8
0MAR_ROD
 10
821262.13
 20
9388663.00
  0
VERTEX
  8
0MAR_ROD
 10
821464.00
 20
9388515.00
  0
VERTEX
  8
0MAR_ROD
 10
821515.38
 20
9388366.00
  0
VERTEX
  8
0MAR_ROD
 10
821718.00
 20
9388118.00
  0
VERTEX
  8
0MAR_ROD
 10
821895.38
 20
9387894.00
  0
VERTEX
  8
0MAR_ROD
 10
822047.31
 20
9387721.00
  0
VERTEX
  8
0MAR_ROD
 10
822073.88
 20
9387547.00
  0
VERTEX
  8
0MAR_ROD
 10
822450.56
 20
9387473.00
  0
VERTEX
  8
0MAR_ROD
 10
822451.75
 20
9387324.00
  0
VERTEX
  8
0MAR_ROD
 10
822627.25
 20
9387324.00
  0
VERTEX
  8
0MAR_ROD
 10
822653.63
 20
9387175.00
  0
VERTEX
  8
0MAR_ROD
 10
822855.44
 20
9387027.00
  0
VERTEX
  8
0MAR_ROD
 10
823035.94
 20
9386431.00
  0
VERTEX
  8
0MAR_ROD
 10
823264.50
 20
9386083.00
  0
VERTEX
  8
0MAR_ROD
 10
823317.56
 20
9385735.00
  0
VERTEX
  8
0MAR_ROD
 10
823371.25
 20
9385313.00
  0
VERTEX
  8
0MAR_ROD
 10
823425.50
 20
9384816.00
  0
VERTEX
  8
0MAR_ROD
 10
823607.25
 20
9384070.00
  0
VERTEX
  8
0MAR_ROD
 10
823633.75
 20
9383896.00
  0
VERTEX
  8
0MAR_ROD
 10
823686.38
 20
9383598.00
  0
VERTEX
  8
0MAR_ROD
 10
823688.06
 20
9383399.00
  0
VERTEX
  8
0MAR_ROD
 10
823865.88
 20
9383126.00
  0
VERTEX
  8
0MAR_ROD
 10
823921.00
 20
9382530.00
  0
VERTEX
  8
0MAR_ROD
 10
823947.25
 20
9382381.00
  0
VERTEX
  8
0MAR_ROD
 10
823948.56
 20
9382231.00
  0
VERTEX
  8
0MAR_ROD
 10
823951.50
 20
9381883.00
  0
VERTEX
  8
0MAR_ROD
 10
823954.13
 20
9381560.00
  0
VERTEX
  8
0MAR_ROD
 10
823956.63
 20
9381262.00
  0
VERTEX
  8
0MAR_ROD
 10
823957.88
 20
9381113.00
  0
VERTEX
  8
0MAR_ROD
 10
823961.63
 20
9380665.00
  0
VERTEX
  8
0MAR_ROD
 10
823963.88
 20
9380392.00
  0
VERTEX
  8
0MAR_ROD
 10
823966.63
 20
9380069.00
  0
VERTEX
  8
0MAR_ROD
 10
823972.81
 20
9379323.00
  0
VERTEX
  8
0MAR_ROD
 10
823974.06
 20
9379174.00
  0
VERTEX
  8
0MAR_ROD
 10
823975.13
 20
9379049.00
  0
VERTEX
  8
0MAR_ROD
 10
823826.13
 20
9378875.00
  0
VERTEX
  8
0MAR_ROD
 10
823578.94
 20
9378452.00
  0
VERTEX
  8
0MAR_ROD
 10
823106.25
 20
9378003.00
  0
VERTEX
  8
0MAR_ROD
 10
822906.38
 20
9377928.00
  0
VERTEX
  8
0MAR_ROD
 10
822582.00
 20
9377728.00
  0
VERTEX
  8
0MAR_ROD
 10
822134.25
 20
9377304.00
  0
VERTEX
  8
0MAR_ROD
 10
821958.88
 20
9377279.00
  0
VERTEX
  8
0MAR_ROD
 10
821660.50
 20
9376980.00
  0
VERTEX
  8
0MAR_ROD
 10
821211.88
 20
9376655.00
  0
VERTEX
  8
0MAR_ROD
 10
821087.75
 20
9376506.00
  0
VERTEX
  8
0MAR_ROD
 10
820887.44
 20
9376481.00
  0
VERTEX
  8
0MAR_ROD
 10
820714.38
 20
9376182.00
  0
VERTEX
  8
0MAR_ROD
 10
820440.63
 20
9375932.00
  0
VERTEX
  8
0MAR_ROD
 10
820317.75
 20
9375634.00
  0
VERTEX
  8
0MAR_ROD
 10
820069.56
 20
9375335.00
  0
VERTEX
  8
0MAR_ROD
 10
819898.81
 20
9374763.00
  0
VERTEX
  8
0MAR_ROD
 10
819788.75
 20
9374634.00
  0
SEQEND
  8
0MAR_ROD
  0
LINE
  8
0MAR_ROD
 10
818565.69
 20
9408187.00
 11
810669.50
 21
9412244.00
  0
POLYLINE
  8
0MAR_ROD
 66
     1
  0
VERTEX
  8
0MAR_ROD
 10
807938.25
 20
9412108.00
  0
VERTEX
  8
0MAR_ROD
 10
808053.13
 20
9412122.00
  0
VERTEX
  8
0MAR_ROD
 10
808253.50
 20
9412147.00
  0
VERTEX
  8
0MAR_ROD
 10
808654.25
 20
9412198.00
  0
VERTEX
  8
0MAR_ROD
 10
808829.81
 20
9412198.00
  0
VERTEX
  8
0MAR_ROD
 10
809080.50
 20
9412199.00
  0
VERTEX
  8
0MAR_ROD
 10
809281.13
 20
9412199.00
  0
VERTEX
  8
0MAR_ROD
 10
809431.56
 20
9412200.00
  0
VERTEX
  8
0MAR_ROD
 10
809481.69
 20
9412200.00
  0
VERTEX
  8
0MAR_ROD
 10
809657.19
 20
9412201.00
  0
VERTEX
  8
0MAR_ROD
 10
809832.75
 20
9412201.00
  0
VERTEX
  8
0MAR_ROD
 10
809882.88
 20
9412201.00
  0
VERTEX
  8
0MAR_ROD
 10
810083.00
 20
9412251.00
  0
VERTEX
  8
0MAR_ROD
 10
810258.50
 20
9412252.00
  0
VERTEX
  8
0MAR_ROD
 10
810669.50
 20
9412244.00
  0
SEQEND
  8
0MAR_ROD
  0
POLYLINE
  8
0MAR_ROD
 66
     1
  0
VERTEX
  8
0MAR_ROD
 10
810059.88
 20
9418081.00
  0
VERTEX
  8
0MAR_ROD
 10
810063.50
 20
9417596.00
  0
VERTEX
  8
0MAR_ROD
 10
810064.94
 20
9417422.00
  0
VERTEX
  8
0MAR_ROD
 10
810066.00
 20
9417298.00
  0
VERTEX
  8
0MAR_ROD
 10
810067.63
 20
9417099.00
  0
VERTEX
  8
0MAR_ROD
 10
810094.13
 20
9416925.00
  0
VERTEX
  8
0MAR_ROD
 10
810097.06
 20
9416577.00
  0
VERTEX
  8
0MAR_ROD
 10
810098.13
 20
9416453.00
  0
VERTEX
  8
0MAR_ROD
 10
810150.13
 20
9416229.00
  0
VERTEX
  8
0MAR_ROD
 10
810151.63
 20
9416055.00
  0
VERTEX
  8
0MAR_ROD
 10
810152.63
 20
9415931.00
  0
VERTEX
  8
0MAR_ROD
 10
810153.25
 20
9415856.00
  0
VERTEX
  8
0MAR_ROD
 10
810154.69
 20
9415682.00
  0
VERTEX
  8
0MAR_ROD
 10
810181.25
 20
9415508.00
  0
VERTEX
  8
0MAR_ROD
 10
810181.88
 20
9415434.00
  0
VERTEX
  8
0MAR_ROD
 10
810208.13
 20
9415285.00
  0
VERTEX
  8
0MAR_ROD
 10
810209.19
 20
9415160.00
  0
VERTEX
  8
0MAR_ROD
 10
810235.13
 20
9415061.00
  0
VERTEX
  8
0MAR_ROD
 10
810261.38
 20
9414912.00
  0
VERTEX
  8
0MAR_ROD
 10
810287.94
 20
9414738.00
  0
VERTEX
  8
0MAR_ROD
 10
810341.00
 20
9414390.00
  0
VERTEX
  8
0MAR_ROD
 10
810367.25
 20
9414241.00
  0
VERTEX
  8
0MAR_ROD
 10
810420.38
 20
9413893.00
  0
VERTEX
  8
0MAR_ROD
 10
810470.88
 20
9413843.00
  0
VERTEX
  8
0MAR_ROD
 10
810522.75
 20
9413645.00
  0
VERTEX
  8
0MAR_ROD
 10
810524.75
 20
9413396.00
  0
VERTEX
  8
0MAR_ROD
 10
810575.38
 20
9413346.00
  0
VERTEX
  8
0MAR_ROD
 10
810626.94
 20
9413173.00
  0
VERTEX
  8
0MAR_ROD
 10
810654.25
 20
9412899.00
  0
VERTEX
  8
0MAR_ROD
 10
810655.50
 20
9412750.00
  0
VERTEX
  8
0MAR_ROD
 10
810656.75
 20
9412601.00
  0
VERTEX
  8
0MAR_ROD
 10
810659.06
 20
9412327.00
  0
VERTEX
  8
0MAR_ROD
 10
810685.81
 20
9412129.00
  0
VERTEX
  8
0MAR_ROD
 10
810738.25
 20
9411855.00
  0
VERTEX
  8
0MAR_ROD
 10
810816.19
 20
9411532.00
  0
VERTEX
  8
0MAR_ROD
 10
810866.94
 20
9411458.00
  0
VERTEX
  8
0MAR_ROD
 10
810918.31
 20
9411309.00
  0
VERTEX
  8
0MAR_ROD
 10
810969.75
 20
9411160.00
  0
VERTEX
  8
0MAR_ROD
 10
811046.56
 20
9410961.00
  0
VERTEX
  8
0MAR_ROD
 10
811097.38
 20
9410887.00
  0
VERTEX
  8
0MAR_ROD
 10
811147.88
 20
9410837.00
  0
VERTEX
  8
0MAR_ROD
 10
811149.13
 20
9410688.00
  0
VERTEX
  8
0MAR_ROD
 10
811200.56
 20
9410539.00
  0
VERTEX
  8
0MAR_ROD
 10
811252.13
 20
9410365.00
  0
VERTEX
  8
0MAR_ROD
 10
811303.94
 20
9410166.00
  0
VERTEX
  8
0MAR_ROD
 10
811355.75
 20
9409968.00
  0
VERTEX
  8
0MAR_ROD
 10
811407.56
 20
9409769.00
  0
VERTEX
  8
0MAR_ROD
 10
811560.25
 20
9409496.00
  0
VERTEX
  8
0MAR_ROD
 10
811612.75
 20
9409222.00
  0
VERTEX
  8
0MAR_ROD
 10
811766.69
 20
9408800.00
  0
VERTEX
  8
0MAR_ROD
 10
811944.69
 20
9408502.00
  0
VERTEX
  8
0MAR_ROD
 10
811996.13
 20
9408353.00
  0
VERTEX
  8
0MAR_ROD
 10
812071.88
 20
9408279.00
  0
VERTEX
  8
0MAR_ROD
 10
812123.50
 20
9408105.00
  0
VERTEX
  8
0MAR_ROD
 10
812150.00
 20
9407931.00
  0
VERTEX
  8
0MAR_ROD
 10
812326.75
 20
9407782.00
  0
VERTEX
  8
0MAR_ROD
 10
812377.38
 20
9407733.00
  0
VERTEX
  8
0MAR_ROD
 10
812428.75
 20
9407584.00
  0
VERTEX
  8
0MAR_ROD
 10
812479.75
 20
9407484.00
  0
VERTEX
  8
0MAR_ROD
 10
812530.13
 20
9407460.00
  0
VERTEX
  8
0MAR_ROD
 10
812606.75
 20
9407286.00
  0
VERTEX
  8
0MAR_ROD
 10
812658.13
 20
9407137.00
  0
VERTEX
  8
0MAR_ROD
 10
812709.31
 20
9407013.00
  0
VERTEX
  8
0MAR_ROD
 10
812760.50
 20
9406889.00
  0
VERTEX
  8
0MAR_ROD
 10
812783.31
 20
9406855.00
  0
SEQEND
  8
0MAR_ROD
  0
POLYLINE
  8
0MAR_ROD
 66
     1
  0
VERTEX
  8
0MAR_ROD
 10
819643.63
 20
9374159.00
  0
VERTEX
  8
0MAR_ROD
 10
819579.69
 20
9373941.00
  0
VERTEX
  8
0MAR_ROD
 10
819581.13
 20
9373767.00
  0
VERTEX
  8
0MAR_ROD
 10
819410.88
 20
9373145.00
  0
VERTEX
  8
0MAR_ROD
 10
819263.88
 20
9372722.00
  0
VERTEX
  8
0MAR_ROD
 10
819264.94
 20
9372598.00
  0
VERTEX
  8
0MAR_ROD
 10
818971.75
 20
9371677.00
  0
VERTEX
  8
0MAR_ROD
 10
818651.00
 20
9371055.00
  0
VERTEX
  8
0MAR_ROD
 10
818626.94
 20
9370931.00
  0
VERTEX
  8
0MAR_ROD
 10
818431.38
 20
9370333.00
  0
VERTEX
  8
0MAR_ROD
 10
818307.50
 20
9370159.00
  0
VERTEX
  8
0MAR_ROD
 10
818232.44
 20
9370134.00
  0
VERTEX
  8
0MAR_ROD
 10
818011.31
 20
9369587.00
  0
VERTEX
  8
0MAR_ROD
 10
817789.63
 20
9369114.00
  0
VERTEX
  8
0MAR_ROD
 10
817665.75
 20
9368939.00
  0
VERTEX
  8
0MAR_ROD
 10
817067.88
 20
9368465.00
  0
VERTEX
  8
0MAR_ROD
 10
816892.75
 20
9368415.00
  0
VERTEX
  8
0MAR_ROD
 10
816742.56
 20
9368390.00
  0
VERTEX
  8
0MAR_ROD
 10
816445.44
 20
9367942.00
  0
VERTEX
  8
0MAR_ROD
 10
816146.38
 20
9367717.00
  0
VERTEX
  8
0MAR_ROD
 10
816022.13
 20
9367592.00
  0
VERTEX
  8
0MAR_ROD
 10
815748.38
 20
9367343.00
  0
VERTEX
  8
0MAR_ROD
 10
815549.25
 20
9367168.00
  0
VERTEX
  8
0MAR_ROD
 10
815434.50
 20
9366940.00
  0
SEQEND
  8
0MAR_ROD
  0
POLYLINE
  8
0MAR_ROD
 66
     1
  0
VERTEX
  8
0MAR_ROD
 10
814414.94
 20
9344844.00
  0
VERTEX
  8
0MAR_ROD
 10
814382.63
 20
9344716.00
  0
VERTEX
  8
0MAR_ROD
 10
814237.13
 20
9344119.00
  0
VERTEX
  8
0MAR_ROD
 10
814238.19
 20
9343995.00
  0
VERTEX
  8
0MAR_ROD
 10
814246.88
 20
9342951.00
  0
VERTEX
  8
0MAR_ROD
 10
814248.56
 20
9342752.00
  0
VERTEX
  8
0MAR_ROD
 10
814249.19
 20
9342677.00
  0
VERTEX
  8
0MAR_ROD
 10
814276.13
 20
9342454.00
  0
VERTEX
  8
0MAR_ROD
 10
814353.00
 20
9342255.00
  0
VERTEX
  8
0MAR_ROD
 10
814555.88
 20
9341982.00
  0
VERTEX
  8
0MAR_ROD
 10
814607.06
 20
9341858.00
  0
VERTEX
  8
0MAR_ROD
 10
814633.63
 20
9341684.00
  0
VERTEX
  8
0MAR_ROD
 10
814809.31
 20
9341660.00
  0
VERTEX
  8
0MAR_ROD
 10
814810.38
 20
9341535.00
  0
VERTEX
  8
0MAR_ROD
 10
814969.13
 20
9340541.00
  0
VERTEX
  8
0MAR_ROD
 10
815047.25
 20
9340193.00
  0
VERTEX
  8
0MAR_ROD
 10
815073.75
 20
9340019.00
  0
VERTEX
  8
0MAR_ROD
 10
815076.00
 20
9339746.00
  0
VERTEX
  8
0MAR_ROD
 10
815230.38
 20
9339274.00
  0
VERTEX
  8
0MAR_ROD
 10
815309.13
 20
9338852.00
  0
VERTEX
  8
0MAR_ROD
 10
815385.38
 20
9338727.00
  0
VERTEX
  8
0MAR_ROD
 10
815440.13
 20
9338181.00
  0
VERTEX
  8
0MAR_ROD
 10
815643.63
 20
9337833.00
  0
VERTEX
  8
0MAR_ROD
 10
815694.38
 20
9337759.00
  0
VERTEX
  8
0MAR_ROD
 10
815745.13
 20
9337684.00
  0
VERTEX
  8
0MAR_ROD
 10
815823.06
 20
9337361.00
  0
VERTEX
  8
0MAR_ROD
 10
815899.94
 20
9337163.00
  0
VERTEX
  8
0MAR_ROD
 10
815925.63
 20
9337088.00
  0
VERTEX
  8
0MAR_ROD
 10
815926.88
 20
9336939.00
  0
VERTEX
  8
0MAR_ROD
 10
815928.50
 20
9336740.00
  0
VERTEX
  8
0MAR_ROD
 10
815929.13
 20
9336665.00
  0
VERTEX
  8
0MAR_ROD
 10
815930.38
 20
9336516.00
  0
VERTEX
  8
0MAR_ROD
 10
815931.63
 20
9336367.00
  0
VERTEX
  8
0MAR_ROD
 10
815932.25
 20
9336293.00
  0
VERTEX
  8
0MAR_ROD
 10
815933.50
 20
9336143.00
  0
VERTEX
  8
0MAR_ROD
 10
815935.38
 20
9335950.00
  0
SEQEND
  8
0MAR_ROD
  0
LINE
  8
0MAR_ROD
 10
832406.88
 20
9384796.00
 11
830645.25
 21
9383087.00
  0
POLYLINE
  8
0MAR_ROD
 66
     1
  0
VERTEX
  8
0MAR_ROD
 10
830645.25
 20
9383087.00
  0
VERTEX
  8
0MAR_ROD
 10
830562.06
 20
9382945.00
  0
VERTEX
  8
0MAR_ROD
 10
830214.63
 20
9382706.00
  0
SEQEND
  8
0MAR_ROD
  0
POLYLINE
  8
0MAR_ROD
 66
     1
  0
VERTEX
  8
0MAR_ROD
 10
830214.63
 20
9382706.00
  0
VERTEX
  8
0MAR_ROD
 10
829190.50
 20
9382046.00
  0
VERTEX
  8
0MAR_ROD
 10
829166.81
 20
9382042.00
  0
SEQEND
  8
0MAR_ROD
  0
POLYLINE
  8
0MAR_ROD
 66
     1
  0
VERTEX
  8
0MAR_ROD
 10
825630.50
 20
9362917.00
  0
VERTEX
  8
0MAR_ROD
 10
825563.81
 20
9362944.00
  0
VERTEX
  8
0MAR_ROD
 10
825563.81
 20
9362944.00
  0
VERTEX
  8
0MAR_ROD
 10
825563.81
 20
9362944.00
  0
VERTEX
  8
0MAR_ROD
 10
825487.13
 20
9363118.00
  0
VERTEX
  8
0MAR_ROD
 10
825184.81
 20
9363291.00
  0
VERTEX
  8
0MAR_ROD
 10
824856.13
 20
9363613.00
  0
VERTEX
  8
0MAR_ROD
 10
824554.00
 20
9363762.00
  0
VERTEX
  8
0MAR_ROD
 10
824302.69
 20
9363835.00
  0
VERTEX
  8
0MAR_ROD
 10
823974.63
 20
9364083.00
  0
VERTEX
  8
0MAR_ROD
 10
823544.69
 20
9364530.00
  0
VERTEX
  8
0MAR_ROD
 10
823016.25
 20
9364752.00
  0
VERTEX
  8
0MAR_ROD
 10
822511.88
 20
9365099.00
  0
VERTEX
  8
0MAR_ROD
 10
822008.63
 20
9365321.00
  0
VERTEX
  8
0MAR_ROD
 10
821580.88
 20
9365494.00
  0
VERTEX
  8
0MAR_ROD
 10
821279.38
 20
9365568.00
  0
VERTEX
  8
0MAR_ROD
 10
820953.25
 20
9365592.00
  0
VERTEX
  8
0MAR_ROD
 10
820677.25
 20
9365616.00
  0
VERTEX
  8
0MAR_ROD
 10
820526.75
 20
9365616.00
  0
VERTEX
  8
0MAR_ROD
 10
820225.94
 20
9365615.00
  0
VERTEX
  8
0MAR_ROD
 10
819723.00
 20
9365787.00
  0
VERTEX
  8
0MAR_ROD
 10
819546.88
 20
9365862.00
  0
VERTEX
  8
0MAR_ROD
 10
819220.88
 20
9365861.00
  0
VERTEX
  8
0MAR_ROD
 10
819018.63
 20
9366059.00
  0
VERTEX
  8
0MAR_ROD
 10
818842.50
 20
9366133.00
  0
VERTEX
  8
0MAR_ROD
 10
818515.94
 20
9366207.00
  0
VERTEX
  8
0MAR_ROD
 10
818038.13
 20
9366380.00
  0
VERTEX
  8
0MAR_ROD
 10
817787.13
 20
9366404.00
  0
VERTEX
  8
0MAR_ROD
 10
817711.50
 20
9366453.00
  0
VERTEX
  8
0MAR_ROD
 10
817435.31
 20
9366502.00
  0
VERTEX
  8
0MAR_ROD
 10
817259.81
 20
9366502.00
  0
VERTEX
  8
0MAR_ROD
 10
816958.94
 20
9366501.00
  0
VERTEX
  8
0MAR_ROD
 10
816783.38
 20
9366501.00
  0
VERTEX
  8
0MAR_ROD
 10
816582.88
 20
9366500.00
  0
VERTEX
  8
0MAR_ROD
 10
816407.13
 20
9366524.00
  0
VERTEX
  8
0MAR_ROD
 10
816357.00
 20
9366524.00
  0
VERTEX
  8
0MAR_ROD
 10
816052.50
 20
9366946.00
  0
VERTEX
  8
0MAR_ROD
 10
815434.50
 20
9366940.00
  0
SEQEND
  8
0MAR_ROD
  0
POLYLINE
  8
0MAR_ROD
 66
     1
  0
VERTEX
  8
0MAR_ROD
 10
832253.00
 20
9354266.00
  0
VERTEX
  8
0MAR_ROD
 10
832179.25
 20
9354409.00
  0
VERTEX
  8
0MAR_ROD
 10
831801.69
 20
9354582.00
  0
VERTEX
  8
0MAR_ROD
 10
831625.75
 20
9354632.00
  0
VERTEX
  8
0MAR_ROD
 10
831550.13
 20
9354681.00
  0
VERTEX
  8
0MAR_ROD
 10
831371.13
 20
9355103.00
  0
VERTEX
  8
0MAR_ROD
 10
831118.75
 20
9355301.00
  0
VERTEX
  8
0MAR_ROD
 10
831042.88
 20
9355376.00
  0
VERTEX
  8
0MAR_ROD
 10
830891.00
 20
9355549.00
  0
VERTEX
  8
0MAR_ROD
 10
830663.00
 20
9355822.00
  0
VERTEX
  8
0MAR_ROD
 10
830612.75
 20
9355847.00
  0
VERTEX
  8
0MAR_ROD
 10
830586.00
 20
9356046.00
  0
VERTEX
  8
0MAR_ROD
 10
830409.63
 20
9356145.00
  0
VERTEX
  8
0MAR_ROD
 10
830358.88
 20
9356219.00
  0
VERTEX
  8
0MAR_ROD
 10
830281.56
 20
9356468.00
  0
VERTEX
  8
0MAR_ROD
 10
830230.00
 20
9356642.00
  0
VERTEX
  8
0MAR_ROD
 10
830204.25
 20
9356716.00
  0
VERTEX
  8
0MAR_ROD
 10
830153.88
 20
9356741.00
  0
VERTEX
  8
0MAR_ROD
 10
830102.31
 20
9356915.00
  0
VERTEX
  8
0MAR_ROD
 10
830101.69
 20
9356989.00
  0
VERTEX
  8
0MAR_ROD
 10
830023.38
 20
9357362.00
  0
VERTEX
  8
0MAR_ROD
 10
829970.75
 20
9357660.00
  0
VERTEX
  8
0MAR_ROD
 10
829944.25
 20
9357834.00
  0
VERTEX
  8
0MAR_ROD
 10
829888.25
 20
9358530.00
  0
VERTEX
  8
0MAR_ROD
 10
829811.13
 20
9358754.00
  0
VERTEX
  8
0MAR_ROD
 10
829758.50
 20
9359052.00
  0
VERTEX
  8
0MAR_ROD
 10
829704.00
 20
9359574.00
  0
VERTEX
  8
0MAR_ROD
 10
829527.00
 20
9359747.00
  0
VERTEX
  8
0MAR_ROD
 10
829450.63
 20
9359896.00
  0
VERTEX
  8
0MAR_ROD
 10
829398.75
 20
9360095.00
  0
VERTEX
  8
0MAR_ROD
 10
829347.19
 20
9360269.00
  0
VERTEX
  8
0MAR_ROD
 10
829268.88
 20
9360642.00
  0
VERTEX
  8
0MAR_ROD
 10
829192.00
 20
9360840.00
  0
VERTEX
  8
0MAR_ROD
 10
829040.25
 20
9360989.00
  0
VERTEX
  8
0MAR_ROD
 10
828863.13
 20
9361187.00
  0
VERTEX
  8
0MAR_ROD
 10
828686.13
 20
9361361.00
  0
VERTEX
  8
0MAR_ROD
 10
828509.13
 20
9361535.00
  0
VERTEX
  8
0MAR_ROD
 10
828358.13
 20
9361609.00
  0
VERTEX
  8
0MAR_ROD
 10
828182.00
 20
9361683.00
  0
VERTEX
  8
0MAR_ROD
 10
827980.75
 20
9361757.00
  0
VERTEX
  8
0MAR_ROD
 10
827679.25
 20
9361831.00
  0
VERTEX
  8
0MAR_ROD
 10
827503.56
 20
9361855.00
  0
VERTEX
  8
0MAR_ROD
 10
827251.19
 20
9362053.00
  0
VERTEX
  8
0MAR_ROD
 10
827075.25
 20
9362103.00
  0
VERTEX
  8
0MAR_ROD
 10
827075.25
 20
9362103.00
  0
VERTEX
  8
0MAR_ROD
 10
827075.25
 20
9362103.00
  0
VERTEX
  8
0MAR_ROD
 10
827075.25
 20
9362103.00
  0
SEQEND
  8
0MAR_ROD
  0
TEXT
  8
1MAR_ROD
 10
794152.63
 20
9413563.00
 40
600.00
  1
201
  0
TEXT
  8
1MAR_ROD
 10
812569.19
 20
9405869.00
 40
600.00
  1
010
  0
TEXT
  8
1MAR_ROD
 10
814096.69
 20
9345311.00
 40
600.00
  1
010
  0
TEXT
  8
1MAR_ROD
 10
818769.38
 20
9407645.00
 40
600.00
  1
201
  0
TEXT
  8
1MAR_ROD
 10
825964.25
 20
9362487.00
 40
600.00
  1
230
  0
TEXT
  8
1MAR_ROD
 10
827750.94
 20
9381991.00
 40
600.00
  1
424
  0
ENDSEC
  0
EOF
