  0
SECTION
  2
HEADER
  9
$EXTMIN
 10
489931.38           
 20
9332011.00          
  9
$EXTMAX
 10
840168.13           
 20
9559534.00          
  9
$LUPREC
 70
     7
  0
ENDSEC
  0
SECTION
  2
ENTITIES
  0
LINE
  8
0MAR_GRD
 10
500000.00
 20
9340000.00
 11
832179.69
 21
9340000.00
  0
LINE
  8
0MAR_GRD
 10
500000.00
 20
9360000.00
 11
832280.13
 21
9360000.00
  0
LINE
  8
0MAR_GRD
 10
500000.00
 20
9380000.00
 11
832380.63
 21
9380000.00
  0
LINE
  8
0MAR_GRD
 10
500000.00
 20
9400000.00
 11
832481.06
 21
9400000.00
  0
LINE
  8
0MAR_GRD
 10
500000.00
 20
9420000.00
 11
832581.50
 21
9420000.00
  0
LINE
  8
0MAR_GRD
 10
500000.00
 20
9440000.00
 11
832682.00
 21
9440000.00
  0
LINE
  8
0MAR_GRD
 10
500000.00
 20
9460000.00
 11
832770.19
 21
9460000.00
  0
LINE
  8
0MAR_GRD
 10
500000.00
 20
9480000.00
 11
832852.44
 21
9480000.00
  0
LINE
  8
0MAR_GRD
 10
500000.00
 20
9500000.00
 11
832934.69
 21
9500000.00
  0
LINE
  8
0MAR_GRD
 10
500000.00
 20
9520000.00
 11
833016.94
 21
9520000.00
  0
LINE
  8
0MAR_GRD
 10
500000.00
 20
9540000.00
 11
833099.13
 21
9540000.00
  0
LINE
  8
0MAR_GRD
 10
520000.00
 20
9336766.00
 11
520000.00
 21
9557853.00
  0
LINE
  8
0MAR_GRD
 10
540000.00
 20
9336738.00
 11
540000.00
 21
9557835.00
  0
LINE
  8
0MAR_GRD
 10
560000.00
 20
9336711.00
 11
560000.00
 21
9557816.00
  0
LINE
  8
0MAR_GRD
 10
580000.00
 20
9336684.00
 11
580000.00
 21
9557798.00
  0
LINE
  8
0MAR_GRD
 10
600000.00
 20
9336656.00
 11
600000.00
 21
9557780.00
  0
LINE
  8
0MAR_GRD
 10
620000.00
 20
9336629.00
 11
620000.00
 21
9557761.00
  0
LINE
  8
0MAR_GRD
 10
640000.00
 20
9336602.00
 11
640000.00
 21
9557743.00
  0
LINE
  8
0MAR_GRD
 10
660000.00
 20
9336574.00
 11
660000.00
 21
9557725.00
  0
LINE
  8
0MAR_GRD
 10
680000.00
 20
9336509.00
 11
680000.00
 21
9557682.00
  0
LINE
  8
0MAR_GRD
 10
700000.00
 20
9336426.00
 11
700000.00
 21
9557627.00
  0
LINE
  8
0MAR_GRD
 10
720000.00
 20
9336344.00
 11
720000.00
 21
9557572.00
  0
LINE
  8
0MAR_GRD
 10
740000.00
 20
9336262.00
 11
740000.00
 21
9557518.00
  0
LINE
  8
0MAR_GRD
 10
760000.00
 20
9336180.00
 11
760000.00
 21
9557463.00
  0
LINE
  8
0MAR_GRD
 10
780000.00
 20
9336098.00
 11
780000.00
 21
9557408.00
  0
LINE
  8
0MAR_GRD
 10
800000.00
 20
9336016.00
 11
800000.00
 21
9557353.00
  0
LINE
  8
0MAR_GRD
 10
820000.00
 20
9335933.00
 11
820000.00
 21
9557298.00
  0
TEXT
  8
1MAR_GRD
 10
499500.00
 20
9332031.00
 40
1000.00
  1
00 KmE
  0
TEXT
  8
1MAR_GRD
 10
493447.94
 20
9339854.00
 40
1000.00
  1
93
  0
TEXT
  8
1MAR_GRD
 10
496081.16
 20
9359878.00
 40
1000.00
  1
93
  0
TEXT
  8
1MAR_GRD
 10
496081.16
 20
9379878.00
 40
1000.00
  1
93
  0
TEXT
  8
1MAR_GRD
 10
496084.91
 20
9399811.00
 40
1000.00
  1
94
  0
TEXT
  8
1MAR_GRD
 10
495897.81
 20
9419811.00
 40
1000.00
  1
94
  0
TEXT
  8
1MAR_GRD
 10
495897.81
 20
9439811.00
 40
1000.00
  1
94
  0
TEXT
  8
1MAR_GRD
 10
498581.41
 20
9332011.00
 40
1000.00
  1
5
  0
TEXT
  8
1MAR_GRD
 10
497464.50
 20
9439813.00
 40
1000.00
  1
40
  0
TEXT
  8
1MAR_GRD
 10
497464.50
 20
9419813.00
 40
1000.00
  1
20
  0
TEXT
  8
1MAR_GRD
 10
497651.59
 20
9399813.00
 40
1000.00
  1
00
  0
TEXT
  8
1MAR_GRD
 10
497651.59
 20
9379813.00
 40
1000.00
  1
80
  0
TEXT
  8
1MAR_GRD
 10
497651.59
 20
9359813.00
 40
1000.00
  1
60
  0
TEXT
  8
1MAR_GRD
 10
494847.81
 20
9339854.00
 40
1000.00
  1
40 KmN
  0
TEXT
  8
1MAR_GRD
 10
495897.81
 20
9459905.00
 40
1000.00
  1
94
  0
TEXT
  8
1MAR_GRD
 10
495897.81
 20
9479905.00
 40
1000.00
  1
94
  0
TEXT
  8
1MAR_GRD
 10
495595.22
 20
9499926.00
 40
1000.00
  1
95
  0
TEXT
  8
1MAR_GRD
 10
495595.22
 20
9519926.00
 40
1000.00
  1
95
  0
TEXT
  8
1MAR_GRD
 10
493567.25
 20
9540048.00
 40
1000.00
  1
95
  0
TEXT
  8
1MAR_GRD
 10
495156.69
 20
9540048.00
 40
1000.00
  1
40 KmN
  0
TEXT
  8
1MAR_GRD
 10
497277.41
 20
9519907.00
 40
1000.00
  1
20
  0
TEXT
  8
1MAR_GRD
 10
497277.41
 20
9499907.00
 40
1000.00
  1
00
  0
TEXT
  8
1MAR_GRD
 10
497464.50
 20
9479907.00
 40
1000.00
  1
80
  0
TEXT
  8
1MAR_GRD
 10
497464.50
 20
9459907.00
 40
1000.00
  1
60
  0
TEXT
  8
1MAR_GRD
 10
518581.41
 20
9334801.00
 40
1000.00
  1
5
  0
TEXT
  8
1MAR_GRD
 10
519500.00
 20
9334821.00
 40
1000.00
  1
20
  0
TEXT
  8
1MAR_GRD
 10
519049.13
 20
9558830.00
 40
1000.00
  1
5
  0
TEXT
  8
1MAR_GRD
 10
519967.75
 20
9558850.00
 40
1000.00
  1
20 KmE
  0
TEXT
  8
1MAR_GRD
 10
538581.38
 20
9334391.00
 40
1000.00
  1
5
  0
TEXT
  8
1MAR_GRD
 10
539500.00
 20
9334411.00
 40
1000.00
  1
40
  0
TEXT
  8
1MAR_GRD
 10
539049.13
 20
9558830.00
 40
1000.00
  1
5
  0
TEXT
  8
1MAR_GRD
 10
539967.75
 20
9558850.00
 40
1000.00
  1
40
  0
TEXT
  8
1MAR_GRD
 10
558581.38
 20
9334391.00
 40
1000.00
  1
5
  0
TEXT
  8
1MAR_GRD
 10
559500.00
 20
9334411.00
 40
1000.00
  1
60
  0
TEXT
  8
1MAR_GRD
 10
559049.13
 20
9558830.00
 40
1000.00
  1
5
  0
TEXT
  8
1MAR_GRD
 10
559967.75
 20
9558850.00
 40
1000.00
  1
60
  0
TEXT
  8
1MAR_GRD
 10
578581.38
 20
9334391.00
 40
1000.00
  1
5
  0
TEXT
  8
1MAR_GRD
 10
579500.00
 20
9334411.00
 40
1000.00
  1
80
  0
TEXT
  8
1MAR_GRD
 10
579049.13
 20
9558830.00
 40
1000.00
  1
5
  0
TEXT
  8
1MAR_GRD
 10
579967.75
 20
9558850.00
 40
1000.00
  1
80
  0
TEXT
  8
1MAR_GRD
 10
599500.00
 20
9334411.00
 40
1000.00
  1
00
  0
TEXT
  8
1MAR_GRD
 10
598624.25
 20
9334446.00
 40
1000.00
  1
6
  0
TEXT
  8
1MAR_GRD
 10
598811.38
 20
9559165.00
 40
1000.00
  1
6
  0
TEXT
  8
1MAR_GRD
 10
599687.13
 20
9559130.00
 40
1000.00
  1
00
  0
TEXT
  8
1MAR_GRD
 10
618624.25
 20
9334138.00
 40
1000.00
  1
6
  0
TEXT
  8
1MAR_GRD
 10
619500.00
 20
9334103.00
 40
1000.00
  1
20
  0
TEXT
  8
1MAR_GRD
 10
618811.38
 20
9559165.00
 40
1000.00
  1
6
  0
TEXT
  8
1MAR_GRD
 10
619687.13
 20
9559130.00
 40
1000.00
  1
20
  0
TEXT
  8
1MAR_GRD
 10
638624.25
 20
9334138.00
 40
1000.00
  1
6
  0
TEXT
  8
1MAR_GRD
 10
639500.00
 20
9334103.00
 40
1000.00
  1
40
  0
TEXT
  8
1MAR_GRD
 10
639687.13
 20
9559130.00
 40
1000.00
  1
40
  0
TEXT
  8
1MAR_GRD
 10
638811.38
 20
9559165.00
 40
1000.00
  1
6
  0
TEXT
  8
1MAR_GRD
 10
658624.25
 20
9334138.00
 40
1000.00
  1
6
  0
TEXT
  8
1MAR_GRD
 10
659500.00
 20
9334103.00
 40
1000.00
  1
60
  0
TEXT
  8
1MAR_GRD
 10
658811.38
 20
9559165.00
 40
1000.00
  1
6
  0
TEXT
  8
1MAR_GRD
 10
659687.13
 20
9559130.00
 40
1000.00
  1
60
  0
TEXT
  8
1MAR_GRD
 10
678624.25
 20
9334138.00
 40
1000.00
  1
6
  0
TEXT
  8
1MAR_GRD
 10
679500.00
 20
9334103.00
 40
1000.00
  1
80
  0
TEXT
  8
1MAR_GRD
 10
678904.88
 20
9559259.00
 40
1000.00
  1
6
  0
TEXT
  8
1MAR_GRD
 10
679780.63
 20
9559224.00
 40
1000.00
  1
80
  0
TEXT
  8
1MAR_GRD
 10
698708.13
 20
9334315.00
 40
1000.00
  1
7
  0
TEXT
  8
1MAR_GRD
 10
699500.00
 20
9334308.00
 40
1000.00
  1
00
  0
TEXT
  8
1MAR_GRD
 10
698988.75
 20
9559231.00
 40
1000.00
  1
7
  0
TEXT
  8
1MAR_GRD
 10
699780.63
 20
9559224.00
 40
1000.00
  1
00
  0
TEXT
  8
1MAR_GRD
 10
718708.13
 20
9334315.00
 40
1000.00
  1
7
  0
TEXT
  8
1MAR_GRD
 10
719500.00
 20
9334308.00
 40
1000.00
  1
20
  0
TEXT
  8
1MAR_GRD
 10
718988.75
 20
9559231.00
 40
1000.00
  1
7
  0
TEXT
  8
1MAR_GRD
 10
719780.63
 20
9559224.00
 40
1000.00
  1
20
  0
TEXT
  8
1MAR_GRD
 10
738708.13
 20
9334315.00
 40
1000.00
  1
7
  0
TEXT
  8
1MAR_GRD
 10
739500.00
 20
9334308.00
 40
1000.00
  1
40
  0
TEXT
  8
1MAR_GRD
 10
738708.13
 20
9559417.00
 40
1000.00
  1
7
  0
TEXT
  8
1MAR_GRD
 10
739500.00
 20
9559411.00
 40
1000.00
  1
40
  0
TEXT
  8
1MAR_GRD
 10
779500.00
 20
9559411.00
 40
1000.00
  1
80
  0
TEXT
  8
1MAR_GRD
 10
779500.00
 20
9333898.00
 40
1000.00
  1
80
  0
TEXT
  8
1MAR_GRD
 10
758708.13
 20
9334315.00
 40
1000.00
  1
7
  0
TEXT
  8
1MAR_GRD
 10
759500.00
 20
9334308.00
 40
1000.00
  1
60
  0
TEXT
  8
1MAR_GRD
 10
758708.13
 20
9559417.00
 40
1000.00
  1
7
  0
TEXT
  8
1MAR_GRD
 10
759500.00
 20
9559411.00
 40
1000.00
  1
60
  0
TEXT
  8
1MAR_GRD
 10
778708.13
 20
9333905.00
 40
1000.00
  1
7
  0
TEXT
  8
1MAR_GRD
 10
778708.13
 20
9559417.00
 40
1000.00
  1
7
  0
TEXT
  8
1MAR_GRD
 10
798638.63
 20
9333895.00
 40
1000.00
  1
8
  0
TEXT
  8
1MAR_GRD
 10
799500.00
 20
9333898.00
 40
1000.00
  1
00
  0
TEXT
  8
1MAR_GRD
 10
798638.63
 20
9559408.00
 40
1000.00
  1
8
  0
TEXT
  8
1MAR_GRD
 10
799500.00
 20
9559411.00
 40
1000.00
  1
00
  0
TEXT
  8
1MAR_GRD
 10
819500.00
 20
9333898.00
 40
1000.00
  1
20 KmE
  0
TEXT
  8
1MAR_GRD
 10
818638.63
 20
9333895.00
 40
1000.00
  1
8
  0
TEXT
  8
1MAR_GRD
 10
819500.00
 20
9559411.00
 40
1000.00
  1
20 KmE
  0
TEXT
  8
1MAR_GRD
 10
818638.63
 20
9559408.00
 40
1000.00
  1
8
  0
TEXT
  8
1MAR_GRD
 10
834238.00
 20
9340000.00
 40
1000.00
  1
40 KmN
  0
TEXT
  8
1MAR_GRD
 10
832667.56
 20
9340065.00
 40
1000.00
  1
93
  0
TEXT
  8
1MAR_GRD
 10
832667.56
 20
9360065.00
 40
1000.00
  1
93
  0
TEXT
  8
1MAR_GRD
 10
832667.56
 20
9380065.00
 40
1000.00
  1
93
  0
TEXT
  8
1MAR_GRD
 10
832963.31
 20
9399998.00
 40
1000.00
  1
94
  0
TEXT
  8
1MAR_GRD
 10
832963.31
 20
9419998.00
 40
1000.00
  1
94
  0
TEXT
  8
1MAR_GRD
 10
832963.31
 20
9439998.00
 40
1000.00
  1
94
  0
TEXT
  8
1MAR_GRD
 10
834530.00
 20
9440000.00
 40
1000.00
  1
40
  0
TEXT
  8
1MAR_GRD
 10
834530.00
 20
9420000.00
 40
1000.00
  1
20
  0
TEXT
  8
1MAR_GRD
 10
834530.00
 20
9400000.00
 40
1000.00
  1
00
  0
TEXT
  8
1MAR_GRD
 10
834238.00
 20
9380000.00
 40
1000.00
  1
80
  0
TEXT
  8
1MAR_GRD
 10
834238.00
 20
9360000.00
 40
1000.00
  1
60
  0
TEXT
  8
1MAR_GRD
 10
835481.13
 20
9539907.00
 40
1000.00
  1
40 KmN
  0
TEXT
  8
1MAR_GRD
 10
833353.19
 20
9459811.00
 40
1000.00
  1
94
  0
TEXT
  8
1MAR_GRD
 10
833727.38
 20
9479998.00
 40
1000.00
  1
94
  0
TEXT
  8
1MAR_GRD
 10
833611.88
 20
9500019.00
 40
1000.00
  1
95
  0
TEXT
  8
1MAR_GRD
 10
833799.00
 20
9519926.00
 40
1000.00
  1
95
  0
TEXT
  8
1MAR_GRD
 10
833799.00
 20
9539926.00
 40
1000.00
  1
95
  0
TEXT
  8
1MAR_GRD
 10
835481.13
 20
9519907.00
 40
1000.00
  1
20
  0
TEXT
  8
1MAR_GRD
 10
835294.06
 20
9500000.00
 40
1000.00
  1
00
  0
TEXT
  8
1MAR_GRD
 10
835294.06
 20
9480000.00
 40
1000.00
  1
80
  0
TEXT
  8
1MAR_GRD
 10
835100.31
 20
9459852.00
 40
1000.00
  1
60
  0
TEXT
  8
1MAR_GRD
 10
832642.88
 20
9336267.00
 40
1000.00
  1
s -6
  0
TEXT
  8
1MAR_GRD
 10
837910.06
 20
9336846.00
 40
1000.00
  1
o
  0
TEXT
  8
1MAR_GRD
 10
839183.44
 20
9336209.00
 40
1000.00
  1
00'
  0
TEXT
  8
1MAR_GRD
 10
828417.63
 20
9333488.00
 40
1000.00
  1
o 48
  0
TEXT
  8
1MAR_GRD
 10
833626.88
 20
9334125.00
 40
1000.00
  1
o
  0
TEXT
  8
1MAR_GRD
 10
834842.38
 20
9333604.00
 40
1000.00
  1
00'
  0
TEXT
  8
1MAR_GRD
 10
833756.44
 20
9555646.00
 40
1000.00
  1
s -4
  0
TEXT
  8
1MAR_GRD
 10
838898.50
 20
9556281.00
 40
1000.00
  1
o
  0
TEXT
  8
1MAR_GRD
 10
840168.13
 20
9555646.00
 40
1000.00
  1
00
  0
TEXT
  8
1MAR_GRD
 10
827090.81
 20
9558250.00
 40
1000.00
  1
o 48
  0
TEXT
  8
1MAR_GRD
 10
832232.88
 20
9559266.00
 40
1000.00
  1
o
  0
TEXT
  8
1MAR_GRD
 10
833502.50
 20
9558250.00
 40
1000.00
  1
00'
  0
TEXT
  8
1MAR_GRD
 10
497948.41
 20
9558654.00
 40
1000.00
  1
o 51
  0
TEXT
  8
1MAR_GRD
 10
502608.97
 20
9559534.00
 40
1000.00
  1
o
  0
TEXT
  8
1MAR_GRD
 10
503634.91
 20
9558625.00
 40
1000.00
  1
00'
  0
TEXT
  8
1MAR_GRD
 10
490122.16
 20
9556513.00
 40
1000.00
  1
s -4
  0
TEXT
  8
1MAR_GRD
 10
495163.78
 20
9557364.00
 40
1000.00
  1
o
  0
TEXT
  8
1MAR_GRD
 10
496306.94
 20
9556455.00
 40
1000.00
  1
00'
  0
TEXT
  8
1MAR_GRD
 10
489931.38
 20
9337051.00
 40
1000.00
  1
s -6
  0
TEXT
  8
1MAR_GRD
 10
495117.31
 20
9337821.00
 40
1000.00
  1
o
  0
TEXT
  8
1MAR_GRD
 10
496195.56
 20
9337051.00
 40
1000.00
  1
00'
  0
TEXT
  8
1MAR_GRD
 10
497941.31
 20
9334996.00
 40
1000.00
  1
o 51
  0
TEXT
  8
1MAR_GRD
 10
502613.81
 20
9335818.00
 40
1000.00
  1
o
  0
TEXT
  8
1MAR_GRD
 10
503794.75
 20
9334996.00
 40
1000.00
  1
00'
  0
ENDSEC
  0
EOF
