  0
SECTION
  2
HEADER
  9
$EXTMIN
 10
159629.30           
 20
8889498.00          
  9
$EXTMAX
 10
506874.94           
 20
9119748.00          
  9
$LUPREC
 70
     7
  0
ENDSEC
  0
SECTION
  2
ENTITIES
  0
LINE
  8
0LIZ_GRD
 10
169367.23
 20
9100000.00
 11
500000.00
 21
9100000.00
  0
LINE
  8
0LIZ_GRD
 10
169522.16
 20
9080000.00
 11
500000.00
 21
9080000.00
  0
LINE
  8
0LIZ_GRD
 10
169677.09
 20
9060000.00
 11
500000.00
 21
9060000.00
  0
LINE
  8
0LIZ_GRD
 10
169832.02
 20
9040000.00
 11
500000.00
 21
9040000.00
  0
LINE
  8
0LIZ_GRD
 10
169986.95
 20
9020000.00
 11
500000.00
 21
9020000.00
  0
LINE
  8
0LIZ_GRD
 10
170145.30
 20
9000000.00
 11
500000.00
 21
9000000.00
  0
LINE
  8
0LIZ_GRD
 10
170318.30
 20
8980000.00
 11
500000.00
 21
8980000.00
  0
LINE
  8
0LIZ_GRD
 10
170491.30
 20
8960000.00
 11
500000.00
 21
8960000.00
  0
LINE
  8
0LIZ_GRD
 10
170664.30
 20
8940000.00
 11
500000.00
 21
8940000.00
  0
LINE
  8
0LIZ_GRD
 10
170837.28
 20
8920000.00
 11
500000.00
 21
8920000.00
  0
LINE
  8
0LIZ_GRD
 10
171010.28
 20
8900000.00
 11
500000.00
 21
8900000.00
  0
LINE
  8
0LIZ_GRD
 10
180000.00
 20
8893148.00
 11
180000.00
 21
9114552.00
  0
LINE
  8
0LIZ_GRD
 10
200000.00
 20
8893285.00
 11
200000.00
 21
9114661.00
  0
LINE
  8
0LIZ_GRD
 10
220000.00
 20
8893421.00
 11
220000.00
 21
9114771.00
  0
LINE
  8
0LIZ_GRD
 10
240000.00
 20
8893558.00
 11
240000.00
 21
9114880.00
  0
LINE
  8
0LIZ_GRD
 10
260000.00
 20
8893694.00
 11
260000.00
 21
9114989.00
  0
LINE
  8
0LIZ_GRD
 10
280000.00
 20
8893831.00
 11
280000.00
 21
9115099.00
  0
LINE
  8
0LIZ_GRD
 10
300000.00
 20
8893967.00
 11
300000.00
 21
9115208.00
  0
LINE
  8
0LIZ_GRD
 10
320000.00
 20
8894104.00
 11
320000.00
 21
9115318.00
  0
LINE
  8
0LIZ_GRD
 10
340000.00
 20
8894220.00
 11
340000.00
 21
9115408.00
  0
LINE
  8
0LIZ_GRD
 10
360000.00
 20
8894265.00
 11
360000.00
 21
9115444.00
  0
LINE
  8
0LIZ_GRD
 10
380000.00
 20
8894311.00
 11
380000.00
 21
9115480.00
  0
LINE
  8
0LIZ_GRD
 10
400000.00
 20
8894356.00
 11
400000.00
 21
9115517.00
  0
LINE
  8
0LIZ_GRD
 10
420000.00
 20
8894402.00
 11
420000.00
 21
9115553.00
  0
LINE
  8
0LIZ_GRD
 10
440000.00
 20
8894447.00
 11
440000.00
 21
9115590.00
  0
LINE
  8
0LIZ_GRD
 10
460000.00
 20
8894493.00
 11
460000.00
 21
9115626.00
  0
LINE
  8
0LIZ_GRD
 10
480000.00
 20
8894538.00
 11
480000.00
 21
9115663.00
  0
LINE
  8
0LIZ_GRD
 10
500000.00
 20
8900000.00
 11
500000.00
 21
9115699.00
  0
TEXT
  8
1LIZ_GRD
 10
166126.27
 20
8899833.00
 40
1000.00
  1
00 KmN
  0
TEXT
  8
1LIZ_GRD
 10
164602.08
 20
8899841.00
 40
1000.00
  1
89
  0
TEXT
  8
1LIZ_GRD
 10
165851.23
 20
8920309.00
 40
1000.00
  1
89
  0
TEXT
  8
1LIZ_GRD
 10
165695.09
 20
8940153.00
 40
1000.00
  1
89
  0
TEXT
  8
1LIZ_GRD
 10
164686.80
 20
8960552.00
 40
1000.00
  1
89
  0
TEXT
  8
1LIZ_GRD
 10
164842.95
 20
8980396.00
 40
1000.00
  1
89
  0
TEXT
  8
1LIZ_GRD
 10
164899.59
 20
9000596.00
 40
1000.00
  1
90
  0
TEXT
  8
1LIZ_GRD
 10
166523.28
 20
9000544.00
 40
1000.00
  1
00
  0
TEXT
  8
1LIZ_GRD
 10
166367.13
 20
8980388.00
 40
1000.00
  1
80
  0
TEXT
  8
1LIZ_GRD
 10
166210.98
 20
8960544.00
 40
1000.00
  1
60
  0
TEXT
  8
1LIZ_GRD
 10
167219.27
 20
8940145.00
 40
1000.00
  1
40
  0
TEXT
  8
1LIZ_GRD
 10
167375.42
 20
8920301.00
 40
1000.00
  1
20
  0
TEXT
  8
1LIZ_GRD
 10
164899.59
 20
9020596.00
 40
1000.00
  1
90
  0
TEXT
  8
1LIZ_GRD
 10
164899.59
 20
9040596.00
 40
1000.00
  1
90
  0
TEXT
  8
1LIZ_GRD
 10
164415.72
 20
9060062.00
 40
1000.00
  1
90
  0
TEXT
  8
1LIZ_GRD
 10
164415.72
 20
9080062.00
 40
1000.00
  1
90
  0
TEXT
  8
1LIZ_GRD
 10
162922.13
 20
9100126.00
 40
1000.00
  1
91
  0
TEXT
  8
1LIZ_GRD
 10
164349.41
 20
9100126.00
 40
1000.00
  1
00 KmN
  0
TEXT
  8
1LIZ_GRD
 10
166039.41
 20
9080011.00
 40
1000.00
  1
80
  0
TEXT
  8
1LIZ_GRD
 10
166039.41
 20
9060011.00
 40
1000.00
  1
60
  0
TEXT
  8
1LIZ_GRD
 10
166523.28
 20
9040544.00
 40
1000.00
  1
40
  0
TEXT
  8
1LIZ_GRD
 10
166523.28
 20
9020544.00
 40
1000.00
  1
20
  0
TEXT
  8
1LIZ_GRD
 10
179252.70
 20
8890668.00
 40
1000.00
  1
1
  0
TEXT
  8
1LIZ_GRD
 10
179834.00
 20
8890657.00
 40
1000.00
  1
80 KmE
  0
TEXT
  8
1LIZ_GRD
 10
178106.55
 20
9117339.00
 40
1000.00
  1
1
  0
TEXT
  8
1LIZ_GRD
 10
178832.00
 20
9117328.00
 40
1000.00
  1
80 KmE
  0
TEXT
  8
1LIZ_GRD
 10
199547.80
 20
8891129.00
 40
1000.00
  1
2
  0
TEXT
  8
1LIZ_GRD
 10
200335.00
 20
8891157.00
 40
1000.00
  1
00
  0
TEXT
  8
1LIZ_GRD
 10
198044.80
 20
9117300.00
 40
1000.00
  1
2
  0
TEXT
  8
1LIZ_GRD
 10
198832.00
 20
9117328.00
 40
1000.00
  1
00
  0
TEXT
  8
1LIZ_GRD
 10
219547.80
 20
8891129.00
 40
1000.00
  1
2
  0
TEXT
  8
1LIZ_GRD
 10
220335.00
 20
8891157.00
 40
1000.00
  1
20
  0
TEXT
  8
1LIZ_GRD
 10
218044.80
 20
9117300.00
 40
1000.00
  1
2
  0
TEXT
  8
1LIZ_GRD
 10
218832.00
 20
9117328.00
 40
1000.00
  1
20
  0
TEXT
  8
1LIZ_GRD
 10
239547.80
 20
8891129.00
 40
1000.00
  1
2
  0
TEXT
  8
1LIZ_GRD
 10
240335.00
 20
8891157.00
 40
1000.00
  1
40
  0
TEXT
  8
1LIZ_GRD
 10
238044.80
 20
9117300.00
 40
1000.00
  1
2
  0
TEXT
  8
1LIZ_GRD
 10
238832.00
 20
9117328.00
 40
1000.00
  1
40
  0
TEXT
  8
1LIZ_GRD
 10
259547.80
 20
8891129.00
 40
1000.00
  1
2
  0
TEXT
  8
1LIZ_GRD
 10
260335.00
 20
8891157.00
 40
1000.00
  1
60
  0
TEXT
  8
1LIZ_GRD
 10
258044.80
 20
9117300.00
 40
1000.00
  1
2
  0
TEXT
  8
1LIZ_GRD
 10
258832.00
 20
9117328.00
 40
1000.00
  1
60
  0
TEXT
  8
1LIZ_GRD
 10
279547.81
 20
8891129.00
 40
1000.00
  1
2
  0
TEXT
  8
1LIZ_GRD
 10
280335.00
 20
8891157.00
 40
1000.00
  1
80
  0
TEXT
  8
1LIZ_GRD
 10
278044.81
 20
9117300.00
 40
1000.00
  1
2
  0
TEXT
  8
1LIZ_GRD
 10
278832.00
 20
9117328.00
 40
1000.00
  1
80
  0
TEXT
  8
1LIZ_GRD
 10
299227.72
 20
8891310.00
 40
1000.00
  1
3
  0
TEXT
  8
1LIZ_GRD
 10
300001.00
 20
8891324.00
 40
1000.00
  1
00
  0
TEXT
  8
1LIZ_GRD
 10
298893.72
 20
9117481.00
 40
1000.00
  1
3
  0
TEXT
  8
1LIZ_GRD
 10
299667.00
 20
9117495.00
 40
1000.00
  1
00
  0
TEXT
  8
1LIZ_GRD
 10
319227.72
 20
8891310.00
 40
1000.00
  1
3
  0
TEXT
  8
1LIZ_GRD
 10
320001.00
 20
8891324.00
 40
1000.00
  1
20
  0
TEXT
  8
1LIZ_GRD
 10
318893.72
 20
9117481.00
 40
1000.00
  1
3
  0
TEXT
  8
1LIZ_GRD
 10
319667.00
 20
9117495.00
 40
1000.00
  1
20
  0
TEXT
  8
1LIZ_GRD
 10
339227.72
 20
8891310.00
 40
1000.00
  1
3
  0
TEXT
  8
1LIZ_GRD
 10
340001.00
 20
8891324.00
 40
1000.00
  1
40
  0
TEXT
  8
1LIZ_GRD
 10
338893.72
 20
9117481.00
 40
1000.00
  1
3
  0
TEXT
  8
1LIZ_GRD
 10
339667.00
 20
9117495.00
 40
1000.00
  1
40
  0
TEXT
  8
1LIZ_GRD
 10
359227.72
 20
8891310.00
 40
1000.00
  1
3
  0
TEXT
  8
1LIZ_GRD
 10
360001.00
 20
8891324.00
 40
1000.00
  1
60
  0
TEXT
  8
1LIZ_GRD
 10
358893.72
 20
9117481.00
 40
1000.00
  1
3
  0
TEXT
  8
1LIZ_GRD
 10
359667.00
 20
9117495.00
 40
1000.00
  1
60
  0
TEXT
  8
1LIZ_GRD
 10
379227.72
 20
8891310.00
 40
1000.00
  1
3
  0
TEXT
  8
1LIZ_GRD
 10
380001.00
 20
8891324.00
 40
1000.00
  1
80
  0
TEXT
  8
1LIZ_GRD
 10
378893.72
 20
9117481.00
 40
1000.00
  1
3
  0
TEXT
  8
1LIZ_GRD
 10
379667.00
 20
9117495.00
 40
1000.00
  1
80
  0
TEXT
  8
1LIZ_GRD
 10
400001.00
 20
8891324.00
 40
1000.00
  1
00
  0
TEXT
  8
1LIZ_GRD
 10
399164.50
 20
8891427.00
 40
1000.00
  1
4
  0
TEXT
  8
1LIZ_GRD
 10
398830.50
 20
9117598.00
 40
1000.00
  1
4
  0
TEXT
  8
1LIZ_GRD
 10
399667.00
 20
9117495.00
 40
1000.00
  1
00
  0
TEXT
  8
1LIZ_GRD
 10
418663.50
 20
8891761.00
 40
1000.00
  1
4
  0
TEXT
  8
1LIZ_GRD
 10
419500.00
 20
8891658.00
 40
1000.00
  1
20
  0
TEXT
  8
1LIZ_GRD
 10
418663.50
 20
9117598.00
 40
1000.00
  1
4
  0
TEXT
  8
1LIZ_GRD
 10
419500.00
 20
9117495.00
 40
1000.00
  1
20
  0
TEXT
  8
1LIZ_GRD
 10
439500.00
 20
9117495.00
 40
1000.00
  1
40
  0
TEXT
  8
1LIZ_GRD
 10
439500.00
 20
8891658.00
 40
1000.00
  1
40
  0
TEXT
  8
1LIZ_GRD
 10
438663.50
 20
8891761.00
 40
1000.00
  1
4
  0
TEXT
  8
1LIZ_GRD
 10
438663.50
 20
9117598.00
 40
1000.00
  1
4
  0
TEXT
  8
1LIZ_GRD
 10
459500.00
 20
9117495.00
 40
1000.00
  1
60
  0
TEXT
  8
1LIZ_GRD
 10
459500.00
 20
8891658.00
 40
1000.00
  1
60
  0
TEXT
  8
1LIZ_GRD
 10
458663.50
 20
8891761.00
 40
1000.00
  1
4
  0
TEXT
  8
1LIZ_GRD
 10
458663.50
 20
9117598.00
 40
1000.00
  1
4
  0
TEXT
  8
1LIZ_GRD
 10
479500.00
 20
9117495.00
 40
1000.00
  1
80
  0
TEXT
  8
1LIZ_GRD
 10
479500.00
 20
8891658.00
 40
1000.00
  1
80
  0
TEXT
  8
1LIZ_GRD
 10
478663.50
 20
8891761.00
 40
1000.00
  1
4
  0
TEXT
  8
1LIZ_GRD
 10
478675.69
 20
9117462.00
 40
1000.00
  1
4
  0
TEXT
  8
1LIZ_GRD
 10
498293.00
 20
8889532.00
 40
1000.00
  1
00 KmE
  0
TEXT
  8
1LIZ_GRD
 10
498644.75
 20
9119748.00
 40
1000.00
  1
00 KmE
  0
TEXT
  8
1LIZ_GRD
 10
497518.84
 20
8889498.00
 40
1000.00
  1
5
  0
TEXT
  8
1LIZ_GRD
 10
497872.59
 20
9119729.00
 40
1000.00
  1
5
  0
TEXT
  8
1LIZ_GRD
 10
502150.47
 20
8899995.00
 40
1000.00
  1
00 KmN
  0
TEXT
  8
1LIZ_GRD
 10
500475.81
 20
8900008.00
 40
1000.00
  1
89
  0
TEXT
  8
1LIZ_GRD
 10
500475.81
 20
8920008.00
 40
1000.00
  1
89
  0
TEXT
  8
1LIZ_GRD
 10
500475.81
 20
8940008.00
 40
1000.00
  1
89
  0
TEXT
  8
1LIZ_GRD
 10
500475.81
 20
8960008.00
 40
1000.00
  1
89
  0
TEXT
  8
1LIZ_GRD
 10
500475.81
 20
8980008.00
 40
1000.00
  1
89
  0
TEXT
  8
1LIZ_GRD
 10
500376.31
 20
9000051.00
 40
1000.00
  1
90
  0
TEXT
  8
1LIZ_GRD
 10
502000.00
 20
9000000.00
 40
1000.00
  1
00
  0
TEXT
  8
1LIZ_GRD
 10
502000.00
 20
8980000.00
 40
1000.00
  1
80
  0
TEXT
  8
1LIZ_GRD
 10
502000.00
 20
8960000.00
 40
1000.00
  1
60
  0
TEXT
  8
1LIZ_GRD
 10
502000.00
 20
8940000.00
 40
1000.00
  1
40
  0
TEXT
  8
1LIZ_GRD
 10
502000.00
 20
8920000.00
 40
1000.00
  1
20
  0
TEXT
  8
1LIZ_GRD
 10
502261.47
 20
9100000.00
 40
1000.00
  1
00 KmN
  0
TEXT
  8
1LIZ_GRD
 10
500376.31
 20
9020051.00
 40
1000.00
  1
90
  0
TEXT
  8
1LIZ_GRD
 10
500376.31
 20
9040051.00
 40
1000.00
  1
90
  0
TEXT
  8
1LIZ_GRD
 10
500376.31
 20
9060051.00
 40
1000.00
  1
90
  0
TEXT
  8
1LIZ_GRD
 10
500376.31
 20
9080051.00
 40
1000.00
  1
90
  0
TEXT
  8
1LIZ_GRD
 10
500948.56
 20
9100012.00
 40
1000.00
  1
91
  0
TEXT
  8
1LIZ_GRD
 10
502000.00
 20
9080000.00
 40
1000.00
  1
80
  0
TEXT
  8
1LIZ_GRD
 10
502000.00
 20
9060000.00
 40
1000.00
  1
60
  0
TEXT
  8
1LIZ_GRD
 10
502000.00
 20
9040000.00
 40
1000.00
  1
40
  0
TEXT
  8
1LIZ_GRD
 10
168906.66
 20
9115258.00
 40
1000.00
  1
o
  0
TEXT
  8
1LIZ_GRD
 10
170601.36
 20
9115076.00
 40
1000.00
  1
48
  0
TEXT
  8
1LIZ_GRD
 10
173385.52
 20
9115682.00
 40
1000.00
  1
o
  0
TEXT
  8
1LIZ_GRD
 10
174596.02
 20
9115016.00
 40
1000.00
  1
00'
  0
TEXT
  8
1LIZ_GRD
 10
159629.30
 20
9112844.00
 40
1000.00
  1
s
  0
TEXT
  8
1LIZ_GRD
 10
161522.59
 20
9112715.00
 40
1000.00
  1
-8
  0
TEXT
  8
1LIZ_GRD
 10
165335.67
 20
9112776.00
 40
1000.00
  1
00'
  0
TEXT
  8
1LIZ_GRD
 10
164185.69
 20
9113563.00
 40
1000.00
  1
o
  0
TEXT
  8
1LIZ_GRD
 10
159999.00
 20
8893890.00
 40
1000.00
  1
s
  0
TEXT
  8
1LIZ_GRD
 10
162178.97
 20
8893890.00
 40
1000.00
  1
-10
  0
TEXT
  8
1LIZ_GRD
 10
166123.69
 20
8894513.00
 40
1000.00
  1
o
  0
TEXT
  8
1LIZ_GRD
 10
167265.58
 20
8893786.00
 40
1000.00
  1
00'
  0
TEXT
  8
1LIZ_GRD
 10
167577.00
 20
8891190.00
 40
1000.00
  1
o
  0
TEXT
  8
1LIZ_GRD
 10
169445.55
 20
8891086.00
 40
1000.00
  1
48
  0
TEXT
  8
1LIZ_GRD
 10
172144.56
 20
8891917.00
 40
1000.00
  1
o
  0
TEXT
  8
1LIZ_GRD
 10
173286.45
 20
8890982.00
 40
1000.00
  1
00'
  0
TEXT
  8
1LIZ_GRD
 10
495258.00
 20
9116446.00
 40
1000.00
  1
o
  0
TEXT
  8
1LIZ_GRD
 10
496747.03
 20
9116379.00
 40
1000.00
  1
45
  0
TEXT
  8
1LIZ_GRD
 10
499386.66
 20
9117056.00
 40
1000.00
  1
o
  0
TEXT
  8
1LIZ_GRD
 10
500604.94
 20
9116379.00
 40
1000.00
  1
00'
  0
TEXT
  8
1LIZ_GRD
 10
500672.63
 20
9114009.00
 40
1000.00
  1
s
  0
TEXT
  8
1LIZ_GRD
 10
502161.66
 20
9113941.00
 40
1000.00
  1
-8
  0
TEXT
  8
1LIZ_GRD
 10
505004.31
 20
9114889.00
 40
1000.00
  1
o
  0
TEXT
  8
1LIZ_GRD
 10
506087.25
 20
9113941.00
 40
1000.00
  1
00'
  0
TEXT
  8
1LIZ_GRD
 10
500680.72
 20
8894910.00
 40
1000.00
  1
s
  0
TEXT
  8
1LIZ_GRD
 10
502200.78
 20
8894872.00
 40
1000.00
  1
-10
  0
TEXT
  8
1LIZ_GRD
 10
505772.91
 20
8895556.00
 40
1000.00
  1
o
  0
TEXT
  8
1LIZ_GRD
 10
506874.94
 20
8894872.00
 40
1000.00
  1
00'
  0
TEXT
  8
1LIZ_GRD
 10
496196.59
 20
8892553.00
 40
1000.00
  1
o
  0
TEXT
  8
1LIZ_GRD
 10
497716.63
 20
8892591.00
 40
1000.00
  1
45
  0
TEXT
  8
1LIZ_GRD
 10
500224.72
 20
8893580.00
 40
1000.00
  1
o
  0
TEXT
  8
1LIZ_GRD
 10
501098.75
 20
8892515.00
 40
1000.00
  1
00'
  0
TEXT
  8
1LIZ_GRD
 10
502294.19
 20
9020227.00
 40
1000.00
  1
20
  0
ENDSEC
  0
EOF
