  0
SECTION
  2
HEADER
  9
$EXTMIN
 10
159159.63           
 20
8666734.00          
  9
$EXTMAX
 10
509400.97           
 20
8898750.00          
  9
$LUPREC
 70
     7
  0
ENDSEC
  0
SECTION
  2
ENTITIES
  0
LINE
  8
0JAL_GRAD
 10
171195.30
 20
8880000.00
 11
500000.00
 21
8880000.00
  0
LINE
  8
0JAL_GRAD
 10
171386.67
 20
8860000.00
 11
500000.00
 21
8860000.00
  0
LINE
  8
0JAL_GRAD
 10
171578.03
 20
8840000.00
 11
500000.00
 21
8840000.00
  0
LINE
  8
0JAL_GRAD
 10
171960.78
 20
8800000.00
 11
500000.00
 21
8800000.00
  0
LINE
  8
0JAL_GRAD
 10
171769.41
 20
8820000.00
 11
500000.00
 21
8820000.00
  0
LINE
  8
0JAL_GRAD
 10
172152.27
 20
8780000.00
 11
500000.00
 21
8780000.00
  0
LINE
  8
0JAL_GRAD
 10
172361.23
 20
8760000.00
 11
500000.00
 21
8760000.00
  0
LINE
  8
0JAL_GRAD
 10
172570.20
 20
8740000.00
 11
500000.00
 21
8740000.00
  0
LINE
  8
0JAL_GRAD
 10
172779.17
 20
8720000.00
 11
500000.00
 21
8720000.00
  0
LINE
  8
0JAL_GRAD
 10
172988.14
 20
8700000.00
 11
500000.00
 21
8700000.00
  0
LINE
  8
0JAL_GRAD
 10
173197.11
 20
8680000.00
 11
500000.00
 21
8680000.00
  0
LINE
  8
0JAL_GRAD
 10
180000.00
 20
8671717.00
 11
180000.00
 21
8893148.00
  0
LINE
  8
0JAL_GRAD
 10
200000.00
 20
8671881.00
 11
200000.00
 21
8893283.00
  0
LINE
  8
0JAL_GRAD
 10
220000.00
 20
8672044.00
 11
220000.00
 21
8893419.00
  0
LINE
  8
0JAL_GRAD
 10
240000.00
 20
8672207.00
 11
240000.00
 21
8893554.00
  0
LINE
  8
0JAL_GRAD
 10
260000.00
 20
8672371.00
 11
260000.00
 21
8893690.00
  0
LINE
  8
0JAL_GRAD
 10
280000.00
 20
8672534.00
 11
280000.00
 21
8893825.00
  0
LINE
  8
0JAL_GRAD
 10
300000.00
 20
8672697.00
 11
300000.00
 21
8893961.00
  0
LINE
  8
0JAL_GRAD
 10
320000.00
 20
8672861.00
 11
320000.00
 21
8894096.00
  0
LINE
  8
0JAL_GRAD
 10
340000.00
 20
8673006.00
 11
340000.00
 21
8894220.00
  0
LINE
  8
0JAL_GRAD
 10
360000.00
 20
8673061.00
 11
360000.00
 21
8894265.00
  0
LINE
  8
0JAL_GRAD
 10
380000.00
 20
8673115.00
 11
380000.00
 21
8894311.00
  0
LINE
  8
0JAL_GRAD
 10
400000.00
 20
8673170.00
 11
400000.00
 21
8894356.00
  0
LINE
  8
0JAL_GRAD
 10
420000.00
 20
8673224.00
 11
420000.00
 21
8894402.00
  0
LINE
  8
0JAL_GRAD
 10
440000.00
 20
8673278.00
 11
440000.00
 21
8894447.00
  0
LINE
  8
0JAL_GRAD
 10
460000.00
 20
8673333.00
 11
460000.00
 21
8894493.00
  0
LINE
  8
0JAL_GRAD
 10
480000.00
 20
8673387.00
 11
480000.00
 21
8894538.00
  0
LINE
  8
0JAL_GRAD
 10
500000.00
 20
8673442.00
 11
500000.00
 21
8894584.00
  0
TEXT
  8
1JAL_GRAD
 10
177965.86
 20
8669674.00
 40
1000.00
  1
  180 kmE
  0
TEXT
  8
1JAL_GRAD
 10
177724.52
 20
8894465.00
 40
1000.00
  1
  180 kmE
  0
TEXT
  8
1JAL_GRAD
 10
159159.63
 20
8890932.00
 40
1000.00
  1
s -10
  0
TEXT
  8
1JAL_GRAD
 10
168863.33
 20
8672734.00
 40
1000.00
  1
00'
  0
TEXT
  8
1JAL_GRAD
 10
167671.77
 20
8667229.00
 40
1000.00
  1
o 48
  0
TEXT
  8
1JAL_GRAD
 10
165468.92
 20
8679499.00
 40
1000.00
  1
 8680 kmN
  0
TEXT
  8
1JAL_GRAD
 10
161462.97
 20
8672663.00
 40
1000.00
  1
s -12
  0
TEXT
  8
1JAL_GRAD
 10
167713.45
 20
8673347.00
 40
1000.00
  1
o
  0
TEXT
  8
1JAL_GRAD
 10
165468.92
 20
8699499.00
 40
1000.00
  1
 8700
  0
TEXT
  8
1JAL_GRAD
 10
165468.92
 20
8719499.00
 40
1000.00
  1
 8720
  0
TEXT
  8
1JAL_GRAD
 10
165468.92
 20
8739499.00
 40
1000.00
  1
 8740
  0
TEXT
  8
1JAL_GRAD
 10
165468.92
 20
8759499.00
 40
1000.00
  1
 8760
  0
TEXT
  8
1JAL_GRAD
 10
165468.92
 20
8779499.00
 40
1000.00
  1
 8780
  0
TEXT
  8
1JAL_GRAD
 10
162776.34
 20
8879499.00
 40
1000.00
  1
 8880 kmN
  0
TEXT
  8
1JAL_GRAD
 10
165624.03
 20
8891765.00
 40
1000.00
  1
o
  0
TEXT
  8
1JAL_GRAD
 10
166936.97
 20
8891056.00
 40
1000.00
  1
00'
  0
TEXT
  8
1JAL_GRAD
 10
165963.23
 20
8894264.00
 40
1000.00
  1
o 48
  0
TEXT
  8
1JAL_GRAD
 10
165468.92
 20
8799499.00
 40
1000.00
  1
 8800
  0
TEXT
  8
1JAL_GRAD
 10
165468.92
 20
8819499.00
 40
1000.00
  1
 8820
  0
TEXT
  8
1JAL_GRAD
 10
165468.92
 20
8839499.00
 40
1000.00
  1
 8840
  0
TEXT
  8
1JAL_GRAD
 10
165468.92
 20
8859499.00
 40
1000.00
  1
 8860
  0
TEXT
  8
1JAL_GRAD
 10
174076.11
 20
8667289.00
 40
1000.00
  1
00'
  0
TEXT
  8
1JAL_GRAD
 10
172849.56
 20
8667902.00
 40
1000.00
  1
o
  0
TEXT
  8
1JAL_GRAD
 10
172468.77
 20
8894322.00
 40
1000.00
  1
00'
  0
TEXT
  8
1JAL_GRAD
 10
171201.55
 20
8895161.00
 40
1000.00
  1
o
  0
TEXT
  8
1JAL_GRAD
 10
197965.86
 20
8669674.00
 40
1000.00
  1
  200
  0
TEXT
  8
1JAL_GRAD
 10
197724.52
 20
8894465.00
 40
1000.00
  1
  200
  0
TEXT
  8
1JAL_GRAD
 10
217965.86
 20
8669674.00
 40
1000.00
  1
  220
  0
TEXT
  8
1JAL_GRAD
 10
217724.52
 20
8894465.00
 40
1000.00
  1
  220
  0
TEXT
  8
1JAL_GRAD
 10
237965.86
 20
8669674.00
 40
1000.00
  1
  240
  0
TEXT
  8
1JAL_GRAD
 10
237724.52
 20
8894465.00
 40
1000.00
  1
  240
  0
TEXT
  8
1JAL_GRAD
 10
257965.86
 20
8669674.00
 40
1000.00
  1
  260
  0
TEXT
  8
1JAL_GRAD
 10
257724.52
 20
8895839.00
 40
1000.00
  1
  260
  0
TEXT
  8
1JAL_GRAD
 10
277965.88
 20
8669674.00
 40
1000.00
  1
  280
  0
TEXT
  8
1JAL_GRAD
 10
277724.50
 20
8895839.00
 40
1000.00
  1
  280
  0
TEXT
  8
1JAL_GRAD
 10
297965.88
 20
8669674.00
 40
1000.00
  1
  300
  0
TEXT
  8
1JAL_GRAD
 10
297724.50
 20
8895839.00
 40
1000.00
  1
  300
  0
TEXT
  8
1JAL_GRAD
 10
317965.88
 20
8669674.00
 40
1000.00
  1
  320
  0
TEXT
  8
1JAL_GRAD
 10
317724.50
 20
8895839.00
 40
1000.00
  1
  320
  0
TEXT
  8
1JAL_GRAD
 10
337965.88
 20
8669674.00
 40
1000.00
  1
  340
  0
TEXT
  8
1JAL_GRAD
 10
337724.50
 20
8895839.00
 40
1000.00
  1
  340
  0
TEXT
  8
1JAL_GRAD
 10
357965.88
 20
8669674.00
 40
1000.00
  1
  360
  0
TEXT
  8
1JAL_GRAD
 10
357724.50
 20
8895839.00
 40
1000.00
  1
  360
  0
TEXT
  8
1JAL_GRAD
 10
377965.88
 20
8669674.00
 40
1000.00
  1
  380
  0
TEXT
  8
1JAL_GRAD
 10
377724.50
 20
8895839.00
 40
1000.00
  1
  380
  0
TEXT
  8
1JAL_GRAD
 10
397965.88
 20
8669674.00
 40
1000.00
  1
  400
  0
TEXT
  8
1JAL_GRAD
 10
397724.50
 20
8895839.00
 40
1000.00
  1
  400
  0
TEXT
  8
1JAL_GRAD
 10
417965.88
 20
8669674.00
 40
1000.00
  1
  420
  0
TEXT
  8
1JAL_GRAD
 10
417724.53
 20
8895839.00
 40
1000.00
  1
  420
  0
TEXT
  8
1JAL_GRAD
 10
508243.56
 20
8675178.00
 40
1000.00
  1
o
  0
TEXT
  8
1JAL_GRAD
 10
437965.88
 20
8669674.00
 40
1000.00
  1
  440
  0
TEXT
  8
1JAL_GRAD
 10
437724.53
 20
8895839.00
 40
1000.00
  1
  440
  0
TEXT
  8
1JAL_GRAD
 10
457965.88
 20
8669674.00
 40
1000.00
  1
  460
  0
TEXT
  8
1JAL_GRAD
 10
457724.53
 20
8895839.00
 40
1000.00
  1
  460
  0
TEXT
  8
1JAL_GRAD
 10
477965.88
 20
8669674.00
 40
1000.00
  1
  480
  0
TEXT
  8
1JAL_GRAD
 10
477724.53
 20
8895839.00
 40
1000.00
  1
  480
  0
TEXT
  8
1JAL_GRAD
 10
494551.34
 20
8897853.00
 40
1000.00
  1
o 45
  0
TEXT
  8
1JAL_GRAD
 10
494534.00
 20
8666738.00
 40
1000.00
  1
o 45
  0
TEXT
  8
1JAL_GRAD
 10
500831.56
 20
8666734.00
 40
1000.00
  1
00'
  0
TEXT
  8
1JAL_GRAD
 10
501776.06
 20
8674345.00
 40
1000.00
  1
s -12
  0
TEXT
  8
1JAL_GRAD
 10
500998.53
 20
8679505.00
 40
1000.00
  1
 8680 kmN
  0
TEXT
  8
1JAL_GRAD
 10
500998.53
 20
8779505.00
 40
1000.00
  1
 8780
  0
TEXT
  8
1JAL_GRAD
 10
500998.53
 20
8759505.00
 40
1000.00
  1
 8760
  0
TEXT
  8
1JAL_GRAD
 10
500998.53
 20
8739505.00
 40
1000.00
  1
 8740
  0
TEXT
  8
1JAL_GRAD
 10
500998.53
 20
8719505.00
 40
1000.00
  1
 8720
  0
TEXT
  8
1JAL_GRAD
 10
500998.53
 20
8699505.00
 40
1000.00
  1
 8700
  0
TEXT
  8
1JAL_GRAD
 10
499715.53
 20
8667635.00
 40
1000.00
  1
o
  0
TEXT
  8
1JAL_GRAD
 10
497965.88
 20
8669674.00
 40
1000.00
  1
  500 kmE
  0
TEXT
  8
1JAL_GRAD
 10
501160.44
 20
8897877.00
 40
1000.00
  1
00'
  0
TEXT
  8
1JAL_GRAD
 10
501096.50
 20
8892166.00
 40
1000.00
  1
s -10
  0
TEXT
  8
1JAL_GRAD
 10
500998.53
 20
8879505.00
 40
1000.00
  1
 8880 kmN
  0
TEXT
  8
1JAL_GRAD
 10
500998.53
 20
8859505.00
 40
1000.00
  1
 8860
  0
TEXT
  8
1JAL_GRAD
 10
500998.53
 20
8839505.00
 40
1000.00
  1
 8840
  0
TEXT
  8
1JAL_GRAD
 10
500998.53
 20
8819505.00
 40
1000.00
  1
 8820
  0
TEXT
  8
1JAL_GRAD
 10
500998.53
 20
8799505.00
 40
1000.00
  1
 8800
  0
TEXT
  8
1JAL_GRAD
 10
499944.06
 20
8898750.00
 40
1000.00
  1
o
  0
TEXT
  8
1JAL_GRAD
 10
497211.66
 20
8895618.00
 40
1000.00
  1
  500 kmE
  0
TEXT
  8
1JAL_GRAD
 10
507409.38
 20
8892999.00
 40
1000.00
  1
o
  0
TEXT
  8
1JAL_GRAD
 10
509400.97
 20
8674379.00
 40
1000.00
  1
00'
  0
TEXT
  8
1JAL_GRAD
 10
509136.56
 20
8892147.00
 40
1000.00
  1
00'
  0
ENDSEC
  0
EOF
