  0
SECTION
  2
HEADER
  9
$EXTMIN
 10
167384.00           
 20
9335866.00          
  9
$EXTMAX
 10
225182.59           
 20
9406837.00          
  9
$LUPREC
 70
     7
  0
ENDSEC
  0
SECTION
  2
ENTITIES
  0
POLYLINE
  8
0IMP_ROD
 66
     1
  0
VERTEX
  8
0IMP_ROD
 10
181635.73
 20
9406837.00
  0
VERTEX
  8
0IMP_ROD
 10
180806.45
 20
9405926.00
  0
VERTEX
  8
0IMP_ROD
 10
180809.50
 20
9405800.00
  0
VERTEX
  8
0IMP_ROD
 10
180812.55
 20
9405674.00
  0
VERTEX
  8
0IMP_ROD
 10
180815.59
 20
9405548.00
  0
VERTEX
  8
0IMP_ROD
 10
180942.03
 20
9405550.00
  0
VERTEX
  8
0IMP_ROD
 10
180945.08
 20
9405425.00
  0
VERTEX
  8
0IMP_ROD
 10
180948.13
 20
9405299.00
  0
VERTEX
  8
0IMP_ROD
 10
180951.17
 20
9405173.00
  0
VERTEX
  8
0IMP_ROD
 10
180954.22
 20
9405047.00
  0
VERTEX
  8
0IMP_ROD
 10
180957.27
 20
9404921.00
  0
VERTEX
  8
0IMP_ROD
 10
180960.31
 20
9404795.00
  0
VERTEX
  8
0IMP_ROD
 10
180963.36
 20
9404669.00
  0
VERTEX
  8
0IMP_ROD
 10
180966.41
 20
9404543.00
  0
VERTEX
  8
0IMP_ROD
 10
180969.45
 20
9404417.00
  0
VERTEX
  8
0IMP_ROD
 10
180972.50
 20
9404291.00
  0
VERTEX
  8
0IMP_ROD
 10
180975.55
 20
9404165.00
  0
VERTEX
  8
0IMP_ROD
 10
180978.59
 20
9404039.00
  0
VERTEX
  8
0IMP_ROD
 10
180981.64
 20
9403913.00
  0
VERTEX
  8
0IMP_ROD
 10
180984.69
 20
9403787.00
  0
VERTEX
  8
0IMP_ROD
 10
180987.73
 20
9403661.00
  0
VERTEX
  8
0IMP_ROD
 10
180990.78
 20
9403535.00
  0
VERTEX
  8
0IMP_ROD
 10
181120.28
 20
9403411.00
  0
VERTEX
  8
0IMP_ROD
 10
181121.92
 20
9403344.00
  0
SEQEND
  8
0IMP_ROD
  0
POLYLINE
  8
0IMP_ROD
 66
     1
  0
VERTEX
  8
0IMP_ROD
 10
181667.95
 20
9401659.00
  0
VERTEX
  8
0IMP_ROD
 10
181671.75
 20
9401532.00
  0
VERTEX
  8
0IMP_ROD
 10
181801.25
 20
9401409.00
  0
VERTEX
  8
0IMP_ROD
 10
181807.34
 20
9401157.00
  0
VERTEX
  8
0IMP_ROD
 10
181936.84
 20
9401033.00
  0
VERTEX
  8
0IMP_ROD
 10
182063.27
 20
9401036.00
  0
VERTEX
  8
0IMP_ROD
 10
182066.31
 20
9400910.00
  0
VERTEX
  8
0IMP_ROD
 10
182325.28
 20
9400663.00
  0
VERTEX
  8
0IMP_ROD
 10
182328.33
 20
9400537.00
  0
VERTEX
  8
0IMP_ROD
 10
182334.42
 20
9400285.00
  0
VERTEX
  8
0IMP_ROD
 10
182593.42
 20
9400038.00
  0
VERTEX
  8
0IMP_ROD
 10
182725.94
 20
9399789.00
  0
VERTEX
  8
0IMP_ROD
 10
182729.00
 20
9399663.00
  0
VERTEX
  8
0IMP_ROD
 10
182734.73
 20
9399425.00
  0
SEQEND
  8
0IMP_ROD
  0
LINE
  8
0IMP_ROD
 10
182734.73
 20
9399425.00
 11
182712.50
 21
9398905.00
  0
LINE
  8
0IMP_ROD
 10
183099.39
 20
9398788.00
 11
182712.50
 21
9398905.00
  0
POLYLINE
  8
0IMP_ROD
 66
     1
  0
VERTEX
  8
0IMP_ROD
 10
182712.50
 20
9398905.00
  0
VERTEX
  8
0IMP_ROD
 10
182494.41
 20
9398902.00
  0
VERTEX
  8
0IMP_ROD
 10
182342.80
 20
9398744.00
  0
SEQEND
  8
0IMP_ROD
  0
LINE
  8
0IMP_ROD
 10
167383.97
 20
9401245.00
 11
172352.88
 21
9398737.00
  0
POLYLINE
  8
0IMP_ROD
 66
     1
  0
VERTEX
  8
0IMP_ROD
 10
187722.63
 20
9402410.00
  0
VERTEX
  8
0IMP_ROD
 10
187596.19
 20
9402407.00
  0
VERTEX
  8
0IMP_ROD
 10
187599.25
 20
9402281.00
  0
VERTEX
  8
0IMP_ROD
 10
187602.30
 20
9402155.00
  0
VERTEX
  8
0IMP_ROD
 10
187605.34
 20
9402029.00
  0
VERTEX
  8
0IMP_ROD
 10
187608.39
 20
9401903.00
  0
VERTEX
  8
0IMP_ROD
 10
187611.44
 20
9401777.00
  0
VERTEX
  8
0IMP_ROD
 10
187617.53
 20
9401526.00
  0
VERTEX
  8
0IMP_ROD
 10
187623.63
 20
9401274.00
  0
VERTEX
  8
0IMP_ROD
 10
187629.72
 20
9401022.00
  0
VERTEX
  8
0IMP_ROD
 10
187632.77
 20
9400896.00
  0
VERTEX
  8
0IMP_ROD
 10
187635.81
 20
9400770.00
  0
VERTEX
  8
0IMP_ROD
 10
187638.86
 20
9400644.00
  0
VERTEX
  8
0IMP_ROD
 10
187641.91
 20
9400518.00
  0
VERTEX
  8
0IMP_ROD
 10
187644.95
 20
9400392.00
  0
VERTEX
  8
0IMP_ROD
 10
187518.50
 20
9400389.00
  0
VERTEX
  8
0IMP_ROD
 10
187392.06
 20
9400387.00
  0
VERTEX
  8
0IMP_ROD
 10
187142.23
 20
9400256.00
  0
VERTEX
  8
0IMP_ROD
 10
187015.80
 20
9400253.00
  0
VERTEX
  8
0IMP_ROD
 10
186762.91
 20
9400248.00
  0
VERTEX
  8
0IMP_ROD
 10
186639.52
 20
9400120.00
  0
VERTEX
  8
0IMP_ROD
 10
186645.61
 20
9399868.00
  0
VERTEX
  8
0IMP_ROD
 10
186522.22
 20
9399739.00
  0
VERTEX
  8
0IMP_ROD
 10
186528.31
 20
9399487.00
  0
VERTEX
  8
0IMP_ROD
 10
186407.97
 20
9399233.00
  0
VERTEX
  8
0IMP_ROD
 10
186411.02
 20
9399107.00
  0
VERTEX
  8
0IMP_ROD
 10
186414.08
 20
9398981.00
  0
VERTEX
  8
0IMP_ROD
 10
186287.63
 20
9398978.00
  0
VERTEX
  8
0IMP_ROD
 10
186161.17
 20
9398976.00
  0
VERTEX
  8
0IMP_ROD
 10
185914.39
 20
9398719.00
  0
VERTEX
  8
0IMP_ROD
 10
185661.52
 20
9398714.00
  0
VERTEX
  8
0IMP_ROD
 10
185535.06
 20
9398711.00
  0
VERTEX
  8
0IMP_ROD
 10
185408.64
 20
9398708.00
  0
VERTEX
  8
0IMP_ROD
 10
185282.19
 20
9398706.00
  0
VERTEX
  8
0IMP_ROD
 10
185155.77
 20
9398703.00
  0
VERTEX
  8
0IMP_ROD
 10
185029.31
 20
9398701.00
  0
VERTEX
  8
0IMP_ROD
 10
184902.86
 20
9398698.00
  0
VERTEX
  8
0IMP_ROD
 10
184776.44
 20
9398696.00
  0
VERTEX
  8
0IMP_ROD
 10
184649.98
 20
9398693.00
  0
VERTEX
  8
0IMP_ROD
 10
184523.56
 20
9398691.00
  0
VERTEX
  8
0IMP_ROD
 10
184270.66
 20
9398686.00
  0
VERTEX
  8
0IMP_ROD
 10
184141.19
 20
9398809.00
  0
VERTEX
  8
0IMP_ROD
 10
184014.73
 20
9398806.00
  0
VERTEX
  8
0IMP_ROD
 10
183888.30
 20
9398804.00
  0
VERTEX
  8
0IMP_ROD
 10
183761.86
 20
9398801.00
  0
VERTEX
  8
0IMP_ROD
 10
183635.41
 20
9398799.00
  0
VERTEX
  8
0IMP_ROD
 10
183508.97
 20
9398796.00
  0
VERTEX
  8
0IMP_ROD
 10
183256.09
 20
9398791.00
  0
VERTEX
  8
0IMP_ROD
 10
183099.39
 20
9398788.00
  0
SEQEND
  8
0IMP_ROD
  0
POLYLINE
  8
0IMP_ROD
 66
     1
  0
VERTEX
  8
0IMP_ROD
 10
182342.80
 20
9398744.00
  0
VERTEX
  8
0IMP_ROD
 10
182247.63
 20
9398645.00
  0
VERTEX
  8
0IMP_ROD
 10
182250.67
 20
9398519.00
  0
VERTEX
  8
0IMP_ROD
 10
181997.78
 20
9398514.00
  0
VERTEX
  8
0IMP_ROD
 10
182000.83
 20
9398388.00
  0
VERTEX
  8
0IMP_ROD
 10
181880.48
 20
9398133.00
  0
VERTEX
  8
0IMP_ROD
 10
181633.70
 20
9397876.00
  0
VERTEX
  8
0IMP_ROD
 10
181510.30
 20
9397748.00
  0
VERTEX
  8
0IMP_ROD
 10
181513.34
 20
9397622.00
  0
VERTEX
  8
0IMP_ROD
 10
181263.52
 20
9397491.00
  0
VERTEX
  8
0IMP_ROD
 10
181266.56
 20
9397365.00
  0
VERTEX
  8
0IMP_ROD
 10
181143.16
 20
9397236.00
  0
VERTEX
  8
0IMP_ROD
 10
181019.78
 20
9397108.00
  0
VERTEX
  8
0IMP_ROD
 10
181022.83
 20
9396982.00
  0
VERTEX
  8
0IMP_ROD
 10
180776.05
 20
9396725.00
  0
VERTEX
  8
0IMP_ROD
 10
180652.64
 20
9396596.00
  0
VERTEX
  8
0IMP_ROD
 10
180529.25
 20
9396468.00
  0
VERTEX
  8
0IMP_ROD
 10
180402.81
 20
9396465.00
  0
VERTEX
  8
0IMP_ROD
 10
180405.86
 20
9396339.00
  0
VERTEX
  8
0IMP_ROD
 10
180279.41
 20
9396337.00
  0
VERTEX
  8
0IMP_ROD
 10
180029.58
 20
9396206.00
  0
VERTEX
  8
0IMP_ROD
 10
180032.63
 20
9396080.00
  0
VERTEX
  8
0IMP_ROD
 10
179909.23
 20
9395951.00
  0
VERTEX
  8
0IMP_ROD
 10
179785.84
 20
9395823.00
  0
VERTEX
  8
0IMP_ROD
 10
179788.89
 20
9395697.00
  0
VERTEX
  8
0IMP_ROD
 10
179662.45
 20
9395694.00
  0
VERTEX
  8
0IMP_ROD
 10
179622.20
 20
9395466.00
  0
SEQEND
  8
0IMP_ROD
  0
POLYLINE
  8
0IMP_ROD
 66
     1
  0
VERTEX
  8
0IMP_ROD
 10
173878.78
 20
9397967.00
  0
VERTEX
  8
0IMP_ROD
 10
178909.91
 20
9395427.00
  0
VERTEX
  8
0IMP_ROD
 10
179282.36
 20
9395286.00
  0
SEQEND
  8
0IMP_ROD
  0
LINE
  8
0IMP_ROD
 10
180288.69
 20
9394986.00
 11
180289.78
 21
9395049.00
  0
LINE
  8
0IMP_ROD
 10
179820.84
 20
9395200.00
 11
180288.69
 21
9394986.00
  0
POLYLINE
  8
0IMP_ROD
 66
     1
  0
VERTEX
  8
0IMP_ROD
 10
180288.69
 20
9394986.00
  0
VERTEX
  8
0IMP_ROD
 10
180383.25
 20
9394952.00
  0
VERTEX
  8
0IMP_ROD
 10
180446.66
 20
9394951.00
  0
VERTEX
  8
0IMP_ROD
 10
180476.72
 20
9394855.00
  0
VERTEX
  8
0IMP_ROD
 10
180540.13
 20
9394854.00
  0
VERTEX
  8
0IMP_ROD
 10
180570.72
 20
9394790.00
  0
VERTEX
  8
0IMP_ROD
 10
180633.58
 20
9394757.00
  0
VERTEX
  8
0IMP_ROD
 10
180664.19
 20
9394693.00
  0
VERTEX
  8
0IMP_ROD
 10
180758.75
 20
9394659.00
  0
VERTEX
  8
0IMP_ROD
 10
180820.52
 20
9394563.00
  0
VERTEX
  8
0IMP_ROD
 10
180883.38
 20
9394530.00
  0
VERTEX
  8
0IMP_ROD
 10
180946.23
 20
9394497.00
  0
VERTEX
  8
0IMP_ROD
 10
181008.53
 20
9394432.00
  0
VERTEX
  8
0IMP_ROD
 10
181071.39
 20
9394400.00
  0
VERTEX
  8
0IMP_ROD
 10
181101.45
 20
9394304.00
  0
VERTEX
  8
0IMP_ROD
 10
181194.92
 20
9394207.00
  0
VERTEX
  8
0IMP_ROD
 10
181289.48
 20
9394173.00
  0
VERTEX
  8
0IMP_ROD
 10
181351.78
 20
9394109.00
  0
VERTEX
  8
0IMP_ROD
 10
181446.34
 20
9394075.00
  0
VERTEX
  8
0IMP_ROD
 10
181540.36
 20
9394010.00
  0
VERTEX
  8
0IMP_ROD
 10
181602.67
 20
9393945.00
  0
VERTEX
  8
0IMP_ROD
 10
181664.98
 20
9393881.00
  0
VERTEX
  8
0IMP_ROD
 10
181727.83
 20
9393848.00
  0
VERTEX
  8
0IMP_ROD
 10
181790.14
 20
9393783.00
  0
VERTEX
  8
0IMP_ROD
 10
181915.31
 20
9393685.00
  0
VERTEX
  8
0IMP_ROD
 10
182007.67
 20
9393525.00
  0
VERTEX
  8
0IMP_ROD
 10
182132.84
 20
9393427.00
  0
VERTEX
  8
0IMP_ROD
 10
182163.45
 20
9393363.00
  0
VERTEX
  8
0IMP_ROD
 10
182226.31
 20
9393330.00
  0
VERTEX
  8
0IMP_ROD
 10
182224.67
 20
9393235.00
  0
VERTEX
  8
0IMP_ROD
 10
182286.44
 20
9393139.00
  0
VERTEX
  8
0IMP_ROD
 10
182317.03
 20
9393075.00
  0
VERTEX
  8
0IMP_ROD
 10
182347.64
 20
9393011.00
  0
VERTEX
  8
0IMP_ROD
 10
182378.25
 20
9392947.00
  0
VERTEX
  8
0IMP_ROD
 10
182440.02
 20
9392850.00
  0
VERTEX
  8
0IMP_ROD
 10
182503.42
 20
9392849.00
  0
VERTEX
  8
0IMP_ROD
 10
182501.78
 20
9392754.00
  0
VERTEX
  8
0IMP_ROD
 10
182564.64
 20
9392721.00
  0
VERTEX
  8
0IMP_ROD
 10
182658.09
 20
9392624.00
  0
VERTEX
  8
0IMP_ROD
 10
182752.11
 20
9392559.00
  0
VERTEX
  8
0IMP_ROD
 10
182814.42
 20
9392494.00
  0
VERTEX
  8
0IMP_ROD
 10
182908.44
 20
9392429.00
  0
VERTEX
  8
0IMP_ROD
 10
182969.66
 20
9392301.00
  0
VERTEX
  8
0IMP_ROD
 10
183094.27
 20
9392171.00
  0
VERTEX
  8
0IMP_ROD
 10
183155.48
 20
9392043.00
  0
VERTEX
  8
0IMP_ROD
 10
183271.17
 20
9391916.00
  0
SEQEND
  8
0IMP_ROD
  0
LINE
  8
0IMP_ROD
 10
183271.17
 20
9391916.00
 11
183585.09
 21
9391593.00
  0
LINE
  8
0IMP_ROD
 10
183585.09
 20
9391593.00
 11
183972.41
 21
9391287.00
  0
POLYLINE
  8
0IMP_ROD
 66
     1
  0
VERTEX
  8
0IMP_ROD
 10
179282.36
 20
9395286.00
  0
VERTEX
  8
0IMP_ROD
 10
178677.48
 20
9395372.00
  0
VERTEX
  8
0IMP_ROD
 10
178615.16
 20
9395353.00
  0
VERTEX
  8
0IMP_ROD
 10
178558.88
 20
9395297.00
  0
VERTEX
  8
0IMP_ROD
 10
178502.63
 20
9395247.00
  0
VERTEX
  8
0IMP_ROD
 10
178458.78
 20
9395191.00
  0
VERTEX
  8
0IMP_ROD
 10
178408.64
 20
9395116.00
  0
VERTEX
  8
0IMP_ROD
 10
178389.69
 20
9395053.00
  0
VERTEX
  8
0IMP_ROD
 10
178345.83
 20
9394991.00
  0
VERTEX
  8
0IMP_ROD
 10
178314.41
 20
9394928.00
  0
VERTEX
  8
0IMP_ROD
 10
178295.39
 20
9394853.00
  0
VERTEX
  8
0IMP_ROD
 10
178270.09
 20
9394766.00
  0
VERTEX
  8
0IMP_ROD
 10
178263.52
 20
9394691.00
  0
VERTEX
  8
0IMP_ROD
 10
178225.91
 20
9394634.00
  0
VERTEX
  8
0IMP_ROD
 10
178213.06
 20
9394547.00
  0
VERTEX
  8
0IMP_ROD
 10
178162.86
 20
9394459.00
  0
VERTEX
  8
0IMP_ROD
 10
178143.92
 20
9394403.00
  0
VERTEX
  8
0IMP_ROD
 10
178100.06
 20
9394341.00
  0
VERTEX
  8
0IMP_ROD
 10
178006.31
 20
9394260.00
  0
VERTEX
  8
0IMP_ROD
 10
177906.44
 20
9394197.00
  0
VERTEX
  8
0IMP_ROD
 10
177831.55
 20
9394154.00
  0
VERTEX
  8
0IMP_ROD
 10
177756.64
 20
9394110.00
  0
VERTEX
  8
0IMP_ROD
 10
177688.11
 20
9394098.00
  0
VERTEX
  8
0IMP_ROD
 10
177600.89
 20
9394079.00
  0
VERTEX
  8
0IMP_ROD
 10
177544.81
 20
9394067.00
  0
VERTEX
  8
0IMP_ROD
 10
177457.64
 20
9394061.00
  0
VERTEX
  8
0IMP_ROD
 10
177401.53
 20
9394042.00
  0
VERTEX
  8
0IMP_ROD
 10
177333.00
 20
9394030.00
  0
VERTEX
  8
0IMP_ROD
 10
177264.39
 20
9393999.00
  0
VERTEX
  8
0IMP_ROD
 10
177170.73
 20
9393937.00
  0
VERTEX
  8
0IMP_ROD
 10
177114.56
 20
9393905.00
  0
VERTEX
  8
0IMP_ROD
 10
177058.38
 20
9393868.00
  0
VERTEX
  8
0IMP_ROD
 10
177008.38
 20
9393824.00
  0
VERTEX
  8
0IMP_ROD
 10
176939.58
 20
9393756.00
  0
VERTEX
  8
0IMP_ROD
 10
176883.33
 20
9393706.00
  0
VERTEX
  8
0IMP_ROD
 10
176820.69
 20
9393618.00
  0
VERTEX
  8
0IMP_ROD
 10
176726.73
 20
9393494.00
  0
VERTEX
  8
0IMP_ROD
 10
176689.08
 20
9393425.00
  0
VERTEX
  8
0IMP_ROD
 10
176620.11
 20
9393319.00
  0
VERTEX
  8
0IMP_ROD
 10
176557.38
 20
9393212.00
  0
VERTEX
  8
0IMP_ROD
 10
176507.28
 20
9393150.00
  0
VERTEX
  8
0IMP_ROD
 10
176463.38
 20
9393075.00
  0
VERTEX
  8
0IMP_ROD
 10
176394.44
 20
9392975.00
  0
VERTEX
  8
0IMP_ROD
 10
176350.61
 20
9392919.00
  0
VERTEX
  8
0IMP_ROD
 10
176275.52
 20
9392832.00
  0
VERTEX
  8
0IMP_ROD
 10
176200.38
 20
9392738.00
  0
VERTEX
  8
0IMP_ROD
 10
176137.94
 20
9392694.00
  0
VERTEX
  8
0IMP_ROD
 10
176069.11
 20
9392619.00
  0
VERTEX
  8
0IMP_ROD
 10
176000.56
 20
9392601.00
  0
VERTEX
  8
0IMP_ROD
 10
175931.86
 20
9392551.00
  0
VERTEX
  8
0IMP_ROD
 10
175863.22
 20
9392514.00
  0
VERTEX
  8
0IMP_ROD
 10
175794.63
 20
9392489.00
  0
VERTEX
  8
0IMP_ROD
 10
175707.23
 20
9392433.00
  0
VERTEX
  8
0IMP_ROD
 10
175626.08
 20
9392383.00
  0
VERTEX
  8
0IMP_ROD
 10
175538.67
 20
9392327.00
  0
VERTEX
  8
0IMP_ROD
 10
175494.70
 20
9392239.00
  0
VERTEX
  8
0IMP_ROD
 10
175438.30
 20
9392158.00
  0
VERTEX
  8
0IMP_ROD
 10
175413.06
 20
9392083.00
  0
VERTEX
  8
0IMP_ROD
 10
175393.95
 20
9391989.00
  0
VERTEX
  8
0IMP_ROD
 10
175362.53
 20
9391927.00
  0
VERTEX
  8
0IMP_ROD
 10
175349.59
 20
9391820.00
  0
VERTEX
  8
0IMP_ROD
 10
175305.59
 20
9391727.00
  0
VERTEX
  8
0IMP_ROD
 10
175255.42
 20
9391646.00
  0
VERTEX
  8
0IMP_ROD
 10
175211.50
 20
9391571.00
  0
VERTEX
  8
0IMP_ROD
 10
175130.30
 20
9391508.00
  0
VERTEX
  8
0IMP_ROD
 10
175074.02
 20
9391452.00
  0
VERTEX
  8
0IMP_ROD
 10
175036.33
 20
9391377.00
  0
VERTEX
  8
0IMP_ROD
 10
174973.81
 20
9391321.00
  0
VERTEX
  8
0IMP_ROD
 10
174929.84
 20
9391233.00
  0
VERTEX
  8
0IMP_ROD
 10
174910.84
 20
9391165.00
  0
VERTEX
  8
0IMP_ROD
 10
174866.95
 20
9391096.00
  0
VERTEX
  8
0IMP_ROD
 10
174816.78
 20
9391015.00
  0
VERTEX
  8
0IMP_ROD
 10
174772.89
 20
9390946.00
  0
VERTEX
  8
0IMP_ROD
 10
174729.00
 20
9390877.00
  0
VERTEX
  8
0IMP_ROD
 10
174660.28
 20
9390821.00
  0
VERTEX
  8
0IMP_ROD
 10
174616.36
 20
9390746.00
  0
VERTEX
  8
0IMP_ROD
 10
174535.27
 20
9390709.00
  0
VERTEX
  8
0IMP_ROD
 10
174447.75
 20
9390628.00
  0
VERTEX
  8
0IMP_ROD
 10
174366.66
 20
9390591.00
  0
VERTEX
  8
0IMP_ROD
 10
174266.92
 20
9390560.00
  0
VERTEX
  8
0IMP_ROD
 10
174173.41
 20
9390529.00
  0
VERTEX
  8
0IMP_ROD
 10
174092.25
 20
9390479.00
  0
VERTEX
  8
0IMP_ROD
 10
174017.36
 20
9390435.00
  0
VERTEX
  8
0IMP_ROD
 10
173998.38
 20
9390366.00
  0
VERTEX
  8
0IMP_ROD
 10
173954.39
 20
9390279.00
  0
VERTEX
  8
0IMP_ROD
 10
173935.28
 20
9390185.00
  0
VERTEX
  8
0IMP_ROD
 10
173897.48
 20
9390085.00
  0
VERTEX
  8
0IMP_ROD
 10
173847.22
 20
9389985.00
  0
VERTEX
  8
0IMP_ROD
 10
173809.55
 20
9389916.00
  0
VERTEX
  8
0IMP_ROD
 10
173722.00
 20
9389829.00
  0
VERTEX
  8
0IMP_ROD
 10
173678.09
 20
9389754.00
  0
VERTEX
  8
0IMP_ROD
 10
173621.78
 20
9389692.00
  0
VERTEX
  8
0IMP_ROD
 10
173577.89
 20
9389623.00
  0
VERTEX
  8
0IMP_ROD
 10
173509.13
 20
9389561.00
  0
VERTEX
  8
0IMP_ROD
 10
173434.20
 20
9389511.00
  0
VERTEX
  8
0IMP_ROD
 10
173396.59
 20
9389454.00
  0
VERTEX
  8
0IMP_ROD
 10
173386.30
 20
9389302.00
  0
SEQEND
  8
0IMP_ROD
  0
LINE
  8
0IMP_ROD
 10
173386.30
 20
9389302.00
 11
173125.89
 21
9388984.00
  0
LINE
  8
0IMP_ROD
 10
173125.89
 20
9388984.00
 11
172739.25
 21
9388775.00
  0
POLYLINE
  8
0IMP_ROD
 66
     1
  0
VERTEX
  8
0IMP_ROD
 10
172739.25
 20
9388775.00
  0
VERTEX
  8
0IMP_ROD
 10
172315.28
 20
9388488.00
  0
VERTEX
  8
0IMP_ROD
 10
172259.00
 20
9388431.00
  0
VERTEX
  8
0IMP_ROD
 10
172184.06
 20
9388382.00
  0
VERTEX
  8
0IMP_ROD
 10
172127.80
 20
9388325.00
  0
VERTEX
  8
0IMP_ROD
 10
172052.86
 20
9388276.00
  0
VERTEX
  8
0IMP_ROD
 10
171965.52
 20
9388232.00
  0
VERTEX
  8
0IMP_ROD
 10
171878.17
 20
9388189.00
  0
VERTEX
  8
0IMP_ROD
 10
171821.98
 20
9388151.00
  0
VERTEX
  8
0IMP_ROD
 10
171728.52
 20
9388133.00
  0
VERTEX
  8
0IMP_ROD
 10
171622.53
 20
9388095.00
  0
VERTEX
  8
0IMP_ROD
 10
171535.22
 20
9388058.00
  0
VERTEX
  8
0IMP_ROD
 10
171472.89
 20
9388039.00
  0
VERTEX
  8
0IMP_ROD
 10
171366.89
 20
9388002.00
  0
VERTEX
  8
0IMP_ROD
 10
171302.53
 20
9387991.00
  0
SEQEND
  8
0IMP_ROD
  0
POLYLINE
  8
0IMP_ROD
 66
     1
  0
VERTEX
  8
0IMP_ROD
 10
223357.22
 20
9387158.00
  0
VERTEX
  8
0IMP_ROD
 10
223213.84
 20
9387114.00
  0
VERTEX
  8
0IMP_ROD
 10
223157.72
 20
9387090.00
  0
VERTEX
  8
0IMP_ROD
 10
223089.20
 20
9387083.00
  0
VERTEX
  8
0IMP_ROD
 10
223033.19
 20
9387084.00
  0
VERTEX
  8
0IMP_ROD
 10
222977.17
 20
9387084.00
  0
VERTEX
  8
0IMP_ROD
 10
222914.92
 20
9387084.00
  0
VERTEX
  8
0IMP_ROD
 10
222858.91
 20
9387084.00
  0
VERTEX
  8
0IMP_ROD
 10
222771.77
 20
9387084.00
  0
VERTEX
  8
0IMP_ROD
 10
222715.73
 20
9387084.00
  0
VERTEX
  8
0IMP_ROD
 10
222641.05
 20
9387085.00
  0
VERTEX
  8
0IMP_ROD
 10
222578.77
 20
9387079.00
  0
VERTEX
  8
0IMP_ROD
 10
222522.75
 20
9387079.00
  0
VERTEX
  8
0IMP_ROD
 10
222466.67
 20
9387066.00
  0
VERTEX
  8
0IMP_ROD
 10
222405.52
 20
9387054.00
  0
SEQEND
  8
0IMP_ROD
  0
POLYLINE
  8
0IMP_ROD
 66
     1
  0
VERTEX
  8
0IMP_ROD
 10
220683.94
 20
9386758.00
  0
VERTEX
  8
0IMP_ROD
 10
220666.34
 20
9386759.00
  0
VERTEX
  8
0IMP_ROD
 10
220610.25
 20
9386746.00
  0
VERTEX
  8
0IMP_ROD
 10
220529.34
 20
9386746.00
  0
VERTEX
  8
0IMP_ROD
 10
220448.42
 20
9386747.00
  0
VERTEX
  8
0IMP_ROD
 10
220379.95
 20
9386747.00
  0
VERTEX
  8
0IMP_ROD
 10
220305.25
 20
9386747.00
  0
VERTEX
  8
0IMP_ROD
 10
220230.56
 20
9386747.00
  0
VERTEX
  8
0IMP_ROD
 10
220168.31
 20
9386747.00
  0
VERTEX
  8
0IMP_ROD
 10
220093.66
 20
9386754.00
  0
VERTEX
  8
0IMP_ROD
 10
220012.80
 20
9386767.00
  0
VERTEX
  8
0IMP_ROD
 10
219938.13
 20
9386773.00
  0
VERTEX
  8
0IMP_ROD
 10
219882.09
 20
9386773.00
  0
VERTEX
  8
0IMP_ROD
 10
219807.41
 20
9386773.00
  0
VERTEX
  8
0IMP_ROD
 10
219745.17
 20
9386774.00
  0
VERTEX
  8
0IMP_ROD
 10
219682.89
 20
9386767.00
  0
VERTEX
  8
0IMP_ROD
 10
219626.88
 20
9386768.00
  0
VERTEX
  8
0IMP_ROD
 10
219570.81
 20
9386762.00
  0
VERTEX
  8
0IMP_ROD
 10
219514.73
 20
9386749.00
  0
VERTEX
  8
0IMP_ROD
 10
219458.55
 20
9386712.00
  0
VERTEX
  8
0IMP_ROD
 10
219396.16
 20
9386681.00
  0
VERTEX
  8
0IMP_ROD
 10
219327.42
 20
9386625.00
  0
VERTEX
  8
0IMP_ROD
 10
219264.98
 20
9386581.00
  0
VERTEX
  8
0IMP_ROD
 10
219208.81
 20
9386550.00
  0
VERTEX
  8
0IMP_ROD
 10
219152.59
 20
9386506.00
  0
VERTEX
  8
0IMP_ROD
 10
219071.33
 20
9386431.00
  0
VERTEX
  8
0IMP_ROD
 10
218996.58
 20
9386419.00
  0
VERTEX
  8
0IMP_ROD
 10
218940.38
 20
9386382.00
  0
VERTEX
  8
0IMP_ROD
 10
218859.08
 20
9386300.00
  0
VERTEX
  8
0IMP_ROD
 10
218784.19
 20
9386257.00
  0
VERTEX
  8
0IMP_ROD
 10
218740.27
 20
9386182.00
  0
VERTEX
  8
0IMP_ROD
 10
218658.95
 20
9386095.00
  0
VERTEX
  8
0IMP_ROD
 10
218584.05
 20
9386051.00
  0
VERTEX
  8
0IMP_ROD
 10
218552.67
 20
9385995.00
  0
VERTEX
  8
0IMP_ROD
 10
218496.45
 20
9385951.00
  0
VERTEX
  8
0IMP_ROD
 10
218440.25
 20
9385914.00
  0
VERTEX
  8
0IMP_ROD
 10
218377.89
 20
9385889.00
  0
VERTEX
  8
0IMP_ROD
 10
218321.84
 20
9385883.00
  0
VERTEX
  8
0IMP_ROD
 10
218265.80
 20
9385877.00
  0
VERTEX
  8
0IMP_ROD
 10
218203.55
 20
9385877.00
  0
VERTEX
  8
0IMP_ROD
 10
218147.52
 20
9385877.00
  0
VERTEX
  8
0IMP_ROD
 10
218079.05
 20
9385877.00
  0
VERTEX
  8
0IMP_ROD
 10
218023.03
 20
9385877.00
  0
VERTEX
  8
0IMP_ROD
 10
217935.89
 20
9385878.00
  0
VERTEX
  8
0IMP_ROD
 10
217848.75
 20
9385878.00
  0
VERTEX
  8
0IMP_ROD
 10
217749.16
 20
9385878.00
  0
VERTEX
  8
0IMP_ROD
 10
217668.23
 20
9385878.00
  0
VERTEX
  8
0IMP_ROD
 10
217587.31
 20
9385879.00
  0
VERTEX
  8
0IMP_ROD
 10
217518.84
 20
9385879.00
  0
VERTEX
  8
0IMP_ROD
 10
217450.38
 20
9385879.00
  0
VERTEX
  8
0IMP_ROD
 10
217363.27
 20
9385885.00
  0
VERTEX
  8
0IMP_ROD
 10
217276.17
 20
9385898.00
  0
VERTEX
  8
0IMP_ROD
 10
217201.53
 20
9385911.00
  0
VERTEX
  8
0IMP_ROD
 10
217133.13
 20
9385924.00
  0
VERTEX
  8
0IMP_ROD
 10
217052.20
 20
9385924.00
  0
VERTEX
  8
0IMP_ROD
 10
216983.73
 20
9385924.00
  0
VERTEX
  8
0IMP_ROD
 10
216909.05
 20
9385924.00
  0
VERTEX
  8
0IMP_ROD
 10
216821.91
 20
9385924.00
  0
VERTEX
  8
0IMP_ROD
 10
216728.53
 20
9385925.00
  0
VERTEX
  8
0IMP_ROD
 10
216635.16
 20
9385925.00
  0
VERTEX
  8
0IMP_ROD
 10
216566.69
 20
9385925.00
  0
VERTEX
  8
0IMP_ROD
 10
216479.52
 20
9385919.00
  0
VERTEX
  8
0IMP_ROD
 10
216404.83
 20
9385919.00
  0
VERTEX
  8
0IMP_ROD
 10
216336.36
 20
9385920.00
  0
VERTEX
  8
0IMP_ROD
 10
216242.98
 20
9385920.00
  0
VERTEX
  8
0IMP_ROD
 10
216174.52
 20
9385920.00
  0
VERTEX
  8
0IMP_ROD
 10
216087.38
 20
9385920.00
  0
VERTEX
  8
0IMP_ROD
 10
216012.70
 20
9385927.00
  0
VERTEX
  8
0IMP_ROD
 10
215938.02
 20
9385927.00
  0
VERTEX
  8
0IMP_ROD
 10
215863.31
 20
9385927.00
  0
VERTEX
  8
0IMP_ROD
 10
215782.42
 20
9385934.00
  0
VERTEX
  8
0IMP_ROD
 10
215701.52
 20
9385934.00
  0
VERTEX
  8
0IMP_ROD
 10
215639.27
 20
9385934.00
  0
VERTEX
  8
0IMP_ROD
 10
215577.02
 20
9385934.00
  0
VERTEX
  8
0IMP_ROD
 10
215521.00
 20
9385934.00
  0
VERTEX
  8
0IMP_ROD
 10
215452.53
 20
9385934.00
  0
VERTEX
  8
0IMP_ROD
 10
215365.39
 20
9385935.00
  0
VERTEX
  8
0IMP_ROD
 10
215290.69
 20
9385935.00
  0
VERTEX
  8
0IMP_ROD
 10
215203.55
 20
9385935.00
  0
VERTEX
  8
0IMP_ROD
 10
215122.63
 20
9385935.00
  0
VERTEX
  8
0IMP_ROD
 10
215047.94
 20
9385936.00
  0
VERTEX
  8
0IMP_ROD
 10
214991.83
 20
9385917.00
  0
VERTEX
  8
0IMP_ROD
 10
214910.83
 20
9385898.00
  0
VERTEX
  8
0IMP_ROD
 10
214854.69
 20
9385874.00
  0
VERTEX
  8
0IMP_ROD
 10
214792.27
 20
9385836.00
  0
VERTEX
  8
0IMP_ROD
 10
214781.42
 20
9385830.00
  0
SEQEND
  8
0IMP_ROD
  0
POLYLINE
  8
0IMP_ROD
 66
     1
  0
VERTEX
  8
0IMP_ROD
 10
169914.30
 20
9386920.00
  0
VERTEX
  8
0IMP_ROD
 10
169867.86
 20
9386893.00
  0
VERTEX
  8
0IMP_ROD
 10
169830.17
 20
9386818.00
  0
VERTEX
  8
0IMP_ROD
 10
169755.25
 20
9386768.00
  0
VERTEX
  8
0IMP_ROD
 10
169717.61
 20
9386705.00
  0
VERTEX
  8
0IMP_ROD
 10
169648.91
 20
9386655.00
  0
VERTEX
  8
0IMP_ROD
 10
169605.05
 20
9386593.00
  0
VERTEX
  8
0IMP_ROD
 10
169523.81
 20
9386524.00
  0
VERTEX
  8
0IMP_ROD
 10
169473.78
 20
9386474.00
  0
VERTEX
  8
0IMP_ROD
 10
169392.55
 20
9386406.00
  0
VERTEX
  8
0IMP_ROD
 10
169317.69
 20
9386369.00
  0
VERTEX
  8
0IMP_ROD
 10
169236.56
 20
9386325.00
  0
VERTEX
  8
0IMP_ROD
 10
169155.44
 20
9386281.00
  0
VERTEX
  8
0IMP_ROD
 10
169036.94
 20
9386232.00
  0
VERTEX
  8
0IMP_ROD
 10
168956.02
 20
9386232.00
  0
VERTEX
  8
0IMP_ROD
 10
168874.84
 20
9386176.00
  0
VERTEX
  8
0IMP_ROD
 10
168812.52
 20
9386157.00
  0
VERTEX
  8
0IMP_ROD
 10
168725.14
 20
9386107.00
  0
VERTEX
  8
0IMP_ROD
 10
168675.00
 20
9386032.00
  0
VERTEX
  8
0IMP_ROD
 10
168612.44
 20
9385964.00
  0
VERTEX
  8
0IMP_ROD
 10
168568.59
 20
9385908.00
  0
VERTEX
  8
0IMP_ROD
 10
168512.27
 20
9385839.00
  0
VERTEX
  8
0IMP_ROD
 10
168425.34
 20
9385668.00
  0
SEQEND
  8
0IMP_ROD
  0
POLYLINE
  8
0IMP_ROD
 66
     1
  0
VERTEX
  8
0IMP_ROD
 10
167590.70
 20
9384813.00
  0
VERTEX
  8
0IMP_ROD
 10
167717.78
 20
9384911.00
  0
VERTEX
  8
0IMP_ROD
 10
167936.86
 20
9385086.00
  0
VERTEX
  8
0IMP_ROD
 10
167968.22
 20
9385161.00
  0
VERTEX
  8
0IMP_ROD
 10
168043.36
 20
9385255.00
  0
VERTEX
  8
0IMP_ROD
 10
168080.95
 20
9385305.00
  0
VERTEX
  8
0IMP_ROD
 10
168131.02
 20
9385342.00
  0
VERTEX
  8
0IMP_ROD
 10
168181.11
 20
9385392.00
  0
VERTEX
  8
0IMP_ROD
 10
168212.44
 20
9385442.00
  0
VERTEX
  8
0IMP_ROD
 10
168275.02
 20
9385486.00
  0
VERTEX
  8
0IMP_ROD
 10
168318.84
 20
9385536.00
  0
VERTEX
  8
0IMP_ROD
 10
168425.34
 20
9385668.00
  0
SEQEND
  8
0IMP_ROD
  0
POLYLINE
  8
0IMP_ROD
 66
     1
  0
VERTEX
  8
0IMP_ROD
 10
214345.11
 20
9385560.00
  0
VERTEX
  8
0IMP_ROD
 10
214330.30
 20
9385543.00
  0
VERTEX
  8
0IMP_ROD
 10
214255.34
 20
9385487.00
  0
VERTEX
  8
0IMP_ROD
 10
214193.00
 20
9385469.00
  0
VERTEX
  8
0IMP_ROD
 10
214111.86
 20
9385419.00
  0
VERTEX
  8
0IMP_ROD
 10
214012.19
 20
9385400.00
  0
VERTEX
  8
0IMP_ROD
 10
213943.50
 20
9385357.00
  0
VERTEX
  8
0IMP_ROD
 10
213843.73
 20
9385319.00
  0
VERTEX
  8
0IMP_ROD
 10
213750.08
 20
9385257.00
  0
VERTEX
  8
0IMP_ROD
 10
213662.66
 20
9385195.00
  0
VERTEX
  8
0IMP_ROD
 10
213587.55
 20
9385107.00
  0
VERTEX
  8
0IMP_ROD
 10
213512.66
 20
9385064.00
  0
VERTEX
  8
0IMP_ROD
 10
213462.56
 20
9385001.00
  0
VERTEX
  8
0IMP_ROD
 10
213393.81
 20
9384939.00
  0
VERTEX
  8
0IMP_ROD
 10
213318.73
 20
9384858.00
  0
VERTEX
  8
0IMP_ROD
 10
213243.67
 20
9384777.00
  0
VERTEX
  8
0IMP_ROD
 10
213212.27
 20
9384714.00
  0
VERTEX
  8
0IMP_ROD
 10
213149.58
 20
9384621.00
  0
VERTEX
  8
0IMP_ROD
 10
213118.20
 20
9384564.00
  0
VERTEX
  8
0IMP_ROD
 10
213049.30
 20
9384471.00
  0
VERTEX
  8
0IMP_ROD
 10
212967.94
 20
9384377.00
  0
VERTEX
  8
0IMP_ROD
 10
212874.23
 20
9384302.00
  0
VERTEX
  8
0IMP_ROD
 10
212811.81
 20
9384265.00
  0
VERTEX
  8
0IMP_ROD
 10
212718.13
 20
9384196.00
  0
VERTEX
  8
0IMP_ROD
 10
212618.22
 20
9384128.00
  0
VERTEX
  8
0IMP_ROD
 10
212530.70
 20
9384047.00
  0
VERTEX
  8
0IMP_ROD
 10
212474.47
 20
9384003.00
  0
VERTEX
  8
0IMP_ROD
 10
212386.98
 20
9383928.00
  0
VERTEX
  8
0IMP_ROD
 10
212293.19
 20
9383835.00
  0
VERTEX
  8
0IMP_ROD
 10
212218.28
 20
9383791.00
  0
VERTEX
  8
0IMP_ROD
 10
212155.69
 20
9383716.00
  0
VERTEX
  8
0IMP_ROD
 10
212074.58
 20
9383673.00
  0
VERTEX
  8
0IMP_ROD
 10
211999.67
 20
9383629.00
  0
VERTEX
  8
0IMP_ROD
 10
211930.92
 20
9383567.00
  0
VERTEX
  8
0IMP_ROD
 10
211899.42
 20
9383485.00
  0
VERTEX
  8
0IMP_ROD
 10
211880.31
 20
9383391.00
  0
VERTEX
  8
0IMP_ROD
 10
211867.52
 20
9383316.00
  0
VERTEX
  8
0IMP_ROD
 10
211854.72
 20
9383241.00
  0
VERTEX
  8
0IMP_ROD
 10
211817.08
 20
9383179.00
  0
VERTEX
  8
0IMP_ROD
 10
211766.89
 20
9383091.00
  0
VERTEX
  8
0IMP_ROD
 10
211673.14
 20
9383010.00
  0
VERTEX
  8
0IMP_ROD
 10
211592.02
 20
9382967.00
  0
VERTEX
  8
0IMP_ROD
 10
211517.23
 20
9382948.00
  0
VERTEX
  8
0IMP_ROD
 10
211454.81
 20
9382911.00
  0
VERTEX
  8
0IMP_ROD
 10
211386.13
 20
9382861.00
  0
VERTEX
  8
0IMP_ROD
 10
211304.97
 20
9382811.00
  0
VERTEX
  8
0IMP_ROD
 10
211236.20
 20
9382749.00
  0
VERTEX
  8
0IMP_ROD
 10
211161.17
 20
9382674.00
  0
VERTEX
  8
0IMP_ROD
 10
211079.88
 20
9382593.00
  0
VERTEX
  8
0IMP_ROD
 10
210998.58
 20
9382512.00
  0
VERTEX
  8
0IMP_ROD
 10
210948.56
 20
9382462.00
  0
VERTEX
  8
0IMP_ROD
 10
210879.73
 20
9382387.00
  0
VERTEX
  8
0IMP_ROD
 10
210810.95
 20
9382318.00
  0
VERTEX
  8
0IMP_ROD
 10
210742.02
 20
9382218.00
  0
VERTEX
  8
0IMP_ROD
 10
210704.38
 20
9382156.00
  0
VERTEX
  8
0IMP_ROD
 10
210641.67
 20
9382056.00
  0
VERTEX
  8
0IMP_ROD
 10
210560.33
 20
9381962.00
  0
VERTEX
  8
0IMP_ROD
 10
210522.66
 20
9381894.00
  0
VERTEX
  8
0IMP_ROD
 10
210453.78
 20
9381806.00
  0
VERTEX
  8
0IMP_ROD
 10
210366.30
 20
9381731.00
  0
VERTEX
  8
0IMP_ROD
 10
210310.06
 20
9381688.00
  0
VERTEX
  8
0IMP_ROD
 10
210222.61
 20
9381619.00
  0
VERTEX
  8
0IMP_ROD
 10
210141.31
 20
9381538.00
  0
VERTEX
  8
0IMP_ROD
 10
210078.86
 20
9381494.00
  0
VERTEX
  8
0IMP_ROD
 10
210016.33
 20
9381432.00
  0
VERTEX
  8
0IMP_ROD
 10
209953.80
 20
9381370.00
  0
VERTEX
  8
0IMP_ROD
 10
209885.13
 20
9381326.00
  0
VERTEX
  8
0IMP_ROD
 10
209810.11
 20
9381257.00
  0
VERTEX
  8
0IMP_ROD
 10
209722.63
 20
9381182.00
  0
VERTEX
  8
0IMP_ROD
 10
209622.59
 20
9381089.00
  0
VERTEX
  8
0IMP_ROD
 10
209572.55
 20
9381033.00
  0
VERTEX
  8
0IMP_ROD
 10
209491.08
 20
9380914.00
  0
VERTEX
  8
0IMP_ROD
 10
209409.78
 20
9380833.00
  0
VERTEX
  8
0IMP_ROD
 10
209372.11
 20
9380764.00
  0
VERTEX
  8
0IMP_ROD
 10
209290.88
 20
9380696.00
  0
VERTEX
  8
0IMP_ROD
 10
209209.55
 20
9380608.00
  0
VERTEX
  8
0IMP_ROD
 10
209147.11
 20
9380565.00
  0
VERTEX
  8
0IMP_ROD
 10
209047.31
 20
9380521.00
  0
VERTEX
  8
0IMP_ROD
 10
208991.14
 20
9380490.00
  0
VERTEX
  8
0IMP_ROD
 10
208941.14
 20
9380446.00
  0
VERTEX
  8
0IMP_ROD
 10
208872.45
 20
9380396.00
  0
VERTEX
  8
0IMP_ROD
 10
208785.11
 20
9380353.00
  0
VERTEX
  8
0IMP_ROD
 10
208735.11
 20
9380309.00
  0
VERTEX
  8
0IMP_ROD
 10
208685.08
 20
9380259.00
  0
VERTEX
  8
0IMP_ROD
 10
208616.41
 20
9380216.00
  0
VERTEX
  8
0IMP_ROD
 10
208566.38
 20
9380166.00
  0
VERTEX
  8
0IMP_ROD
 10
208485.23
 20
9380116.00
  0
VERTEX
  8
0IMP_ROD
 10
208441.31
 20
9380041.00
  0
VERTEX
  8
0IMP_ROD
 10
208360.25
 20
9380010.00
  0
VERTEX
  8
0IMP_ROD
 10
208310.13
 20
9379941.00
  0
VERTEX
  8
0IMP_ROD
 10
208253.83
 20
9379879.00
  0
VERTEX
  8
0IMP_ROD
 10
208178.95
 20
9379841.00
  0
VERTEX
  8
0IMP_ROD
 10
208122.64
 20
9379779.00
  0
VERTEX
  8
0IMP_ROD
 10
208066.19
 20
9379685.00
  0
VERTEX
  8
0IMP_ROD
 10
208022.27
 20
9379610.00
  0
VERTEX
  8
0IMP_ROD
 10
208003.36
 20
9379560.00
  0
VERTEX
  8
0IMP_ROD
 10
207984.56
 20
9379529.00
  0
SEQEND
  8
0IMP_ROD
  0
POLYLINE
  8
0IMP_ROD
 66
     1
  0
VERTEX
  8
0IMP_ROD
 10
200251.42
 20
9381362.00
  0
VERTEX
  8
0IMP_ROD
 10
200375.97
 20
9381365.00
  0
VERTEX
  8
0IMP_ROD
 10
200505.45
 20
9381241.00
  0
VERTEX
  8
0IMP_ROD
 10
200631.89
 20
9381244.00
  0
VERTEX
  8
0IMP_ROD
 10
200884.77
 20
9381249.00
  0
VERTEX
  8
0IMP_ROD
 10
201011.22
 20
9381251.00
  0
VERTEX
  8
0IMP_ROD
 10
201267.14
 20
9381130.00
  0
VERTEX
  8
0IMP_ROD
 10
201393.59
 20
9381133.00
  0
VERTEX
  8
0IMP_ROD
 10
201646.47
 20
9381138.00
  0
VERTEX
  8
0IMP_ROD
 10
201772.91
 20
9381141.00
  0
VERTEX
  8
0IMP_ROD
 10
202028.84
 20
9381020.00
  0
VERTEX
  8
0IMP_ROD
 10
202281.72
 20
9381025.00
  0
VERTEX
  8
0IMP_ROD
 10
202534.59
 20
9381030.00
  0
VERTEX
  8
0IMP_ROD
 10
202661.05
 20
9381032.00
  0
VERTEX
  8
0IMP_ROD
 10
202790.53
 20
9380909.00
  0
VERTEX
  8
0IMP_ROD
 10
202916.97
 20
9380912.00
  0
VERTEX
  8
0IMP_ROD
 10
203169.84
 20
9380917.00
  0
VERTEX
  8
0IMP_ROD
 10
203296.30
 20
9380919.00
  0
VERTEX
  8
0IMP_ROD
 10
203422.73
 20
9380922.00
  0
VERTEX
  8
0IMP_ROD
 10
203675.61
 20
9380927.00
  0
VERTEX
  8
0IMP_ROD
 10
203802.06
 20
9380929.00
  0
VERTEX
  8
0IMP_ROD
 10
203928.50
 20
9380932.00
  0
VERTEX
  8
0IMP_ROD
 10
204184.42
 20
9380811.00
  0
VERTEX
  8
0IMP_ROD
 10
204310.86
 20
9380814.00
  0
VERTEX
  8
0IMP_ROD
 10
204313.91
 20
9380688.00
  0
VERTEX
  8
0IMP_ROD
 10
204566.80
 20
9380693.00
  0
VERTEX
  8
0IMP_ROD
 10
204822.73
 20
9380572.00
  0
VERTEX
  8
0IMP_ROD
 10
204952.20
 20
9380448.00
  0
VERTEX
  8
0IMP_ROD
 10
205205.09
 20
9380453.00
  0
VERTEX
  8
0IMP_ROD
 10
205331.53
 20
9380456.00
  0
VERTEX
  8
0IMP_ROD
 10
205587.45
 20
9380335.00
  0
VERTEX
  8
0IMP_ROD
 10
205716.95
 20
9380212.00
  0
VERTEX
  8
0IMP_ROD
 10
205969.83
 20
9380217.00
  0
VERTEX
  8
0IMP_ROD
 10
205972.88
 20
9380091.00
  0
VERTEX
  8
0IMP_ROD
 10
206099.33
 20
9380093.00
  0
VERTEX
  8
0IMP_ROD
 10
206355.25
 20
9379972.00
  0
VERTEX
  8
0IMP_ROD
 10
206358.30
 20
9379846.00
  0
VERTEX
  8
0IMP_ROD
 10
206611.17
 20
9379852.00
  0
VERTEX
  8
0IMP_ROD
 10
206864.05
 20
9379857.00
  0
VERTEX
  8
0IMP_ROD
 10
206996.59
 20
9379607.00
  0
VERTEX
  8
0IMP_ROD
 10
207123.05
 20
9379610.00
  0
VERTEX
  8
0IMP_ROD
 10
207249.47
 20
9379612.00
  0
VERTEX
  8
0IMP_ROD
 10
207375.92
 20
9379615.00
  0
VERTEX
  8
0IMP_ROD
 10
207631.84
 20
9379494.00
  0
VERTEX
  8
0IMP_ROD
 10
207758.30
 20
9379497.00
  0
SEQEND
  8
0IMP_ROD
  0
POLYLINE
  8
0IMP_ROD
 66
     1
  0
VERTEX
  8
0IMP_ROD
 10
183972.41
 20
9391287.00
  0
VERTEX
  8
0IMP_ROD
 10
184059.52
 20
9391138.00
  0
VERTEX
  8
0IMP_ROD
 10
184152.44
 20
9391009.00
  0
VERTEX
  8
0IMP_ROD
 10
184213.11
 20
9390849.00
  0
VERTEX
  8
0IMP_ROD
 10
184305.47
 20
9390689.00
  0
VERTEX
  8
0IMP_ROD
 10
184429.55
 20
9390528.00
  0
VERTEX
  8
0IMP_ROD
 10
184554.16
 20
9390398.00
  0
VERTEX
  8
0IMP_ROD
 10
184646.53
 20
9390238.00
  0
VERTEX
  8
0IMP_ROD
 10
184802.31
 20
9390076.00
  0
VERTEX
  8
0IMP_ROD
 10
184894.67
 20
9389916.00
  0
VERTEX
  8
0IMP_ROD
 10
185018.20
 20
9389723.00
  0
VERTEX
  8
0IMP_ROD
 10
185173.97
 20
9389561.00
  0
VERTEX
  8
0IMP_ROD
 10
185298.05
 20
9389400.00
  0
VERTEX
  8
0IMP_ROD
 10
185421.58
 20
9389208.00
  0
VERTEX
  8
0IMP_ROD
 10
185545.64
 20
9389047.00
  0
VERTEX
  8
0IMP_ROD
 10
185638.56
 20
9388918.00
  0
VERTEX
  8
0IMP_ROD
 10
185730.92
 20
9388757.00
  0
VERTEX
  8
0IMP_ROD
 10
185823.30
 20
9388597.00
  0
VERTEX
  8
0IMP_ROD
 10
185915.67
 20
9388437.00
  0
VERTEX
  8
0IMP_ROD
 10
186008.03
 20
9388276.00
  0
VERTEX
  8
0IMP_ROD
 10
186100.41
 20
9388116.00
  0
VERTEX
  8
0IMP_ROD
 10
186192.78
 20
9387955.00
  0
VERTEX
  8
0IMP_ROD
 10
186285.69
 20
9387826.00
  0
VERTEX
  8
0IMP_ROD
 10
186378.61
 20
9387698.00
  0
VERTEX
  8
0IMP_ROD
 10
186471.53
 20
9387569.00
  0
VERTEX
  8
0IMP_ROD
 10
186564.98
 20
9387472.00
  0
VERTEX
  8
0IMP_ROD
 10
186626.20
 20
9387344.00
  0
VERTEX
  8
0IMP_ROD
 10
186719.13
 20
9387215.00
  0
VERTEX
  8
0IMP_ROD
 10
186812.05
 20
9387087.00
  0
VERTEX
  8
0IMP_ROD
 10
186936.11
 20
9386926.00
  0
VERTEX
  8
0IMP_ROD
 10
187029.58
 20
9386829.00
  0
VERTEX
  8
0IMP_ROD
 10
187154.75
 20
9386731.00
  0
VERTEX
  8
0IMP_ROD
 10
187248.75
 20
9386666.00
  0
VERTEX
  8
0IMP_ROD
 10
187342.77
 20
9386600.00
  0
VERTEX
  8
0IMP_ROD
 10
187404.53
 20
9386504.00
  0
VERTEX
  8
0IMP_ROD
 10
187499.09
 20
9386471.00
  0
VERTEX
  8
0IMP_ROD
 10
187624.25
 20
9386373.00
  0
VERTEX
  8
0IMP_ROD
 10
187749.42
 20
9386275.00
  0
VERTEX
  8
0IMP_ROD
 10
187905.75
 20
9386146.00
  0
VERTEX
  8
0IMP_ROD
 10
187968.05
 20
9386081.00
  0
VERTEX
  8
0IMP_ROD
 10
188061.52
 20
9385984.00
  0
VERTEX
  8
0IMP_ROD
 10
188122.73
 20
9385856.00
  0
VERTEX
  8
0IMP_ROD
 10
188216.20
 20
9385759.00
  0
VERTEX
  8
0IMP_ROD
 10
188277.95
 20
9385662.00
  0
VERTEX
  8
0IMP_ROD
 10
188339.72
 20
9385566.00
  0
VERTEX
  8
0IMP_ROD
 10
188433.19
 20
9385469.00
  0
VERTEX
  8
0IMP_ROD
 10
188526.66
 20
9385372.00
  0
VERTEX
  8
0IMP_ROD
 10
188588.95
 20
9385307.00
  0
VERTEX
  8
0IMP_ROD
 10
188651.27
 20
9385243.00
  0
VERTEX
  8
0IMP_ROD
 10
188713.58
 20
9385178.00
  0
VERTEX
  8
0IMP_ROD
 10
188775.34
 20
9385082.00
  0
VERTEX
  8
0IMP_ROD
 10
188837.64
 20
9385017.00
  0
VERTEX
  8
0IMP_ROD
 10
188899.41
 20
9384921.00
  0
VERTEX
  8
0IMP_ROD
 10
188992.88
 20
9384824.00
  0
VERTEX
  8
0IMP_ROD
 10
189054.09
 20
9384696.00
  0
VERTEX
  8
0IMP_ROD
 10
189115.31
 20
9384568.00
  0
VERTEX
  8
0IMP_ROD
 10
189175.97
 20
9384408.00
  0
VERTEX
  8
0IMP_ROD
 10
189237.73
 20
9384311.00
  0
VERTEX
  8
0IMP_ROD
 10
189267.25
 20
9384184.00
  0
VERTEX
  8
0IMP_ROD
 10
189360.72
 20
9384087.00
  0
VERTEX
  8
0IMP_ROD
 10
189422.47
 20
9383990.00
  0
VERTEX
  8
0IMP_ROD
 10
189484.23
 20
9383894.00
  0
VERTEX
  8
0IMP_ROD
 10
189514.30
 20
9383798.00
  0
VERTEX
  8
0IMP_ROD
 10
189576.61
 20
9383734.00
  0
VERTEX
  8
0IMP_ROD
 10
189670.08
 20
9383637.00
  0
VERTEX
  8
0IMP_ROD
 10
189731.28
 20
9383508.00
  0
VERTEX
  8
0IMP_ROD
 10
189824.75
 20
9383412.00
  0
VERTEX
  8
0IMP_ROD
 10
189917.67
 20
9383283.00
  0
VERTEX
  8
0IMP_ROD
 10
190041.73
 20
9383122.00
  0
VERTEX
  8
0IMP_ROD
 10
190166.36
 20
9382992.00
  0
VERTEX
  8
0IMP_ROD
 10
190258.73
 20
9382832.00
  0
VERTEX
  8
0IMP_ROD
 10
190383.34
 20
9382703.00
  0
VERTEX
  8
0IMP_ROD
 10
190476.81
 20
9382606.00
  0
VERTEX
  8
0IMP_ROD
 10
190538.58
 20
9382509.00
  0
VERTEX
  8
0IMP_ROD
 10
190632.05
 20
9382412.00
  0
VERTEX
  8
0IMP_ROD
 10
190724.95
 20
9382284.00
  0
VERTEX
  8
0IMP_ROD
 10
190786.72
 20
9382187.00
  0
VERTEX
  8
0IMP_ROD
 10
190879.64
 20
9382059.00
  0
VERTEX
  8
0IMP_ROD
 10
190940.30
 20
9381899.00
  0
VERTEX
  8
0IMP_ROD
 10
191032.67
 20
9381738.00
  0
VERTEX
  8
0IMP_ROD
 10
191093.89
 20
9381610.00
  0
VERTEX
  8
0IMP_ROD
 10
191122.84
 20
9381451.00
  0
VERTEX
  8
0IMP_ROD
 10
191184.06
 20
9381323.00
  0
VERTEX
  8
0IMP_ROD
 10
191213.03
 20
9381164.00
  0
VERTEX
  8
0IMP_ROD
 10
191242.55
 20
9381036.00
  0
VERTEX
  8
0IMP_ROD
 10
191303.77
 20
9380908.00
  0
VERTEX
  8
0IMP_ROD
 10
191333.81
 20
9380812.00
  0
VERTEX
  8
0IMP_ROD
 10
191363.88
 20
9380716.00
  0
VERTEX
  8
0IMP_ROD
 10
191393.94
 20
9380621.00
  0
VERTEX
  8
0IMP_ROD
 10
191456.25
 20
9380556.00
  0
VERTEX
  8
0IMP_ROD
 10
191486.86
 20
9380492.00
  0
VERTEX
  8
0IMP_ROD
 10
191549.17
 20
9380427.00
  0
VERTEX
  8
0IMP_ROD
 10
191612.02
 20
9380394.00
  0
VERTEX
  8
0IMP_ROD
 10
191642.63
 20
9380330.00
  0
VERTEX
  8
0IMP_ROD
 10
191704.94
 20
9380266.00
  0
VERTEX
  8
0IMP_ROD
 10
191767.25
 20
9380201.00
  0
VERTEX
  8
0IMP_ROD
 10
191797.86
 20
9380137.00
  0
VERTEX
  8
0IMP_ROD
 10
191923.56
 20
9380071.00
  0
VERTEX
  8
0IMP_ROD
 10
191953.63
 20
9379975.00
  0
VERTEX
  8
0IMP_ROD
 10
191984.23
 20
9379911.00
  0
VERTEX
  8
0IMP_ROD
 10
192046.55
 20
9379846.00
  0
VERTEX
  8
0IMP_ROD
 10
192108.31
 20
9379750.00
  0
VERTEX
  8
0IMP_ROD
 10
192138.38
 20
9379654.00
  0
VERTEX
  8
0IMP_ROD
 10
192232.38
 20
9379589.00
  0
VERTEX
  8
0IMP_ROD
 10
192399.98
 20
9379357.00
  0
SEQEND
  8
0IMP_ROD
  0
LINE
  8
0IMP_ROD
 10
192399.98
 20
9379357.00
 11
192809.08
 21
9378842.00
  0
POLYLINE
  8
0IMP_ROD
 66
     1
  0
VERTEX
  8
0IMP_ROD
 10
193692.89
 20
9378279.00
  0
VERTEX
  8
0IMP_ROD
 10
193871.14
 20
9378335.00
  0
VERTEX
  8
0IMP_ROD
 10
193997.58
 20
9378338.00
  0
VERTEX
  8
0IMP_ROD
 10
193994.53
 20
9378464.00
  0
VERTEX
  8
0IMP_ROD
 10
193991.48
 20
9378590.00
  0
VERTEX
  8
0IMP_ROD
 10
194244.36
 20
9378595.00
  0
VERTEX
  8
0IMP_ROD
 10
194241.31
 20
9378721.00
  0
VERTEX
  8
0IMP_ROD
 10
194367.77
 20
9378723.00
  0
VERTEX
  8
0IMP_ROD
 10
194494.20
 20
9378726.00
  0
VERTEX
  8
0IMP_ROD
 10
194491.16
 20
9378852.00
  0
VERTEX
  8
0IMP_ROD
 10
194614.55
 20
9378980.00
  0
VERTEX
  8
0IMP_ROD
 10
194737.94
 20
9379109.00
  0
VERTEX
  8
0IMP_ROD
 10
194864.38
 20
9379111.00
  0
VERTEX
  8
0IMP_ROD
 10
194861.33
 20
9379237.00
  0
VERTEX
  8
0IMP_ROD
 10
194987.77
 20
9379240.00
  0
VERTEX
  8
0IMP_ROD
 10
195111.17
 20
9379368.00
  0
VERTEX
  8
0IMP_ROD
 10
195234.56
 20
9379497.00
  0
VERTEX
  8
0IMP_ROD
 10
195231.50
 20
9379623.00
  0
VERTEX
  8
0IMP_ROD
 10
195481.34
 20
9379754.00
  0
VERTEX
  8
0IMP_ROD
 10
195478.28
 20
9379880.00
  0
VERTEX
  8
0IMP_ROD
 10
195604.73
 20
9379882.00
  0
VERTEX
  8
0IMP_ROD
 10
195601.69
 20
9380008.00
  0
VERTEX
  8
0IMP_ROD
 10
195854.58
 20
9380013.00
  0
VERTEX
  8
0IMP_ROD
 10
195848.47
 20
9380265.00
  0
VERTEX
  8
0IMP_ROD
 10
195971.88
 20
9380394.00
  0
VERTEX
  8
0IMP_ROD
 10
196098.31
 20
9380396.00
  0
VERTEX
  8
0IMP_ROD
 10
196092.20
 20
9380648.00
  0
VERTEX
  8
0IMP_ROD
 10
196218.66
 20
9380651.00
  0
VERTEX
  8
0IMP_ROD
 10
196215.61
 20
9380777.00
  0
VERTEX
  8
0IMP_ROD
 10
196465.44
 20
9380908.00
  0
VERTEX
  8
0IMP_ROD
 10
196591.89
 20
9380911.00
  0
VERTEX
  8
0IMP_ROD
 10
196715.27
 20
9381039.00
  0
VERTEX
  8
0IMP_ROD
 10
196841.72
 20
9381042.00
  0
VERTEX
  8
0IMP_ROD
 10
197088.50
 20
9381299.00
  0
VERTEX
  8
0IMP_ROD
 10
197214.95
 20
9381301.00
  0
VERTEX
  8
0IMP_ROD
 10
197341.38
 20
9381304.00
  0
VERTEX
  8
0IMP_ROD
 10
197464.78
 20
9381432.00
  0
VERTEX
  8
0IMP_ROD
 10
197591.22
 20
9381435.00
  0
VERTEX
  8
0IMP_ROD
 10
197717.66
 20
9381437.00
  0
VERTEX
  8
0IMP_ROD
 10
197970.53
 20
9381442.00
  0
VERTEX
  8
0IMP_ROD
 10
198223.44
 20
9381447.00
  0
VERTEX
  8
0IMP_ROD
 10
198476.31
 20
9381453.00
  0
VERTEX
  8
0IMP_ROD
 10
198597.50
 20
9381455.00
  0
SEQEND
  8
0IMP_ROD
  0
POLYLINE
  8
0IMP_ROD
 66
     1
  0
VERTEX
  8
0IMP_ROD
 10
193194.91
 20
9378481.00
  0
VERTEX
  8
0IMP_ROD
 10
193235.89
 20
9378448.00
  0
VERTEX
  8
0IMP_ROD
 10
193362.33
 20
9378451.00
  0
VERTEX
  8
0IMP_ROD
 10
193365.38
 20
9378325.00
  0
VERTEX
  8
0IMP_ROD
 10
193491.83
 20
9378328.00
  0
VERTEX
  8
0IMP_ROD
 10
193494.88
 20
9378202.00
  0
VERTEX
  8
0IMP_ROD
 10
193692.89
 20
9378279.00
  0
SEQEND
  8
0IMP_ROD
  0
POLYLINE
  8
0IMP_ROD
 66
     1
  0
VERTEX
  8
0IMP_ROD
 10
208097.11
 20
9379035.00
  0
VERTEX
  8
0IMP_ROD
 10
208171.52
 20
9378879.00
  0
VERTEX
  8
0IMP_ROD
 10
208202.13
 20
9378815.00
  0
VERTEX
  8
0IMP_ROD
 10
208264.98
 20
9378782.00
  0
VERTEX
  8
0IMP_ROD
 10
208295.59
 20
9378718.00
  0
VERTEX
  8
0IMP_ROD
 10
208358.44
 20
9378685.00
  0
VERTEX
  8
0IMP_ROD
 10
208389.05
 20
9378621.00
  0
VERTEX
  8
0IMP_ROD
 10
208483.61
 20
9378587.00
  0
VERTEX
  8
0IMP_ROD
 10
208546.47
 20
9378554.00
  0
VERTEX
  8
0IMP_ROD
 10
208640.48
 20
9378489.00
  0
VERTEX
  8
0IMP_ROD
 10
208703.34
 20
9378456.00
  0
VERTEX
  8
0IMP_ROD
 10
208797.34
 20
9378391.00
  0
VERTEX
  8
0IMP_ROD
 10
208860.75
 20
9378390.00
  0
VERTEX
  8
0IMP_ROD
 10
208923.06
 20
9378325.00
  0
VERTEX
  8
0IMP_ROD
 10
209017.63
 20
9378292.00
  0
VERTEX
  8
0IMP_ROD
 10
209080.48
 20
9378259.00
  0
VERTEX
  8
0IMP_ROD
 10
209174.48
 20
9378193.00
  0
VERTEX
  8
0IMP_ROD
 10
209237.36
 20
9378161.00
  0
VERTEX
  8
0IMP_ROD
 10
209300.20
 20
9378128.00
  0
VERTEX
  8
0IMP_ROD
 10
209395.31
 20
9378126.00
  0
VERTEX
  8
0IMP_ROD
 10
209457.63
 20
9378061.00
  0
VERTEX
  8
0IMP_ROD
 10
209521.03
 20
9378060.00
  0
VERTEX
  8
0IMP_ROD
 10
209551.64
 20
9377996.00
  0
VERTEX
  8
0IMP_ROD
 10
209614.50
 20
9377963.00
  0
VERTEX
  8
0IMP_ROD
 10
209708.50
 20
9377898.00
  0
VERTEX
  8
0IMP_ROD
 10
209802.52
 20
9377833.00
  0
VERTEX
  8
0IMP_ROD
 10
209865.38
 20
9377800.00
  0
VERTEX
  8
0IMP_ROD
 10
209958.84
 20
9377703.00
  0
VERTEX
  8
0IMP_ROD
 10
210053.41
 20
9377669.00
  0
VERTEX
  8
0IMP_ROD
 10
210115.70
 20
9377604.00
  0
VERTEX
  8
0IMP_ROD
 10
210178.56
 20
9377572.00
  0
VERTEX
  8
0IMP_ROD
 10
210240.88
 20
9377507.00
  0
VERTEX
  8
0IMP_ROD
 10
210303.73
 20
9377474.00
  0
VERTEX
  8
0IMP_ROD
 10
210366.59
 20
9377441.00
  0
VERTEX
  8
0IMP_ROD
 10
210429.44
 20
9377408.00
  0
VERTEX
  8
0IMP_ROD
 10
210491.75
 20
9377344.00
  0
VERTEX
  8
0IMP_ROD
 10
210554.61
 20
9377311.00
  0
VERTEX
  8
0IMP_ROD
 10
210617.47
 20
9377278.00
  0
VERTEX
  8
0IMP_ROD
 10
210711.48
 20
9377212.00
  0
VERTEX
  8
0IMP_ROD
 10
210806.03
 20
9377179.00
  0
VERTEX
  8
0IMP_ROD
 10
210900.05
 20
9377114.00
  0
VERTEX
  8
0IMP_ROD
 10
210962.91
 20
9377081.00
  0
VERTEX
  8
0IMP_ROD
 10
211056.92
 20
9377016.00
  0
VERTEX
  8
0IMP_ROD
 10
211150.94
 20
9376950.00
  0
VERTEX
  8
0IMP_ROD
 10
211244.95
 20
9376885.00
  0
VERTEX
  8
0IMP_ROD
 10
211370.11
 20
9376787.00
  0
VERTEX
  8
0IMP_ROD
 10
211463.03
 20
9376659.00
  0
VERTEX
  8
0IMP_ROD
 10
211524.80
 20
9376562.00
  0
VERTEX
  8
0IMP_ROD
 10
211618.25
 20
9376465.00
  0
VERTEX
  8
0IMP_ROD
 10
211679.47
 20
9376337.00
  0
VERTEX
  8
0IMP_ROD
 10
211741.23
 20
9376241.00
  0
VERTEX
  8
0IMP_ROD
 10
211803.00
 20
9376145.00
  0
VERTEX
  8
0IMP_ROD
 10
211833.05
 20
9376049.00
  0
VERTEX
  8
0IMP_ROD
 10
211895.36
 20
9375984.00
  0
VERTEX
  8
0IMP_ROD
 10
211894.27
 20
9375921.00
  0
VERTEX
  8
0IMP_ROD
 10
211924.88
 20
9375857.00
  0
VERTEX
  8
0IMP_ROD
 10
211923.78
 20
9375793.00
  0
VERTEX
  8
0IMP_ROD
 10
211985.00
 20
9375665.00
  0
VERTEX
  8
0IMP_ROD
 10
212014.52
 20
9375537.00
  0
VERTEX
  8
0IMP_ROD
 10
212045.11
 20
9375473.00
  0
VERTEX
  8
0IMP_ROD
 10
212075.17
 20
9375378.00
  0
VERTEX
  8
0IMP_ROD
 10
212136.39
 20
9375249.00
  0
VERTEX
  8
0IMP_ROD
 10
212167.00
 20
9375185.00
  0
VERTEX
  8
0IMP_ROD
 10
212197.06
 20
9375090.00
  0
VERTEX
  8
0IMP_ROD
 10
212258.83
 20
9374993.00
  0
VERTEX
  8
0IMP_ROD
 10
212321.13
 20
9374929.00
  0
VERTEX
  8
0IMP_ROD
 10
212351.73
 20
9374865.00
  0
VERTEX
  8
0IMP_ROD
 10
212445.75
 20
9374799.00
  0
VERTEX
  8
0IMP_ROD
 10
212508.61
 20
9374766.00
  0
VERTEX
  8
0IMP_ROD
 10
212539.20
 20
9374702.00
  0
VERTEX
  8
0IMP_ROD
 10
212623.17
 20
9374673.00
  0
SEQEND
  8
0IMP_ROD
  0
POLYLINE
  8
0IMP_ROD
 66
     1
  0
VERTEX
  8
0IMP_ROD
 10
213795.61
 20
9373528.00
  0
VERTEX
  8
0IMP_ROD
 10
213849.91
 20
9373472.00
  0
VERTEX
  8
0IMP_ROD
 10
213943.92
 20
9373406.00
  0
VERTEX
  8
0IMP_ROD
 10
214006.22
 20
9373342.00
  0
VERTEX
  8
0IMP_ROD
 10
214100.23
 20
9373276.00
  0
VERTEX
  8
0IMP_ROD
 10
214162.55
 20
9373212.00
  0
VERTEX
  8
0IMP_ROD
 10
214224.31
 20
9373115.00
  0
VERTEX
  8
0IMP_ROD
 10
214318.33
 20
9373050.00
  0
VERTEX
  8
0IMP_ROD
 10
214381.19
 20
9373017.00
  0
VERTEX
  8
0IMP_ROD
 10
214442.94
 20
9372921.00
  0
VERTEX
  8
0IMP_ROD
 10
214505.25
 20
9372856.00
  0
VERTEX
  8
0IMP_ROD
 10
214598.72
 20
9372759.00
  0
VERTEX
  8
0IMP_ROD
 10
214692.17
 20
9372662.00
  0
VERTEX
  8
0IMP_ROD
 10
214753.94
 20
9372566.00
  0
VERTEX
  8
0IMP_ROD
 10
214847.95
 20
9372501.00
  0
VERTEX
  8
0IMP_ROD
 10
214941.42
 20
9372404.00
  0
VERTEX
  8
0IMP_ROD
 10
215035.44
 20
9372338.00
  0
VERTEX
  8
0IMP_ROD
 10
215097.75
 20
9372274.00
  0
VERTEX
  8
0IMP_ROD
 10
215191.75
 20
9372209.00
  0
VERTEX
  8
0IMP_ROD
 10
215253.52
 20
9372112.00
  0
VERTEX
  8
0IMP_ROD
 10
215348.08
 20
9372079.00
  0
VERTEX
  8
0IMP_ROD
 10
215441.53
 20
9371982.00
  0
VERTEX
  8
0IMP_ROD
 10
215535.00
 20
9371885.00
  0
VERTEX
  8
0IMP_ROD
 10
215596.77
 20
9371788.00
  0
VERTEX
  8
0IMP_ROD
 10
215690.23
 20
9371691.00
  0
VERTEX
  8
0IMP_ROD
 10
215815.39
 20
9371594.00
  0
VERTEX
  8
0IMP_ROD
 10
215876.61
 20
9371466.00
  0
VERTEX
  8
0IMP_ROD
 10
216002.33
 20
9371400.00
  0
VERTEX
  8
0IMP_ROD
 10
216064.08
 20
9371303.00
  0
VERTEX
  8
0IMP_ROD
 10
216221.50
 20
9371237.00
  0
VERTEX
  8
0IMP_ROD
 10
216283.81
 20
9371172.00
  0
VERTEX
  8
0IMP_ROD
 10
216377.28
 20
9371075.00
  0
VERTEX
  8
0IMP_ROD
 10
216502.98
 20
9371010.00
  0
VERTEX
  8
0IMP_ROD
 10
216597.00
 20
9370944.00
  0
VERTEX
  8
0IMP_ROD
 10
216690.47
 20
9370847.00
  0
VERTEX
  8
0IMP_ROD
 10
216784.48
 20
9370782.00
  0
VERTEX
  8
0IMP_ROD
 10
216846.25
 20
9370686.00
  0
VERTEX
  8
0IMP_ROD
 10
216939.70
 20
9370589.00
  0
VERTEX
  8
0IMP_ROD
 10
217001.47
 20
9370492.00
  0
VERTEX
  8
0IMP_ROD
 10
217126.64
 20
9370395.00
  0
VERTEX
  8
0IMP_ROD
 10
217220.09
 20
9370298.00
  0
VERTEX
  8
0IMP_ROD
 10
217281.31
 20
9370170.00
  0
VERTEX
  8
0IMP_ROD
 10
217406.48
 20
9370072.00
  0
VERTEX
  8
0IMP_ROD
 10
217499.94
 20
9369975.00
  0
VERTEX
  8
0IMP_ROD
 10
217625.11
 20
9369878.00
  0
VERTEX
  8
0IMP_ROD
 10
217719.13
 20
9369812.00
  0
VERTEX
  8
0IMP_ROD
 10
217843.75
 20
9369683.00
  0
VERTEX
  8
0IMP_ROD
 10
217969.45
 20
9369617.00
  0
VERTEX
  8
0IMP_ROD
 10
218062.38
 20
9369488.00
  0
VERTEX
  8
0IMP_ROD
 10
218124.14
 20
9369392.00
  0
VERTEX
  8
0IMP_ROD
 10
218249.86
 20
9369326.00
  0
VERTEX
  8
0IMP_ROD
 10
218343.31
 20
9369229.00
  0
VERTEX
  8
0IMP_ROD
 10
218436.78
 20
9369132.00
  0
VERTEX
  8
0IMP_ROD
 10
218529.70
 20
9369004.00
  0
VERTEX
  8
0IMP_ROD
 10
218654.33
 20
9368874.00
  0
VERTEX
  8
0IMP_ROD
 10
218778.94
 20
9368745.00
  0
VERTEX
  8
0IMP_ROD
 10
218872.41
 20
9368648.00
  0
VERTEX
  8
0IMP_ROD
 10
218965.88
 20
9368551.00
  0
VERTEX
  8
0IMP_ROD
 10
219059.33
 20
9368454.00
  0
VERTEX
  8
0IMP_ROD
 10
219152.80
 20
9368357.00
  0
VERTEX
  8
0IMP_ROD
 10
219247.36
 20
9368324.00
  0
VERTEX
  8
0IMP_ROD
 10
219340.81
 20
9368227.00
  0
VERTEX
  8
0IMP_ROD
 10
219403.13
 20
9368162.00
  0
VERTEX
  8
0IMP_ROD
 10
219464.89
 20
9368066.00
  0
VERTEX
  8
0IMP_ROD
 10
219527.75
 20
9368033.00
  0
VERTEX
  8
0IMP_ROD
 10
219557.80
 20
9367937.00
  0
VERTEX
  8
0IMP_ROD
 10
219556.17
 20
9367842.00
  0
VERTEX
  8
0IMP_ROD
 10
219554.53
 20
9367746.00
  0
VERTEX
  8
0IMP_ROD
 10
219553.42
 20
9367683.00
  0
VERTEX
  8
0IMP_ROD
 10
219615.19
 20
9367587.00
  0
VERTEX
  8
0IMP_ROD
 10
219645.25
 20
9367491.00
  0
VERTEX
  8
0IMP_ROD
 10
219707.02
 20
9367394.00
  0
VERTEX
  8
0IMP_ROD
 10
219768.77
 20
9367298.00
  0
VERTEX
  8
0IMP_ROD
 10
219830.53
 20
9367202.00
  0
VERTEX
  8
0IMP_ROD
 10
219892.30
 20
9367105.00
  0
VERTEX
  8
0IMP_ROD
 10
219954.06
 20
9367009.00
  0
VERTEX
  8
0IMP_ROD
 10
220015.83
 20
9366912.00
  0
VERTEX
  8
0IMP_ROD
 10
220077.03
 20
9366784.00
  0
VERTEX
  8
0IMP_ROD
 10
220138.80
 20
9366688.00
  0
VERTEX
  8
0IMP_ROD
 10
220200.02
 20
9366560.00
  0
VERTEX
  8
0IMP_ROD
 10
220261.23
 20
9366432.00
  0
VERTEX
  8
0IMP_ROD
 10
220321.89
 20
9366272.00
  0
VERTEX
  8
0IMP_ROD
 10
220351.41
 20
9366144.00
  0
VERTEX
  8
0IMP_ROD
 10
220412.63
 20
9366016.00
  0
VERTEX
  8
0IMP_ROD
 10
220410.98
 20
9365921.00
  0
VERTEX
  8
0IMP_ROD
 10
220441.05
 20
9365825.00
  0
VERTEX
  8
0IMP_ROD
 10
220502.27
 20
9365697.00
  0
VERTEX
  8
0IMP_ROD
 10
220532.86
 20
9365633.00
  0
VERTEX
  8
0IMP_ROD
 10
220595.17
 20
9365568.00
  0
VERTEX
  8
0IMP_ROD
 10
220625.23
 20
9365473.00
  0
VERTEX
  8
0IMP_ROD
 10
220687.00
 20
9365376.00
  0
VERTEX
  8
0IMP_ROD
 10
220748.75
 20
9365280.00
  0
VERTEX
  8
0IMP_ROD
 10
220810.53
 20
9365184.00
  0
VERTEX
  8
0IMP_ROD
 10
220872.28
 20
9365087.00
  0
VERTEX
  8
0IMP_ROD
 10
220965.75
 20
9364990.00
  0
VERTEX
  8
0IMP_ROD
 10
221059.20
 20
9364893.00
  0
VERTEX
  8
0IMP_ROD
 10
221120.97
 20
9364797.00
  0
VERTEX
  8
0IMP_ROD
 10
221183.28
 20
9364732.00
  0
VERTEX
  8
0IMP_ROD
 10
221276.75
 20
9364635.00
  0
VERTEX
  8
0IMP_ROD
 10
221339.06
 20
9364571.00
  0
VERTEX
  8
0IMP_ROD
 10
221400.83
 20
9364474.00
  0
VERTEX
  8
0IMP_ROD
 10
221494.83
 20
9364409.00
  0
VERTEX
  8
0IMP_ROD
 10
221557.14
 20
9364344.00
  0
VERTEX
  8
0IMP_ROD
 10
221651.16
 20
9364279.00
  0
VERTEX
  8
0IMP_ROD
 10
221713.45
 20
9364214.00
  0
VERTEX
  8
0IMP_ROD
 10
221807.48
 20
9364149.00
  0
VERTEX
  8
0IMP_ROD
 10
221869.23
 20
9364053.00
  0
VERTEX
  8
0IMP_ROD
 10
221963.25
 20
9363987.00
  0
VERTEX
  8
0IMP_ROD
 10
222025.02
 20
9363891.00
  0
VERTEX
  8
0IMP_ROD
 10
222119.03
 20
9363826.00
  0
VERTEX
  8
0IMP_ROD
 10
222180.78
 20
9363729.00
  0
VERTEX
  8
0IMP_ROD
 10
222274.25
 20
9363632.00
  0
VERTEX
  8
0IMP_ROD
 10
222337.11
 20
9363600.00
  0
VERTEX
  8
0IMP_ROD
 10
222399.42
 20
9363535.00
  0
VERTEX
  8
0IMP_ROD
 10
222461.73
 20
9363470.00
  0
VERTEX
  8
0IMP_ROD
 10
222555.19
 20
9363373.00
  0
VERTEX
  8
0IMP_ROD
 10
222617.50
 20
9363309.00
  0
VERTEX
  8
0IMP_ROD
 10
222679.81
 20
9363244.00
  0
VERTEX
  8
0IMP_ROD
 10
222742.13
 20
9363179.00
  0
VERTEX
  8
0IMP_ROD
 10
222804.44
 20
9363115.00
  0
VERTEX
  8
0IMP_ROD
 10
222866.73
 20
9363050.00
  0
VERTEX
  8
0IMP_ROD
 10
222929.05
 20
9362985.00
  0
VERTEX
  8
0IMP_ROD
 10
222990.81
 20
9362889.00
  0
VERTEX
  8
0IMP_ROD
 10
223053.11
 20
9362824.00
  0
VERTEX
  8
0IMP_ROD
 10
223147.14
 20
9362759.00
  0
VERTEX
  8
0IMP_ROD
 10
223209.45
 20
9362694.00
  0
VERTEX
  8
0IMP_ROD
 10
223271.75
 20
9362630.00
  0
VERTEX
  8
0IMP_ROD
 10
223333.52
 20
9362533.00
  0
VERTEX
  8
0IMP_ROD
 10
223396.38
 20
9362501.00
  0
VERTEX
  8
0IMP_ROD
 10
223458.69
 20
9362436.00
  0
VERTEX
  8
0IMP_ROD
 10
223521.55
 20
9362403.00
  0
VERTEX
  8
0IMP_ROD
 10
223615.00
 20
9362306.00
  0
VERTEX
  8
0IMP_ROD
 10
223677.86
 20
9362273.00
  0
VERTEX
  8
0IMP_ROD
 10
223740.72
 20
9362240.00
  0
VERTEX
  8
0IMP_ROD
 10
223803.58
 20
9362207.00
  0
VERTEX
  8
0IMP_ROD
 10
223834.19
 20
9362143.00
  0
VERTEX
  8
0IMP_ROD
 10
223928.73
 20
9362110.00
  0
VERTEX
  8
0IMP_ROD
 10
223992.14
 20
9362108.00
  0
VERTEX
  8
0IMP_ROD
 10
224055.00
 20
9362076.00
  0
VERTEX
  8
0IMP_ROD
 10
224117.86
 20
9362043.00
  0
VERTEX
  8
0IMP_ROD
 10
224180.72
 20
9362010.00
  0
VERTEX
  8
0IMP_ROD
 10
224275.27
 20
9361976.00
  0
VERTEX
  8
0IMP_ROD
 10
224338.13
 20
9361943.00
  0
VERTEX
  8
0IMP_ROD
 10
224401.00
 20
9361910.00
  0
VERTEX
  8
0IMP_ROD
 10
224464.39
 20
9361909.00
  0
VERTEX
  8
0IMP_ROD
 10
224526.70
 20
9361845.00
  0
VERTEX
  8
0IMP_ROD
 10
224620.72
 20
9361779.00
  0
VERTEX
  8
0IMP_ROD
 10
224715.28
 20
9361746.00
  0
VERTEX
  8
0IMP_ROD
 10
224809.83
 20
9361712.00
  0
VERTEX
  8
0IMP_ROD
 10
224873.23
 20
9361711.00
  0
SEQEND
  8
0IMP_ROD
  0
POLYLINE
  8
0IMP_ROD
 66
     1
  0
VERTEX
  8
0IMP_ROD
 10
179454.67
 20
9394934.00
  0
VERTEX
  8
0IMP_ROD
 10
179437.00
 20
9394555.00
  0
VERTEX
  8
0IMP_ROD
 10
179310.55
 20
9394553.00
  0
VERTEX
  8
0IMP_ROD
 10
179313.59
 20
9394427.00
  0
VERTEX
  8
0IMP_ROD
 10
179316.64
 20
9394301.00
  0
VERTEX
  8
0IMP_ROD
 10
179319.69
 20
9394175.00
  0
VERTEX
  8
0IMP_ROD
 10
179322.73
 20
9394049.00
  0
VERTEX
  8
0IMP_ROD
 10
179325.78
 20
9393923.00
  0
VERTEX
  8
0IMP_ROD
 10
179205.45
 20
9393668.00
  0
VERTEX
  8
0IMP_ROD
 10
179211.55
 20
9393417.00
  0
VERTEX
  8
0IMP_ROD
 10
179214.59
 20
9393291.00
  0
VERTEX
  8
0IMP_ROD
 10
179217.64
 20
9393165.00
  0
VERTEX
  8
0IMP_ROD
 10
179220.69
 20
9393039.00
  0
VERTEX
  8
0IMP_ROD
 10
179223.73
 20
9392913.00
  0
VERTEX
  8
0IMP_ROD
 10
179100.33
 20
9392784.00
  0
VERTEX
  8
0IMP_ROD
 10
179106.44
 20
9392532.00
  0
VERTEX
  8
0IMP_ROD
 10
178986.09
 20
9392278.00
  0
VERTEX
  8
0IMP_ROD
 10
178865.75
 20
9392023.00
  0
VERTEX
  8
0IMP_ROD
 10
178742.34
 20
9391895.00
  0
VERTEX
  8
0IMP_ROD
 10
178745.39
 20
9391769.00
  0
VERTEX
  8
0IMP_ROD
 10
178622.00
 20
9391640.00
  0
VERTEX
  8
0IMP_ROD
 10
178625.05
 20
9391514.00
  0
VERTEX
  8
0IMP_ROD
 10
178631.16
 20
9391262.00
  0
VERTEX
  8
0IMP_ROD
 10
178634.20
 20
9391136.00
  0
VERTEX
  8
0IMP_ROD
 10
178637.25
 20
9391010.00
  0
VERTEX
  8
0IMP_ROD
 10
178640.30
 20
9390884.00
  0
VERTEX
  8
0IMP_ROD
 10
178646.39
 20
9390632.00
  0
VERTEX
  8
0IMP_ROD
 10
178649.44
 20
9390506.00
  0
VERTEX
  8
0IMP_ROD
 10
178652.48
 20
9390381.00
  0
VERTEX
  8
0IMP_ROD
 10
178781.95
 20
9390257.00
  0
VERTEX
  8
0IMP_ROD
 10
178785.00
 20
9390131.00
  0
VERTEX
  8
0IMP_ROD
 10
178788.05
 20
9390005.00
  0
VERTEX
  8
0IMP_ROD
 10
178791.09
 20
9389879.00
  0
VERTEX
  8
0IMP_ROD
 10
178794.16
 20
9389753.00
  0
VERTEX
  8
0IMP_ROD
 10
178926.69
 20
9389504.00
  0
VERTEX
  8
0IMP_ROD
 10
178929.73
 20
9389378.00
  0
VERTEX
  8
0IMP_ROD
 10
178932.78
 20
9389252.00
  0
VERTEX
  8
0IMP_ROD
 10
179062.28
 20
9389128.00
  0
VERTEX
  8
0IMP_ROD
 10
179068.38
 20
9388876.00
  0
VERTEX
  8
0IMP_ROD
 10
179071.42
 20
9388751.00
  0
VERTEX
  8
0IMP_ROD
 10
179203.95
 20
9388501.00
  0
VERTEX
  8
0IMP_ROD
 10
179210.05
 20
9388249.00
  0
VERTEX
  8
0IMP_ROD
 10
179339.55
 20
9388126.00
  0
VERTEX
  8
0IMP_ROD
 10
179469.02
 20
9388002.00
  0
VERTEX
  8
0IMP_ROD
 10
179598.52
 20
9387879.00
  0
VERTEX
  8
0IMP_ROD
 10
179728.02
 20
9387755.00
  0
VERTEX
  8
0IMP_ROD
 10
179860.53
 20
9387506.00
  0
VERTEX
  8
0IMP_ROD
 10
179986.98
 20
9387509.00
  0
VERTEX
  8
0IMP_ROD
 10
180113.41
 20
9387511.00
  0
VERTEX
  8
0IMP_ROD
 10
180245.95
 20
9387262.00
  0
VERTEX
  8
0IMP_ROD
 10
180372.41
 20
9387264.00
  0
VERTEX
  8
0IMP_ROD
 10
180498.83
 20
9387267.00
  0
VERTEX
  8
0IMP_ROD
 10
180754.77
 20
9387146.00
  0
VERTEX
  8
0IMP_ROD
 10
180884.25
 20
9387022.00
  0
VERTEX
  8
0IMP_ROD
 10
181013.75
 20
9386899.00
  0
VERTEX
  8
0IMP_ROD
 10
181016.80
 20
9386773.00
  0
VERTEX
  8
0IMP_ROD
 10
181019.84
 20
9386647.00
  0
VERTEX
  8
0IMP_ROD
 10
181022.89
 20
9386521.00
  0
VERTEX
  8
0IMP_ROD
 10
181025.94
 20
9386395.00
  0
VERTEX
  8
0IMP_ROD
 10
180905.59
 20
9386141.00
  0
VERTEX
  8
0IMP_ROD
 10
180908.64
 20
9386015.00
  0
VERTEX
  8
0IMP_ROD
 10
180911.69
 20
9385889.00
  0
VERTEX
  8
0IMP_ROD
 10
180791.33
 20
9385634.00
  0
VERTEX
  8
0IMP_ROD
 10
180797.42
 20
9385382.00
  0
VERTEX
  8
0IMP_ROD
 10
180677.09
 20
9385128.00
  0
VERTEX
  8
0IMP_ROD
 10
180689.28
 20
9384624.00
  0
VERTEX
  8
0IMP_ROD
 10
180695.38
 20
9384372.00
  0
VERTEX
  8
0IMP_ROD
 10
180698.42
 20
9384246.00
  0
VERTEX
  8
0IMP_ROD
 10
180701.47
 20
9384120.00
  0
VERTEX
  8
0IMP_ROD
 10
180704.52
 20
9383994.00
  0
VERTEX
  8
0IMP_ROD
 10
180833.98
 20
9383871.00
  0
VERTEX
  8
0IMP_ROD
 10
180840.08
 20
9383619.00
  0
VERTEX
  8
0IMP_ROD
 10
181099.08
 20
9383372.00
  0
VERTEX
  8
0IMP_ROD
 10
181108.22
 20
9382994.00
  0
VERTEX
  8
0IMP_ROD
 10
181114.31
 20
9382742.00
  0
VERTEX
  8
0IMP_ROD
 10
181120.41
 20
9382490.00
  0
VERTEX
  8
0IMP_ROD
 10
181126.50
 20
9382238.00
  0
VERTEX
  8
0IMP_ROD
 10
181129.55
 20
9382112.00
  0
VERTEX
  8
0IMP_ROD
 10
181132.59
 20
9381986.00
  0
VERTEX
  8
0IMP_ROD
 10
181135.64
 20
9381860.00
  0
VERTEX
  8
0IMP_ROD
 10
181138.69
 20
9381734.00
  0
VERTEX
  8
0IMP_ROD
 10
181018.34
 20
9381480.00
  0
VERTEX
  8
0IMP_ROD
 10
180897.98
 20
9381225.00
  0
VERTEX
  8
0IMP_ROD
 10
180777.66
 20
9380971.00
  0
VERTEX
  8
0IMP_ROD
 10
180654.25
 20
9380842.00
  0
VERTEX
  8
0IMP_ROD
 10
180530.88
 20
9380714.00
  0
VERTEX
  8
0IMP_ROD
 10
180407.47
 20
9380585.00
  0
VERTEX
  8
0IMP_ROD
 10
180287.13
 20
9380331.00
  0
VERTEX
  8
0IMP_ROD
 10
180290.17
 20
9380205.00
  0
VERTEX
  8
0IMP_ROD
 10
180296.27
 20
9379953.00
  0
VERTEX
  8
0IMP_ROD
 10
180302.36
 20
9379701.00
  0
VERTEX
  8
0IMP_ROD
 10
180311.50
 20
9379323.00
  0
VERTEX
  8
0IMP_ROD
 10
180320.64
 20
9378945.00
  0
VERTEX
  8
0IMP_ROD
 10
180326.73
 20
9378693.00
  0
VERTEX
  8
0IMP_ROD
 10
180329.78
 20
9378567.00
  0
VERTEX
  8
0IMP_ROD
 10
180332.83
 20
9378441.00
  0
VERTEX
  8
0IMP_ROD
 10
180335.88
 20
9378315.00
  0
VERTEX
  8
0IMP_ROD
 10
180465.38
 20
9378192.00
  0
VERTEX
  8
0IMP_ROD
 10
180594.88
 20
9378068.00
  0
VERTEX
  8
0IMP_ROD
 10
180597.92
 20
9377942.00
  0
VERTEX
  8
0IMP_ROD
 10
180600.97
 20
9377816.00
  0
VERTEX
  8
0IMP_ROD
 10
180607.06
 20
9377564.00
  0
VERTEX
  8
0IMP_ROD
 10
180613.16
 20
9377313.00
  0
VERTEX
  8
0IMP_ROD
 10
180619.25
 20
9377061.00
  0
VERTEX
  8
0IMP_ROD
 10
180625.34
 20
9376809.00
  0
VERTEX
  8
0IMP_ROD
 10
180757.88
 20
9376559.00
  0
VERTEX
  8
0IMP_ROD
 10
180763.97
 20
9376307.00
  0
VERTEX
  8
0IMP_ROD
 10
180767.02
 20
9376181.00
  0
VERTEX
  8
0IMP_ROD
 10
180770.06
 20
9376055.00
  0
VERTEX
  8
0IMP_ROD
 10
180773.11
 20
9375929.00
  0
VERTEX
  8
0IMP_ROD
 10
180776.16
 20
9375803.00
  0
VERTEX
  8
0IMP_ROD
 10
180779.20
 20
9375677.00
  0
VERTEX
  8
0IMP_ROD
 10
180782.25
 20
9375551.00
  0
VERTEX
  8
0IMP_ROD
 10
180914.80
 20
9375302.00
  0
VERTEX
  8
0IMP_ROD
 10
180923.94
 20
9374924.00
  0
VERTEX
  8
0IMP_ROD
 10
180936.13
 20
9374420.00
  0
VERTEX
  8
0IMP_ROD
 10
180945.27
 20
9374042.00
  0
VERTEX
  8
0IMP_ROD
 10
180824.91
 20
9373788.00
  0
VERTEX
  8
0IMP_ROD
 10
180831.00
 20
9373536.00
  0
VERTEX
  8
0IMP_ROD
 10
180710.67
 20
9373281.00
  0
VERTEX
  8
0IMP_ROD
 10
180716.77
 20
9373029.00
  0
VERTEX
  8
0IMP_ROD
 10
180596.42
 20
9372775.00
  0
VERTEX
  8
0IMP_ROD
 10
180473.02
 20
9372646.00
  0
VERTEX
  8
0IMP_ROD
 10
180349.64
 20
9372518.00
  0
VERTEX
  8
0IMP_ROD
 10
180226.23
 20
9372389.00
  0
VERTEX
  8
0IMP_ROD
 10
180102.84
 20
9372261.00
  0
VERTEX
  8
0IMP_ROD
 10
179979.45
 20
9372132.00
  0
VERTEX
  8
0IMP_ROD
 10
179853.00
 20
9372130.00
  0
VERTEX
  8
0IMP_ROD
 10
179729.63
 20
9372001.00
  0
VERTEX
  8
0IMP_ROD
 10
179479.78
 20
9371870.00
  0
VERTEX
  8
0IMP_ROD
 10
179356.39
 20
9371742.00
  0
VERTEX
  8
0IMP_ROD
 10
179232.98
 20
9371613.00
  0
VERTEX
  8
0IMP_ROD
 10
179109.61
 20
9371485.00
  0
VERTEX
  8
0IMP_ROD
 10
178989.25
 20
9371230.00
  0
VERTEX
  8
0IMP_ROD
 10
178865.88
 20
9371102.00
  0
VERTEX
  8
0IMP_ROD
 10
178871.97
 20
9370850.00
  0
VERTEX
  8
0IMP_ROD
 10
178875.02
 20
9370724.00
  0
VERTEX
  8
0IMP_ROD
 10
178878.06
 20
9370598.00
  0
VERTEX
  8
0IMP_ROD
 10
178884.16
 20
9370346.00
  0
VERTEX
  8
0IMP_ROD
 10
179016.67
 20
9370097.00
  0
VERTEX
  8
0IMP_ROD
 10
179152.27
 20
9369721.00
  0
VERTEX
  8
0IMP_ROD
 10
179284.80
 20
9369472.00
  0
VERTEX
  8
0IMP_ROD
 10
179414.30
 20
9369348.00
  0
VERTEX
  8
0IMP_ROD
 10
179670.22
 20
9369227.00
  0
VERTEX
  8
0IMP_ROD
 10
179673.27
 20
9369102.00
  0
VERTEX
  8
0IMP_ROD
 10
179799.72
 20
9369104.00
  0
VERTEX
  8
0IMP_ROD
 10
179926.14
 20
9369107.00
  0
VERTEX
  8
0IMP_ROD
 10
179929.19
 20
9368981.00
  0
VERTEX
  8
0IMP_ROD
 10
180182.09
 20
9368986.00
  0
VERTEX
  8
0IMP_ROD
 10
180308.52
 20
9368988.00
  0
VERTEX
  8
0IMP_ROD
 10
180311.56
 20
9368862.00
  0
VERTEX
  8
0IMP_ROD
 10
180314.61
 20
9368736.00
  0
VERTEX
  8
0IMP_ROD
 10
180317.66
 20
9368610.00
  0
VERTEX
  8
0IMP_ROD
 10
180320.70
 20
9368484.00
  0
VERTEX
  8
0IMP_ROD
 10
180194.28
 20
9368482.00
  0
VERTEX
  8
0IMP_ROD
 10
180197.33
 20
9368356.00
  0
VERTEX
  8
0IMP_ROD
 10
180203.42
 20
9368104.00
  0
VERTEX
  8
0IMP_ROD
 10
180083.06
 20
9367849.00
  0
VERTEX
  8
0IMP_ROD
 10
179839.33
 20
9367466.00
  0
VERTEX
  8
0IMP_ROD
 10
179842.38
 20
9367340.00
  0
VERTEX
  8
0IMP_ROD
 10
179848.47
 20
9367088.00
  0
VERTEX
  8
0IMP_ROD
 10
179851.52
 20
9366963.00
  0
VERTEX
  8
0IMP_ROD
 10
179857.61
 20
9366711.00
  0
VERTEX
  8
0IMP_ROD
 10
179863.70
 20
9366459.00
  0
VERTEX
  8
0IMP_ROD
 10
179990.14
 20
9366461.00
  0
VERTEX
  8
0IMP_ROD
 10
180119.64
 20
9366338.00
  0
VERTEX
  8
0IMP_ROD
 10
180249.13
 20
9366214.00
  0
VERTEX
  8
0IMP_ROD
 10
180375.56
 20
9366217.00
  0
VERTEX
  8
0IMP_ROD
 10
180378.61
 20
9366091.00
  0
VERTEX
  8
0IMP_ROD
 10
180505.06
 20
9366093.00
  0
VERTEX
  8
0IMP_ROD
 10
180508.09
 20
9365967.00
  0
VERTEX
  8
0IMP_ROD
 10
180637.58
 20
9365844.00
  0
VERTEX
  8
0IMP_ROD
 10
180643.67
 20
9365592.00
  0
VERTEX
  8
0IMP_ROD
 10
180646.72
 20
9365466.00
  0
VERTEX
  8
0IMP_ROD
 10
180649.77
 20
9365340.00
  0
VERTEX
  8
0IMP_ROD
 10
180652.81
 20
9365214.00
  0
VERTEX
  8
0IMP_ROD
 10
180658.91
 20
9364962.00
  0
VERTEX
  8
0IMP_ROD
 10
180535.53
 20
9364834.00
  0
VERTEX
  8
0IMP_ROD
 10
180538.58
 20
9364708.00
  0
VERTEX
  8
0IMP_ROD
 10
180544.67
 20
9364456.00
  0
VERTEX
  8
0IMP_ROD
 10
180424.31
 20
9364201.00
  0
VERTEX
  8
0IMP_ROD
 10
180300.94
 20
9364073.00
  0
VERTEX
  8
0IMP_ROD
 10
180177.53
 20
9363944.00
  0
VERTEX
  8
0IMP_ROD
 10
180180.58
 20
9363818.00
  0
VERTEX
  8
0IMP_ROD
 10
180060.23
 20
9363564.00
  0
VERTEX
  8
0IMP_ROD
 10
180063.28
 20
9363438.00
  0
VERTEX
  8
0IMP_ROD
 10
180066.33
 20
9363312.00
  0
VERTEX
  8
0IMP_ROD
 10
179942.94
 20
9363183.00
  0
VERTEX
  8
0IMP_ROD
 10
179945.98
 20
9363057.00
  0
VERTEX
  8
0IMP_ROD
 10
179949.03
 20
9362931.00
  0
VERTEX
  8
0IMP_ROD
 10
179952.08
 20
9362805.00
  0
VERTEX
  8
0IMP_ROD
 10
179828.69
 20
9362677.00
  0
VERTEX
  8
0IMP_ROD
 10
179834.78
 20
9362425.00
  0
VERTEX
  8
0IMP_ROD
 10
179837.83
 20
9362299.00
  0
VERTEX
  8
0IMP_ROD
 10
179840.88
 20
9362173.00
  0
VERTEX
  8
0IMP_ROD
 10
179843.92
 20
9362047.00
  0
VERTEX
  8
0IMP_ROD
 10
179846.97
 20
9361921.00
  0
VERTEX
  8
0IMP_ROD
 10
179850.02
 20
9361795.00
  0
VERTEX
  8
0IMP_ROD
 10
179853.06
 20
9361669.00
  0
VERTEX
  8
0IMP_ROD
 10
179859.02
 20
9361424.00
  0
SEQEND
  8
0IMP_ROD
  0
POLYLINE
  8
0IMP_ROD
 66
     1
  0
VERTEX
  8
0IMP_ROD
 10
179844.02
 20
9361551.00
  0
VERTEX
  8
0IMP_ROD
 10
179751.02
 20
9360659.00
  0
VERTEX
  8
0IMP_ROD
 10
179754.06
 20
9360533.00
  0
VERTEX
  8
0IMP_ROD
 10
179757.11
 20
9360407.00
  0
VERTEX
  8
0IMP_ROD
 10
179763.20
 20
9360155.00
  0
VERTEX
  8
0IMP_ROD
 10
179642.86
 20
9359900.00
  0
VERTEX
  8
0IMP_ROD
 10
179648.95
 20
9359649.00
  0
VERTEX
  8
0IMP_ROD
 10
179655.05
 20
9359397.00
  0
VERTEX
  8
0IMP_ROD
 10
179661.14
 20
9359145.00
  0
VERTEX
  8
0IMP_ROD
 10
179540.78
 20
9358890.00
  0
VERTEX
  8
0IMP_ROD
 10
179546.88
 20
9358638.00
  0
VERTEX
  8
0IMP_ROD
 10
179549.92
 20
9358512.00
  0
VERTEX
  8
0IMP_ROD
 10
179556.02
 20
9358260.00
  0
VERTEX
  8
0IMP_ROD
 10
179562.11
 20
9358008.00
  0
VERTEX
  8
0IMP_ROD
 10
179563.94
 20
9357933.00
  0
SEQEND
  8
0IMP_ROD
  0
POLYLINE
  8
0IMP_ROD
 66
     1
  0
VERTEX
  8
0IMP_ROD
 10
167758.97
 20
9354368.00
  0
VERTEX
  8
0IMP_ROD
 10
167885.42
 20
9354371.00
  0
VERTEX
  8
0IMP_ROD
 10
167888.47
 20
9354245.00
  0
VERTEX
  8
0IMP_ROD
 10
168014.91
 20
9354247.00
  0
VERTEX
  8
0IMP_ROD
 10
168141.34
 20
9354250.00
  0
VERTEX
  8
0IMP_ROD
 10
168267.78
 20
9354252.00
  0
VERTEX
  8
0IMP_ROD
 10
168270.83
 20
9354127.00
  0
VERTEX
  8
0IMP_ROD
 10
168397.28
 20
9354129.00
  0
VERTEX
  8
0IMP_ROD
 10
168526.77
 20
9354006.00
  0
VERTEX
  8
0IMP_ROD
 10
168653.20
 20
9354008.00
  0
VERTEX
  8
0IMP_ROD
 10
168779.66
 20
9354011.00
  0
VERTEX
  8
0IMP_ROD
 10
168782.70
 20
9353885.00
  0
VERTEX
  8
0IMP_ROD
 10
168909.13
 20
9353887.00
  0
VERTEX
  8
0IMP_ROD
 10
168912.17
 20
9353761.00
  0
VERTEX
  8
0IMP_ROD
 10
169165.06
 20
9353766.00
  0
VERTEX
  8
0IMP_ROD
 10
169168.11
 20
9353640.00
  0
VERTEX
  8
0IMP_ROD
 10
169294.55
 20
9353643.00
  0
VERTEX
  8
0IMP_ROD
 10
169421.00
 20
9353645.00
  0
VERTEX
  8
0IMP_ROD
 10
169547.42
 20
9353648.00
  0
VERTEX
  8
0IMP_ROD
 10
169550.47
 20
9353522.00
  0
VERTEX
  8
0IMP_ROD
 10
169676.92
 20
9353525.00
  0
VERTEX
  8
0IMP_ROD
 10
169679.97
 20
9353399.00
  0
VERTEX
  8
0IMP_ROD
 10
169806.42
 20
9353401.00
  0
VERTEX
  8
0IMP_ROD
 10
169935.89
 20
9353278.00
  0
VERTEX
  8
0IMP_ROD
 10
170062.34
 20
9353280.00
  0
VERTEX
  8
0IMP_ROD
 10
170188.77
 20
9353283.00
  0
VERTEX
  8
0IMP_ROD
 10
170191.81
 20
9353157.00
  0
VERTEX
  8
0IMP_ROD
 10
170318.27
 20
9353159.00
  0
VERTEX
  8
0IMP_ROD
 10
170321.31
 20
9353033.00
  0
VERTEX
  8
0IMP_ROD
 10
170442.09
 20
9352957.00
  0
SEQEND
  8
0IMP_ROD
  0
POLYLINE
  8
0IMP_ROD
 66
     1
  0
VERTEX
  8
0IMP_ROD
 10
171605.09
 20
9351815.00
  0
VERTEX
  8
0IMP_ROD
 10
171616.20
 20
9351799.00
  0
VERTEX
  8
0IMP_ROD
 10
171619.25
 20
9351673.00
  0
VERTEX
  8
0IMP_ROD
 10
171748.73
 20
9351550.00
  0
VERTEX
  8
0IMP_ROD
 10
171878.22
 20
9351426.00
  0
VERTEX
  8
0IMP_ROD
 10
172007.78
 20
9351300.00
  0
SEQEND
  8
0IMP_ROD
  0
POLYLINE
  8
0IMP_ROD
 66
     1
  0
VERTEX
  8
0IMP_ROD
 10
172007.78
 20
9351300.00
  0
VERTEX
  8
0IMP_ROD
 10
172137.19
 20
9351179.00
  0
VERTEX
  8
0IMP_ROD
 10
172140.23
 20
9351053.00
  0
VERTEX
  8
0IMP_ROD
 10
172269.73
 20
9350930.00
  0
VERTEX
  8
0IMP_ROD
 10
172396.17
 20
9350933.00
  0
VERTEX
  8
0IMP_ROD
 10
172399.23
 20
9350807.00
  0
VERTEX
  8
0IMP_ROD
 10
172525.66
 20
9350809.00
  0
VERTEX
  8
0IMP_ROD
 10
172655.16
 20
9350686.00
  0
VERTEX
  8
0IMP_ROD
 10
172781.58
 20
9350688.00
  0
VERTEX
  8
0IMP_ROD
 10
172820.02
 20
9350486.00
  0
SEQEND
  8
0IMP_ROD
  0
POLYLINE
  8
0IMP_ROD
 66
     1
  0
VERTEX
  8
0IMP_ROD
 10
172820.02
 20
9350486.00
  0
VERTEX
  8
0IMP_ROD
 10
172983.91
 20
9350236.00
  0
VERTEX
  8
0IMP_ROD
 10
173046.75
 20
9350203.00
  0
VERTEX
  8
0IMP_ROD
 10
173109.61
 20
9350171.00
  0
VERTEX
  8
0IMP_ROD
 10
173139.67
 20
9350075.00
  0
VERTEX
  8
0IMP_ROD
 10
173170.28
 20
9350011.00
  0
VERTEX
  8
0IMP_ROD
 10
173233.14
 20
9349978.00
  0
VERTEX
  8
0IMP_ROD
 10
173263.75
 20
9349914.00
  0
VERTEX
  8
0IMP_ROD
 10
173262.66
 20
9349850.00
  0
VERTEX
  8
0IMP_ROD
 10
173324.95
 20
9349786.00
  0
VERTEX
  8
0IMP_ROD
 10
173355.56
 20
9349722.00
  0
VERTEX
  8
0IMP_ROD
 10
173386.17
 20
9349657.00
  0
VERTEX
  8
0IMP_ROD
 10
173416.23
 20
9349562.00
  0
VERTEX
  8
0IMP_ROD
 10
173519.98
 20
9349422.00
  0
SEQEND
  8
0IMP_ROD
  0
POLYLINE
  8
0IMP_ROD
 66
     1
  0
VERTEX
  8
0IMP_ROD
 10
179282.61
 20
9356226.00
  0
VERTEX
  8
0IMP_ROD
 10
179228.52
 20
9356111.00
  0
VERTEX
  8
0IMP_ROD
 10
179231.56
 20
9355985.00
  0
VERTEX
  8
0IMP_ROD
 10
179111.22
 20
9355731.00
  0
VERTEX
  8
0IMP_ROD
 10
179117.31
 20
9355479.00
  0
VERTEX
  8
0IMP_ROD
 10
179123.41
 20
9355227.00
  0
VERTEX
  8
0IMP_ROD
 10
179003.05
 20
9354972.00
  0
VERTEX
  8
0IMP_ROD
 10
179009.14
 20
9354720.00
  0
VERTEX
  8
0IMP_ROD
 10
179015.23
 20
9354468.00
  0
VERTEX
  8
0IMP_ROD
 10
179021.34
 20
9354217.00
  0
VERTEX
  8
0IMP_ROD
 10
179027.44
 20
9353965.00
  0
VERTEX
  8
0IMP_ROD
 10
178907.09
 20
9353710.00
  0
VERTEX
  8
0IMP_ROD
 10
178913.19
 20
9353458.00
  0
VERTEX
  8
0IMP_ROD
 10
178916.23
 20
9353332.00
  0
VERTEX
  8
0IMP_ROD
 10
178922.33
 20
9353080.00
  0
VERTEX
  8
0IMP_ROD
 10
178801.98
 20
9352826.00
  0
VERTEX
  8
0IMP_ROD
 10
178808.08
 20
9352574.00
  0
VERTEX
  8
0IMP_ROD
 10
178814.17
 20
9352322.00
  0
VERTEX
  8
0IMP_ROD
 10
178690.80
 20
9352193.00
  0
VERTEX
  8
0IMP_ROD
 10
178693.84
 20
9352067.00
  0
VERTEX
  8
0IMP_ROD
 10
178696.89
 20
9351941.00
  0
VERTEX
  8
0IMP_ROD
 10
178576.53
 20
9351687.00
  0
VERTEX
  8
0IMP_ROD
 10
178453.13
 20
9351558.00
  0
VERTEX
  8
0IMP_ROD
 10
178203.30
 20
9351427.00
  0
VERTEX
  8
0IMP_ROD
 10
178206.34
 20
9351301.00
  0
VERTEX
  8
0IMP_ROD
 10
178082.97
 20
9351173.00
  0
VERTEX
  8
0IMP_ROD
 10
177959.56
 20
9351044.00
  0
VERTEX
  8
0IMP_ROD
 10
177833.13
 20
9351042.00
  0
VERTEX
  8
0IMP_ROD
 10
177712.78
 20
9350787.00
  0
VERTEX
  8
0IMP_ROD
 10
177589.38
 20
9350659.00
  0
VERTEX
  8
0IMP_ROD
 10
177469.05
 20
9350404.00
  0
VERTEX
  8
0IMP_ROD
 10
177342.59
 20
9350402.00
  0
VERTEX
  8
0IMP_ROD
 10
177219.20
 20
9350273.00
  0
VERTEX
  8
0IMP_ROD
 10
177092.77
 20
9350271.00
  0
VERTEX
  8
0IMP_ROD
 10
176972.42
 20
9350016.00
  0
VERTEX
  8
0IMP_ROD
 10
176849.03
 20
9349888.00
  0
VERTEX
  8
0IMP_ROD
 10
176722.58
 20
9349885.00
  0
VERTEX
  8
0IMP_ROD
 10
176725.64
 20
9349759.00
  0
VERTEX
  8
0IMP_ROD
 10
176605.28
 20
9349505.00
  0
VERTEX
  8
0IMP_ROD
 10
176355.45
 20
9349374.00
  0
VERTEX
  8
0IMP_ROD
 10
176232.06
 20
9349245.00
  0
VERTEX
  8
0IMP_ROD
 10
176108.67
 20
9349117.00
  0
VERTEX
  8
0IMP_ROD
 10
175985.27
 20
9348988.00
  0
VERTEX
  8
0IMP_ROD
 10
175861.89
 20
9348860.00
  0
VERTEX
  8
0IMP_ROD
 10
175864.94
 20
9348734.00
  0
VERTEX
  8
0IMP_ROD
 10
175738.48
 20
9348731.00
  0
VERTEX
  8
0IMP_ROD
 10
175615.09
 20
9348603.00
  0
VERTEX
  8
0IMP_ROD
 10
175488.66
 20
9348600.00
  0
VERTEX
  8
0IMP_ROD
 10
175491.70
 20
9348474.00
  0
VERTEX
  8
0IMP_ROD
 10
175368.30
 20
9348346.00
  0
VERTEX
  8
0IMP_ROD
 10
175178.28
 20
9348216.00
  0
SEQEND
  8
0IMP_ROD
  0
POLYLINE
  8
0IMP_ROD
 66
     1
  0
VERTEX
  8
0IMP_ROD
 10
175178.28
 20
9348216.00
  0
VERTEX
  8
0IMP_ROD
 10
175121.52
 20
9348089.00
  0
VERTEX
  8
0IMP_ROD
 10
174827.86
 20
9347957.00
  0
SEQEND
  8
0IMP_ROD
  0
POLYLINE
  8
0IMP_ROD
 66
     1
  0
VERTEX
  8
0IMP_ROD
 10
173519.98
 20
9349422.00
  0
VERTEX
  8
0IMP_ROD
 10
173602.06
 20
9349304.00
  0
VERTEX
  8
0IMP_ROD
 10
173632.67
 20
9349240.00
  0
VERTEX
  8
0IMP_ROD
 10
173726.14
 20
9349143.00
  0
VERTEX
  8
0IMP_ROD
 10
173788.45
 20
9349079.00
  0
VERTEX
  8
0IMP_ROD
 10
173851.31
 20
9349046.00
  0
VERTEX
  8
0IMP_ROD
 10
173881.91
 20
9348982.00
  0
VERTEX
  8
0IMP_ROD
 10
173944.22
 20
9348917.00
  0
VERTEX
  8
0IMP_ROD
 10
173974.83
 20
9348853.00
  0
VERTEX
  8
0IMP_ROD
 10
174037.69
 20
9348820.00
  0
VERTEX
  8
0IMP_ROD
 10
174099.45
 20
9348724.00
  0
VERTEX
  8
0IMP_ROD
 10
174193.47
 20
9348658.00
  0
VERTEX
  8
0IMP_ROD
 10
174223.52
 20
9348563.00
  0
VERTEX
  8
0IMP_ROD
 10
174316.98
 20
9348466.00
  0
VERTEX
  8
0IMP_ROD
 10
174410.45
 20
9348369.00
  0
VERTEX
  8
0IMP_ROD
 10
174504.47
 20
9348303.00
  0
VERTEX
  8
0IMP_ROD
 10
174535.06
 20
9348239.00
  0
VERTEX
  8
0IMP_ROD
 10
174597.92
 20
9348206.00
  0
VERTEX
  8
0IMP_ROD
 10
174659.69
 20
9348110.00
  0
VERTEX
  8
0IMP_ROD
 10
174722.00
 20
9348045.00
  0
VERTEX
  8
0IMP_ROD
 10
174827.86
 20
9347957.00
  0
SEQEND
  8
0IMP_ROD
  0
POLYLINE
  8
0IMP_ROD
 66
     1
  0
VERTEX
  8
0IMP_ROD
 10
174827.86
 20
9347957.00
  0
VERTEX
  8
0IMP_ROD
 10
174908.92
 20
9347851.00
  0
VERTEX
  8
0IMP_ROD
 10
174971.23
 20
9347787.00
  0
VERTEX
  8
0IMP_ROD
 10
175033.55
 20
9347722.00
  0
VERTEX
  8
0IMP_ROD
 10
175064.16
 20
9347658.00
  0
VERTEX
  8
0IMP_ROD
 10
175127.02
 20
9347625.00
  0
VERTEX
  8
0IMP_ROD
 10
175156.53
 20
9347498.00
  0
VERTEX
  8
0IMP_ROD
 10
175218.83
 20
9347433.00
  0
VERTEX
  8
0IMP_ROD
 10
175280.59
 20
9347337.00
  0
VERTEX
  8
0IMP_ROD
 10
175342.91
 20
9347272.00
  0
VERTEX
  8
0IMP_ROD
 10
175373.52
 20
9347208.00
  0
VERTEX
  8
0IMP_ROD
 10
175436.38
 20
9347175.00
  0
VERTEX
  8
0IMP_ROD
 10
175498.67
 20
9347110.00
  0
VERTEX
  8
0IMP_ROD
 10
175560.44
 20
9347014.00
  0
VERTEX
  8
0IMP_ROD
 10
175622.20
 20
9346918.00
  0
VERTEX
  8
0IMP_ROD
 10
175683.42
 20
9346789.00
  0
VERTEX
  8
0IMP_ROD
 10
175712.94
 20
9346662.00
  0
VERTEX
  8
0IMP_ROD
 10
175840.42
 20
9346494.00
  0
SEQEND
  8
0IMP_ROD
  0
LINE
  8
0IMP_ROD
 10
175840.42
 20
9346494.00
 11
176175.64
 21
9346093.00
  0
LINE
  8
0IMP_ROD
 10
176175.64
 20
9346093.00
 11
176627.11
 21
9345686.00
  0
POLYLINE
  8
0IMP_ROD
 66
     1
  0
VERTEX
  8
0IMP_ROD
 10
225182.59
 20
9361261.00
  0
VERTEX
  8
0IMP_ROD
 10
225181.50
 20
9361197.00
  0
VERTEX
  8
0IMP_ROD
 10
225148.70
 20
9361135.00
  0
VERTEX
  8
0IMP_ROD
 10
225147.61
 20
9361071.00
  0
VERTEX
  8
0IMP_ROD
 10
225114.81
 20
9361008.00
  0
VERTEX
  8
0IMP_ROD
 10
225113.72
 20
9360945.00
  0
VERTEX
  8
0IMP_ROD
 10
225080.92
 20
9360882.00
  0
VERTEX
  8
0IMP_ROD
 10
225048.13
 20
9360819.00
  0
VERTEX
  8
0IMP_ROD
 10
225047.03
 20
9360756.00
  0
VERTEX
  8
0IMP_ROD
 10
225014.23
 20
9360693.00
  0
VERTEX
  8
0IMP_ROD
 10
225012.59
 20
9360597.00
  0
VERTEX
  8
0IMP_ROD
 10
224948.09
 20
9360535.00
  0
VERTEX
  8
0IMP_ROD
 10
224946.98
 20
9360472.00
  0
VERTEX
  8
0IMP_ROD
 10
224914.20
 20
9360409.00
  0
VERTEX
  8
0IMP_ROD
 10
224881.39
 20
9360346.00
  0
VERTEX
  8
0IMP_ROD
 10
224879.77
 20
9360251.00
  0
VERTEX
  8
0IMP_ROD
 10
224846.97
 20
9360188.00
  0
VERTEX
  8
0IMP_ROD
 10
224814.17
 20
9360125.00
  0
VERTEX
  8
0IMP_ROD
 10
224813.06
 20
9360062.00
  0
VERTEX
  8
0IMP_ROD
 10
224780.27
 20
9359999.00
  0
VERTEX
  8
0IMP_ROD
 10
224779.17
 20
9359935.00
  0
VERTEX
  8
0IMP_ROD
 10
224715.22
 20
9359905.00
  0
VERTEX
  8
0IMP_ROD
 10
224681.88
 20
9359810.00
  0
VERTEX
  8
0IMP_ROD
 10
224617.38
 20
9359748.00
  0
VERTEX
  8
0IMP_ROD
 10
224616.28
 20
9359684.00
  0
VERTEX
  8
0IMP_ROD
 10
224551.23
 20
9359590.00
  0
VERTEX
  8
0IMP_ROD
 10
224518.44
 20
9359527.00
  0
VERTEX
  8
0IMP_ROD
 10
224454.48
 20
9359497.00
  0
VERTEX
  8
0IMP_ROD
 10
224421.14
 20
9359402.00
  0
VERTEX
  8
0IMP_ROD
 10
224388.34
 20
9359339.00
  0
VERTEX
  8
0IMP_ROD
 10
224323.84
 20
9359277.00
  0
VERTEX
  8
0IMP_ROD
 10
224291.05
 20
9359214.00
  0
VERTEX
  8
0IMP_ROD
 10
224258.25
 20
9359151.00
  0
VERTEX
  8
0IMP_ROD
 10
224193.20
 20
9359057.00
  0
VERTEX
  8
0IMP_ROD
 10
224159.86
 20
9358963.00
  0
VERTEX
  8
0IMP_ROD
 10
224094.81
 20
9358869.00
  0
VERTEX
  8
0IMP_ROD
 10
224062.02
 20
9358806.00
  0
VERTEX
  8
0IMP_ROD
 10
223997.52
 20
9358744.00
  0
VERTEX
  8
0IMP_ROD
 10
223964.72
 20
9358681.00
  0
VERTEX
  8
0IMP_ROD
 10
223931.92
 20
9358618.00
  0
VERTEX
  8
0IMP_ROD
 10
223835.17
 20
9358524.00
  0
VERTEX
  8
0IMP_ROD
 10
223738.42
 20
9358431.00
  0
VERTEX
  8
0IMP_ROD
 10
223705.63
 20
9358368.00
  0
VERTEX
  8
0IMP_ROD
 10
223641.13
 20
9358306.00
  0
VERTEX
  8
0IMP_ROD
 10
223576.63
 20
9358243.00
  0
VERTEX
  8
0IMP_ROD
 10
223543.28
 20
9358149.00
  0
VERTEX
  8
0IMP_ROD
 10
223478.23
 20
9358055.00
  0
VERTEX
  8
0IMP_ROD
 10
223477.14
 20
9357991.00
  0
VERTEX
  8
0IMP_ROD
 10
223443.80
 20
9357897.00
  0
VERTEX
  8
0IMP_ROD
 10
223410.45
 20
9357802.00
  0
VERTEX
  8
0IMP_ROD
 10
223377.11
 20
9357708.00
  0
VERTEX
  8
0IMP_ROD
 10
223375.47
 20
9357612.00
  0
VERTEX
  8
0IMP_ROD
 10
223373.83
 20
9357517.00
  0
VERTEX
  8
0IMP_ROD
 10
223372.17
 20
9357422.00
  0
VERTEX
  8
0IMP_ROD
 10
223370.53
 20
9357327.00
  0
VERTEX
  8
0IMP_ROD
 10
223368.91
 20
9357232.00
  0
VERTEX
  8
0IMP_ROD
 10
223367.25
 20
9357136.00
  0
VERTEX
  8
0IMP_ROD
 10
223365.06
 20
9357009.00
  0
VERTEX
  8
0IMP_ROD
 10
223362.88
 20
9356883.00
  0
VERTEX
  8
0IMP_ROD
 10
223392.39
 20
9356755.00
  0
VERTEX
  8
0IMP_ROD
 10
223421.89
 20
9356627.00
  0
VERTEX
  8
0IMP_ROD
 10
223450.86
 20
9356468.00
  0
VERTEX
  8
0IMP_ROD
 10
223479.28
 20
9356277.00
  0
VERTEX
  8
0IMP_ROD
 10
223508.25
 20
9356118.00
  0
VERTEX
  8
0IMP_ROD
 10
223537.22
 20
9355959.00
  0
VERTEX
  8
0IMP_ROD
 10
223535.02
 20
9355832.00
  0
VERTEX
  8
0IMP_ROD
 10
223533.38
 20
9355737.00
  0
VERTEX
  8
0IMP_ROD
 10
223562.89
 20
9355609.00
  0
VERTEX
  8
0IMP_ROD
 10
223560.70
 20
9355482.00
  0
VERTEX
  8
0IMP_ROD
 10
223558.52
 20
9355355.00
  0
VERTEX
  8
0IMP_ROD
 10
223555.78
 20
9355196.00
  0
VERTEX
  8
0IMP_ROD
 10
223553.03
 20
9355038.00
  0
VERTEX
  8
0IMP_ROD
 10
223550.84
 20
9354911.00
  0
VERTEX
  8
0IMP_ROD
 10
223548.66
 20
9354784.00
  0
VERTEX
  8
0IMP_ROD
 10
223546.47
 20
9354657.00
  0
VERTEX
  8
0IMP_ROD
 10
223575.98
 20
9354529.00
  0
VERTEX
  8
0IMP_ROD
 10
223574.34
 20
9354434.00
  0
VERTEX
  8
0IMP_ROD
 10
223571.59
 20
9354276.00
  0
VERTEX
  8
0IMP_ROD
 10
223569.41
 20
9354149.00
  0
VERTEX
  8
0IMP_ROD
 10
223630.08
 20
9353989.00
  0
VERTEX
  8
0IMP_ROD
 10
223627.89
 20
9353862.00
  0
VERTEX
  8
0IMP_ROD
 10
223656.84
 20
9353703.00
  0
VERTEX
  8
0IMP_ROD
 10
223686.36
 20
9353575.00
  0
VERTEX
  8
0IMP_ROD
 10
223684.17
 20
9353448.00
  0
VERTEX
  8
0IMP_ROD
 10
223681.98
 20
9353321.00
  0
VERTEX
  8
0IMP_ROD
 10
223712.05
 20
9353225.00
  0
VERTEX
  8
0IMP_ROD
 10
223710.41
 20
9353130.00
  0
VERTEX
  8
0IMP_ROD
 10
223708.75
 20
9353035.00
  0
VERTEX
  8
0IMP_ROD
 10
223707.66
 20
9352972.00
  0
VERTEX
  8
0IMP_ROD
 10
223706.02
 20
9352876.00
  0
VERTEX
  8
0IMP_ROD
 10
223704.92
 20
9352813.00
  0
VERTEX
  8
0IMP_ROD
 10
223703.28
 20
9352718.00
  0
VERTEX
  8
0IMP_ROD
 10
223702.19
 20
9352654.00
  0
VERTEX
  8
0IMP_ROD
 10
223701.09
 20
9352591.00
  0
VERTEX
  8
0IMP_ROD
 10
223699.45
 20
9352496.00
  0
VERTEX
  8
0IMP_ROD
 10
223698.34
 20
9352432.00
  0
VERTEX
  8
0IMP_ROD
 10
223697.25
 20
9352369.00
  0
VERTEX
  8
0IMP_ROD
 10
223664.47
 20
9352306.00
  0
VERTEX
  8
0IMP_ROD
 10
223662.81
 20
9352211.00
  0
VERTEX
  8
0IMP_ROD
 10
223661.72
 20
9352147.00
  0
VERTEX
  8
0IMP_ROD
 10
223660.64
 20
9352084.00
  0
VERTEX
  8
0IMP_ROD
 10
223659.55
 20
9352020.00
  0
VERTEX
  8
0IMP_ROD
 10
223657.89
 20
9351925.00
  0
VERTEX
  8
0IMP_ROD
 10
223656.80
 20
9351862.00
  0
VERTEX
  8
0IMP_ROD
 10
223624.00
 20
9351799.00
  0
VERTEX
  8
0IMP_ROD
 10
223622.36
 20
9351703.00
  0
VERTEX
  8
0IMP_ROD
 10
223621.27
 20
9351640.00
  0
VERTEX
  8
0IMP_ROD
 10
223619.63
 20
9351545.00
  0
VERTEX
  8
0IMP_ROD
 10
223586.83
 20
9351482.00
  0
VERTEX
  8
0IMP_ROD
 10
223585.73
 20
9351418.00
  0
VERTEX
  8
0IMP_ROD
 10
223552.38
 20
9351324.00
  0
VERTEX
  8
0IMP_ROD
 10
223551.28
 20
9351260.00
  0
VERTEX
  8
0IMP_ROD
 10
223550.20
 20
9351197.00
  0
VERTEX
  8
0IMP_ROD
 10
223516.84
 20
9351102.00
  0
VERTEX
  8
0IMP_ROD
 10
223515.75
 20
9351039.00
  0
VERTEX
  8
0IMP_ROD
 10
223514.66
 20
9350975.00
  0
VERTEX
  8
0IMP_ROD
 10
223513.56
 20
9350912.00
  0
VERTEX
  8
0IMP_ROD
 10
223511.92
 20
9350817.00
  0
VERTEX
  8
0IMP_ROD
 10
223479.13
 20
9350754.00
  0
VERTEX
  8
0IMP_ROD
 10
223477.48
 20
9350659.00
  0
VERTEX
  8
0IMP_ROD
 10
223444.14
 20
9350564.00
  0
VERTEX
  8
0IMP_ROD
 10
223442.50
 20
9350469.00
  0
VERTEX
  8
0IMP_ROD
 10
223441.41
 20
9350405.00
  0
VERTEX
  8
0IMP_ROD
 10
223408.61
 20
9350342.00
  0
VERTEX
  8
0IMP_ROD
 10
223406.97
 20
9350247.00
  0
VERTEX
  8
0IMP_ROD
 10
223373.63
 20
9350153.00
  0
VERTEX
  8
0IMP_ROD
 10
223308.03
 20
9350027.00
  0
VERTEX
  8
0IMP_ROD
 10
223306.94
 20
9349963.00
  0
VERTEX
  8
0IMP_ROD
 10
223274.13
 20
9349901.00
  0
VERTEX
  8
0IMP_ROD
 10
223240.23
 20
9349774.00
  0
VERTEX
  8
0IMP_ROD
 10
223175.19
 20
9349680.00
  0
VERTEX
  8
0IMP_ROD
 10
223142.39
 20
9349617.00
  0
VERTEX
  8
0IMP_ROD
 10
223140.75
 20
9349522.00
  0
VERTEX
  8
0IMP_ROD
 10
223139.66
 20
9349459.00
  0
VERTEX
  8
0IMP_ROD
 10
223074.61
 20
9349365.00
  0
VERTEX
  8
0IMP_ROD
 10
223072.42
 20
9349238.00
  0
VERTEX
  8
0IMP_ROD
 10
223039.08
 20
9349143.00
  0
VERTEX
  8
0IMP_ROD
 10
223036.89
 20
9349016.00
  0
VERTEX
  8
0IMP_ROD
 10
223004.09
 20
9348953.00
  0
VERTEX
  8
0IMP_ROD
 10
223002.45
 20
9348858.00
  0
VERTEX
  8
0IMP_ROD
 10
223001.36
 20
9348795.00
  0
VERTEX
  8
0IMP_ROD
 10
223000.27
 20
9348731.00
  0
VERTEX
  8
0IMP_ROD
 10
222999.16
 20
9348668.00
  0
VERTEX
  8
0IMP_ROD
 10
222998.06
 20
9348604.00
  0
VERTEX
  8
0IMP_ROD
 10
222996.97
 20
9348541.00
  0
VERTEX
  8
0IMP_ROD
 10
222995.88
 20
9348477.00
  0
VERTEX
  8
0IMP_ROD
 10
222994.78
 20
9348414.00
  0
VERTEX
  8
0IMP_ROD
 10
222993.69
 20
9348350.00
  0
VERTEX
  8
0IMP_ROD
 10
222992.59
 20
9348287.00
  0
VERTEX
  8
0IMP_ROD
 10
222991.50
 20
9348223.00
  0
VERTEX
  8
0IMP_ROD
 10
223022.09
 20
9348159.00
  0
VERTEX
  8
0IMP_ROD
 10
223020.45
 20
9348064.00
  0
VERTEX
  8
0IMP_ROD
 10
223082.22
 20
9347968.00
  0
VERTEX
  8
0IMP_ROD
 10
223081.13
 20
9347904.00
  0
VERTEX
  8
0IMP_ROD
 10
223080.03
 20
9347841.00
  0
VERTEX
  8
0IMP_ROD
 10
223015.53
 20
9347779.00
  0
VERTEX
  8
0IMP_ROD
 10
222982.19
 20
9347684.00
  0
VERTEX
  8
0IMP_ROD
 10
222980.00
 20
9347557.00
  0
VERTEX
  8
0IMP_ROD
 10
222946.66
 20
9347462.00
  0
VERTEX
  8
0IMP_ROD
 10
222881.61
 20
9347368.00
  0
VERTEX
  8
0IMP_ROD
 10
222848.27
 20
9347274.00
  0
VERTEX
  8
0IMP_ROD
 10
222814.92
 20
9347179.00
  0
VERTEX
  8
0IMP_ROD
 10
222782.13
 20
9347116.00
  0
VERTEX
  8
0IMP_ROD
 10
222749.33
 20
9347053.00
  0
VERTEX
  8
0IMP_ROD
 10
222684.28
 20
9346959.00
  0
VERTEX
  8
0IMP_ROD
 10
222651.48
 20
9346897.00
  0
VERTEX
  8
0IMP_ROD
 10
222618.14
 20
9346802.00
  0
VERTEX
  8
0IMP_ROD
 10
222584.25
 20
9346676.00
  0
VERTEX
  8
0IMP_ROD
 10
222519.20
 20
9346582.00
  0
VERTEX
  8
0IMP_ROD
 10
222484.77
 20
9346423.00
  0
VERTEX
  8
0IMP_ROD
 10
222481.47
 20
9346233.00
  0
VERTEX
  8
0IMP_ROD
 10
222447.58
 20
9346107.00
  0
VERTEX
  8
0IMP_ROD
 10
222444.84
 20
9345948.00
  0
VERTEX
  8
0IMP_ROD
 10
222442.66
 20
9345821.00
  0
VERTEX
  8
0IMP_ROD
 10
222441.02
 20
9345726.00
  0
VERTEX
  8
0IMP_ROD
 10
222439.38
 20
9345631.00
  0
VERTEX
  8
0IMP_ROD
 10
222437.19
 20
9345504.00
  0
VERTEX
  8
0IMP_ROD
 10
222435.53
 20
9345409.00
  0
VERTEX
  8
0IMP_ROD
 10
222433.91
 20
9345313.00
  0
VERTEX
  8
0IMP_ROD
 10
222431.70
 20
9345186.00
  0
VERTEX
  8
0IMP_ROD
 10
222430.06
 20
9345091.00
  0
VERTEX
  8
0IMP_ROD
 10
222428.42
 20
9344996.00
  0
VERTEX
  8
0IMP_ROD
 10
222457.25
 20
9344829.00
  0
SEQEND
  8
0IMP_ROD
  0
LINE
  8
0IMP_ROD
 10
222457.25
 20
9344829.00
 11
222539.75
 21
9344392.00
  0
POLYLINE
  8
0IMP_ROD
 66
     1
  0
VERTEX
  8
0IMP_ROD
 10
222539.75
 20
9344392.00
  0
VERTEX
  8
0IMP_ROD
 10
222663.97
 20
9343944.00
  0
VERTEX
  8
0IMP_ROD
 10
222693.48
 20
9343817.00
  0
VERTEX
  8
0IMP_ROD
 10
222690.17
 20
9343625.00
  0
SEQEND
  8
0IMP_ROD
  0
POLYLINE
  8
0IMP_ROD
 66
     1
  0
VERTEX
  8
0IMP_ROD
 10
176627.11
 20
9345686.00
  0
VERTEX
  8
0IMP_ROD
 10
176740.50
 20
9345563.00
  0
VERTEX
  8
0IMP_ROD
 10
176802.80
 20
9345499.00
  0
VERTEX
  8
0IMP_ROD
 10
176865.66
 20
9345466.00
  0
VERTEX
  8
0IMP_ROD
 10
176927.97
 20
9345401.00
  0
VERTEX
  8
0IMP_ROD
 10
177022.53
 20
9345368.00
  0
VERTEX
  8
0IMP_ROD
 10
177084.84
 20
9345303.00
  0
VERTEX
  8
0IMP_ROD
 10
177115.45
 20
9345239.00
  0
VERTEX
  8
0IMP_ROD
 10
177209.45
 20
9345174.00
  0
VERTEX
  8
0IMP_ROD
 10
177272.31
 20
9345141.00
  0
VERTEX
  8
0IMP_ROD
 10
177334.63
 20
9345076.00
  0
VERTEX
  8
0IMP_ROD
 10
177396.94
 20
9345012.00
  0
VERTEX
  8
0IMP_ROD
 10
177490.95
 20
9344946.00
  0
VERTEX
  8
0IMP_ROD
 10
177521.55
 20
9344882.00
  0
VERTEX
  8
0IMP_ROD
 10
177615.56
 20
9344817.00
  0
VERTEX
  8
0IMP_ROD
 10
177677.88
 20
9344752.00
  0
VERTEX
  8
0IMP_ROD
 10
177770.80
 20
9344624.00
  0
VERTEX
  8
0IMP_ROD
 10
177833.09
 20
9344559.00
  0
VERTEX
  8
0IMP_ROD
 10
177958.81
 20
9344493.00
  0
VERTEX
  8
0IMP_ROD
 10
178021.13
 20
9344428.00
  0
VERTEX
  8
0IMP_ROD
 10
178115.14
 20
9344363.00
  0
VERTEX
  8
0IMP_ROD
 10
178176.91
 20
9344267.00
  0
VERTEX
  8
0IMP_ROD
 10
178239.20
 20
9344202.00
  0
VERTEX
  8
0IMP_ROD
 10
178332.67
 20
9344105.00
  0
VERTEX
  8
0IMP_ROD
 10
178427.23
 20
9344072.00
  0
VERTEX
  8
0IMP_ROD
 10
178457.84
 20
9344008.00
  0
VERTEX
  8
0IMP_ROD
 10
178520.16
 20
9343943.00
  0
VERTEX
  8
0IMP_ROD
 10
178583.00
 20
9343910.00
  0
VERTEX
  8
0IMP_ROD
 10
178677.02
 20
9343845.00
  0
VERTEX
  8
0IMP_ROD
 10
178739.33
 20
9343780.00
  0
VERTEX
  8
0IMP_ROD
 10
178832.80
 20
9343683.00
  0
VERTEX
  8
0IMP_ROD
 10
178925.70
 20
9343555.00
  0
VERTEX
  8
0IMP_ROD
 10
179050.33
 20
9343425.00
  0
VERTEX
  8
0IMP_ROD
 10
179143.25
 20
9343297.00
  0
VERTEX
  8
0IMP_ROD
 10
179236.16
 20
9343168.00
  0
VERTEX
  8
0IMP_ROD
 10
179317.53
 20
9343104.00
  0
SEQEND
  8
0IMP_ROD
  0
POLYLINE
  8
0IMP_ROD
 66
     1
  0
VERTEX
  8
0IMP_ROD
 10
222690.17
 20
9343625.00
  0
VERTEX
  8
0IMP_ROD
 10
222687.45
 20
9343468.00
  0
VERTEX
  8
0IMP_ROD
 10
222685.81
 20
9343372.00
  0
VERTEX
  8
0IMP_ROD
 10
222684.72
 20
9343309.00
  0
VERTEX
  8
0IMP_ROD
 10
222651.92
 20
9343246.00
  0
VERTEX
  8
0IMP_ROD
 10
222650.28
 20
9343151.00
  0
VERTEX
  8
0IMP_ROD
 10
222648.64
 20
9343056.00
  0
VERTEX
  8
0IMP_ROD
 10
222647.00
 20
9342960.00
  0
VERTEX
  8
0IMP_ROD
 10
222613.66
 20
9342866.00
  0
VERTEX
  8
0IMP_ROD
 10
222612.56
 20
9342802.00
  0
VERTEX
  8
0IMP_ROD
 10
222610.91
 20
9342707.00
  0
VERTEX
  8
0IMP_ROD
 10
222609.28
 20
9342612.00
  0
VERTEX
  8
0IMP_ROD
 10
222607.08
 20
9342485.00
  0
VERTEX
  8
0IMP_ROD
 10
222604.89
 20
9342358.00
  0
VERTEX
  8
0IMP_ROD
 10
222603.25
 20
9342263.00
  0
VERTEX
  8
0IMP_ROD
 10
222601.61
 20
9342168.00
  0
VERTEX
  8
0IMP_ROD
 10
222599.97
 20
9342072.00
  0
VERTEX
  8
0IMP_ROD
 10
222598.33
 20
9341977.00
  0
VERTEX
  8
0IMP_ROD
 10
222597.23
 20
9341914.00
  0
VERTEX
  8
0IMP_ROD
 10
222596.14
 20
9341850.00
  0
VERTEX
  8
0IMP_ROD
 10
222594.48
 20
9341755.00
  0
VERTEX
  8
0IMP_ROD
 10
222625.11
 20
9341691.00
  0
VERTEX
  8
0IMP_ROD
 10
222686.86
 20
9341595.00
  0
VERTEX
  8
0IMP_ROD
 10
222748.08
 20
9341467.00
  0
VERTEX
  8
0IMP_ROD
 10
222809.84
 20
9341370.00
  0
VERTEX
  8
0IMP_ROD
 10
222905.22
 20
9341171.00
  0
SEQEND
  8
0IMP_ROD
  0
POLYLINE
  8
0IMP_ROD
 66
     1
  0
VERTEX
  8
0IMP_ROD
 10
210423.55
 20
9346782.00
  0
VERTEX
  8
0IMP_ROD
 10
210447.25
 20
9346782.00
  0
VERTEX
  8
0IMP_ROD
 10
210573.69
 20
9346785.00
  0
VERTEX
  8
0IMP_ROD
 10
210700.13
 20
9346787.00
  0
VERTEX
  8
0IMP_ROD
 10
210826.56
 20
9346790.00
  0
VERTEX
  8
0IMP_ROD
 10
210953.02
 20
9346792.00
  0
VERTEX
  8
0IMP_ROD
 10
210956.06
 20
9346666.00
  0
VERTEX
  8
0IMP_ROD
 10
211211.98
 20
9346545.00
  0
VERTEX
  8
0IMP_ROD
 10
211341.47
 20
9346422.00
  0
VERTEX
  8
0IMP_ROD
 10
211474.00
 20
9346173.00
  0
VERTEX
  8
0IMP_ROD
 10
211477.05
 20
9346047.00
  0
VERTEX
  8
0IMP_ROD
 10
211480.09
 20
9345921.00
  0
VERTEX
  8
0IMP_ROD
 10
211609.59
 20
9345797.00
  0
VERTEX
  8
0IMP_ROD
 10
211862.47
 20
9345802.00
  0
VERTEX
  8
0IMP_ROD
 10
211988.92
 20
9345805.00
  0
VERTEX
  8
0IMP_ROD
 10
212241.80
 20
9345810.00
  0
VERTEX
  8
0IMP_ROD
 10
212368.23
 20
9345812.00
  0
VERTEX
  8
0IMP_ROD
 10
212494.67
 20
9345815.00
  0
VERTEX
  8
0IMP_ROD
 10
212621.13
 20
9345817.00
  0
VERTEX
  8
0IMP_ROD
 10
212747.55
 20
9345820.00
  0
VERTEX
  8
0IMP_ROD
 10
212750.59
 20
9345694.00
  0
VERTEX
  8
0IMP_ROD
 10
212880.09
 20
9345571.00
  0
VERTEX
  8
0IMP_ROD
 10
212883.14
 20
9345445.00
  0
VERTEX
  8
0IMP_ROD
 10
213139.06
 20
9345324.00
  0
VERTEX
  8
0IMP_ROD
 10
213142.11
 20
9345198.00
  0
VERTEX
  8
0IMP_ROD
 10
213145.16
 20
9345072.00
  0
VERTEX
  8
0IMP_ROD
 10
213271.61
 20
9345074.00
  0
VERTEX
  8
0IMP_ROD
 10
213277.70
 20
9344822.00
  0
VERTEX
  8
0IMP_ROD
 10
213280.75
 20
9344696.00
  0
VERTEX
  8
0IMP_ROD
 10
213410.22
 20
9344573.00
  0
VERTEX
  8
0IMP_ROD
 10
213669.22
 20
9344326.00
  0
VERTEX
  8
0IMP_ROD
 10
213672.27
 20
9344200.00
  0
VERTEX
  8
0IMP_ROD
 10
213925.14
 20
9344205.00
  0
VERTEX
  8
0IMP_ROD
 10
214051.58
 20
9344208.00
  0
VERTEX
  8
0IMP_ROD
 10
214304.48
 20
9344213.00
  0
VERTEX
  8
0IMP_ROD
 10
214551.25
 20
9344470.00
  0
VERTEX
  8
0IMP_ROD
 10
214801.09
 20
9344601.00
  0
VERTEX
  8
0IMP_ROD
 10
215047.88
 20
9344858.00
  0
VERTEX
  8
0IMP_ROD
 10
215171.27
 20
9344986.00
  0
VERTEX
  8
0IMP_ROD
 10
215424.14
 20
9344992.00
  0
VERTEX
  8
0IMP_ROD
 10
215427.19
 20
9344866.00
  0
VERTEX
  8
0IMP_ROD
 10
215433.30
 20
9344614.00
  0
VERTEX
  8
0IMP_ROD
 10
215439.38
 20
9344362.00
  0
VERTEX
  8
0IMP_ROD
 10
215442.44
 20
9344236.00
  0
VERTEX
  8
0IMP_ROD
 10
215445.47
 20
9344110.00
  0
VERTEX
  8
0IMP_ROD
 10
215448.53
 20
9343984.00
  0
VERTEX
  8
0IMP_ROD
 10
215707.50
 20
9343737.00
  0
VERTEX
  8
0IMP_ROD
 10
215710.55
 20
9343611.00
  0
VERTEX
  8
0IMP_ROD
 10
215840.05
 20
9343488.00
  0
VERTEX
  8
0IMP_ROD
 10
215966.47
 20
9343490.00
  0
VERTEX
  8
0IMP_ROD
 10
216089.88
 20
9343619.00
  0
VERTEX
  8
0IMP_ROD
 10
216342.75
 20
9343624.00
  0
VERTEX
  8
0IMP_ROD
 10
216469.20
 20
9343626.00
  0
VERTEX
  8
0IMP_ROD
 10
216595.63
 20
9343629.00
  0
VERTEX
  8
0IMP_ROD
 10
216722.08
 20
9343631.00
  0
VERTEX
  8
0IMP_ROD
 10
216848.53
 20
9343634.00
  0
VERTEX
  8
0IMP_ROD
 10
216974.95
 20
9343636.00
  0
VERTEX
  8
0IMP_ROD
 10
216978.00
 20
9343510.00
  0
VERTEX
  8
0IMP_ROD
 10
217104.45
 20
9343513.00
  0
VERTEX
  8
0IMP_ROD
 10
217107.50
 20
9343387.00
  0
VERTEX
  8
0IMP_ROD
 10
217236.97
 20
9343264.00
  0
VERTEX
  8
0IMP_ROD
 10
217240.02
 20
9343138.00
  0
VERTEX
  8
0IMP_ROD
 10
217243.06
 20
9343012.00
  0
VERTEX
  8
0IMP_ROD
 10
217372.56
 20
9342888.00
  0
VERTEX
  8
0IMP_ROD
 10
217499.02
 20
9342891.00
  0
VERTEX
  8
0IMP_ROD
 10
217502.06
 20
9342765.00
  0
VERTEX
  8
0IMP_ROD
 10
217754.94
 20
9342770.00
  0
VERTEX
  8
0IMP_ROD
 10
217881.38
 20
9342772.00
  0
VERTEX
  8
0IMP_ROD
 10
218010.86
 20
9342649.00
  0
VERTEX
  8
0IMP_ROD
 10
218137.31
 20
9342651.00
  0
VERTEX
  8
0IMP_ROD
 10
218263.75
 20
9342654.00
  0
VERTEX
  8
0IMP_ROD
 10
218390.19
 20
9342657.00
  0
VERTEX
  8
0IMP_ROD
 10
218643.06
 20
9342662.00
  0
VERTEX
  8
0IMP_ROD
 10
218769.52
 20
9342664.00
  0
VERTEX
  8
0IMP_ROD
 10
218895.94
 20
9342667.00
  0
VERTEX
  8
0IMP_ROD
 10
219148.83
 20
9342672.00
  0
VERTEX
  8
0IMP_ROD
 10
219275.28
 20
9342674.00
  0
VERTEX
  8
0IMP_ROD
 10
219278.31
 20
9342548.00
  0
VERTEX
  8
0IMP_ROD
 10
219531.20
 20
9342553.00
  0
VERTEX
  8
0IMP_ROD
 10
219784.08
 20
9342559.00
  0
VERTEX
  8
0IMP_ROD
 10
219787.13
 20
9342433.00
  0
VERTEX
  8
0IMP_ROD
 10
219913.56
 20
9342435.00
  0
VERTEX
  8
0IMP_ROD
 10
220166.45
 20
9342440.00
  0
VERTEX
  8
0IMP_ROD
 10
220295.94
 20
9342317.00
  0
VERTEX
  8
0IMP_ROD
 10
220548.83
 20
9342322.00
  0
VERTEX
  8
0IMP_ROD
 10
220678.31
 20
9342198.00
  0
VERTEX
  8
0IMP_ROD
 10
220807.80
 20
9342075.00
  0
VERTEX
  8
0IMP_ROD
 10
221060.67
 20
9342080.00
  0
VERTEX
  8
0IMP_ROD
 10
221187.11
 20
9342083.00
  0
VERTEX
  8
0IMP_ROD
 10
221440.00
 20
9342088.00
  0
VERTEX
  8
0IMP_ROD
 10
221446.09
 20
9341836.00
  0
VERTEX
  8
0IMP_ROD
 10
221702.02
 20
9341715.00
  0
VERTEX
  8
0IMP_ROD
 10
221831.52
 20
9341591.00
  0
VERTEX
  8
0IMP_ROD
 10
221961.02
 20
9341468.00
  0
VERTEX
  8
0IMP_ROD
 10
221964.06
 20
9341342.00
  0
VERTEX
  8
0IMP_ROD
 10
221967.11
 20
9341216.00
  0
VERTEX
  8
0IMP_ROD
 10
222223.02
 20
9341095.00
  0
VERTEX
  8
0IMP_ROD
 10
222355.56
 20
9340846.00
  0
VERTEX
  8
0IMP_ROD
 10
222706.47
 20
9340865.00
  0
SEQEND
  8
0IMP_ROD
  0
POLYLINE
  8
0IMP_ROD
 66
     1
  0
VERTEX
  8
0IMP_ROD
 10
189529.72
 20
9338296.00
  0
VERTEX
  8
0IMP_ROD
 10
189650.08
 20
9338424.00
  0
VERTEX
  8
0IMP_ROD
 10
189643.98
 20
9338676.00
  0
VERTEX
  8
0IMP_ROD
 10
189764.33
 20
9338930.00
  0
VERTEX
  8
0IMP_ROD
 10
189884.67
 20
9339185.00
  0
VERTEX
  8
0IMP_ROD
 10
190011.13
 20
9339187.00
  0
VERTEX
  8
0IMP_ROD
 10
190131.45
 20
9339442.00
  0
VERTEX
  8
0IMP_ROD
 10
190381.30
 20
9339573.00
  0
VERTEX
  8
0IMP_ROD
 10
190507.73
 20
9339576.00
  0
VERTEX
  8
0IMP_ROD
 10
190760.61
 20
9339581.00
  0
VERTEX
  8
0IMP_ROD
 10
190880.97
 20
9339835.00
  0
VERTEX
  8
0IMP_ROD
 10
191007.41
 20
9339838.00
  0
VERTEX
  8
0IMP_ROD
 10
191133.84
 20
9339840.00
  0
VERTEX
  8
0IMP_ROD
 10
191257.23
 20
9339969.00
  0
VERTEX
  8
0IMP_ROD
 10
191510.13
 20
9339974.00
  0
VERTEX
  8
0IMP_ROD
 10
191507.06
 20
9340100.00
  0
VERTEX
  8
0IMP_ROD
 10
191630.47
 20
9340228.00
  0
VERTEX
  8
0IMP_ROD
 10
191627.42
 20
9340354.00
  0
VERTEX
  8
0IMP_ROD
 10
191624.38
 20
9340480.00
  0
VERTEX
  8
0IMP_ROD
 10
191621.33
 20
9340606.00
  0
VERTEX
  8
0IMP_ROD
 10
191615.23
 20
9340858.00
  0
VERTEX
  8
0IMP_ROD
 10
191609.14
 20
9341110.00
  0
VERTEX
  8
0IMP_ROD
 10
191732.52
 20
9341239.00
  0
VERTEX
  8
0IMP_ROD
 10
191729.47
 20
9341365.00
  0
VERTEX
  8
0IMP_ROD
 10
191723.38
 20
9341616.00
  0
VERTEX
  8
0IMP_ROD
 10
191849.83
 20
9341619.00
  0
VERTEX
  8
0IMP_ROD
 10
191846.78
 20
9341745.00
  0
VERTEX
  8
0IMP_ROD
 10
191967.11
 20
9341999.00
  0
VERTEX
  8
0IMP_ROD
 10
192093.56
 20
9342002.00
  0
VERTEX
  8
0IMP_ROD
 10
192216.95
 20
9342131.00
  0
VERTEX
  8
0IMP_ROD
 10
192340.34
 20
9342259.00
  0
VERTEX
  8
0IMP_ROD
 10
192466.80
 20
9342262.00
  0
VERTEX
  8
0IMP_ROD
 10
192716.63
 20
9342393.00
  0
VERTEX
  8
0IMP_ROD
 10
192843.06
 20
9342395.00
  0
VERTEX
  8
0IMP_ROD
 10
193095.95
 20
9342400.00
  0
VERTEX
  8
0IMP_ROD
 10
193222.38
 20
9342403.00
  0
VERTEX
  8
0IMP_ROD
 10
193475.27
 20
9342408.00
  0
VERTEX
  8
0IMP_ROD
 10
193598.66
 20
9342536.00
  0
VERTEX
  8
0IMP_ROD
 10
193851.53
 20
9342541.00
  0
VERTEX
  8
0IMP_ROD
 10
194101.39
 20
9342673.00
  0
VERTEX
  8
0IMP_ROD
 10
194354.27
 20
9342678.00
  0
VERTEX
  8
0IMP_ROD
 10
194604.09
 20
9342809.00
  0
VERTEX
  8
0IMP_ROD
 10
194727.48
 20
9342937.00
  0
VERTEX
  8
0IMP_ROD
 10
194850.88
 20
9343066.00
  0
VERTEX
  8
0IMP_ROD
 10
195103.75
 20
9343071.00
  0
VERTEX
  8
0IMP_ROD
 10
195100.70
 20
9343197.00
  0
VERTEX
  8
0IMP_ROD
 10
195353.59
 20
9343202.00
  0
VERTEX
  8
0IMP_ROD
 10
195476.98
 20
9343330.00
  0
VERTEX
  8
0IMP_ROD
 10
195600.38
 20
9343459.00
  0
VERTEX
  8
0IMP_ROD
 10
195720.72
 20
9343713.00
  0
VERTEX
  8
0IMP_ROD
 10
195717.67
 20
9343839.00
  0
VERTEX
  8
0IMP_ROD
 10
195714.63
 20
9343965.00
  0
VERTEX
  8
0IMP_ROD
 10
195834.97
 20
9344220.00
  0
VERTEX
  8
0IMP_ROD
 10
195828.88
 20
9344472.00
  0
VERTEX
  8
0IMP_ROD
 10
196075.67
 20
9344729.00
  0
VERTEX
  8
0IMP_ROD
 10
196328.55
 20
9344734.00
  0
VERTEX
  8
0IMP_ROD
 10
196454.98
 20
9344736.00
  0
VERTEX
  8
0IMP_ROD
 10
196701.77
 20
9344993.00
  0
VERTEX
  8
0IMP_ROD
 10
196954.64
 20
9344998.00
  0
VERTEX
  8
0IMP_ROD
 10
197081.09
 20
9345001.00
  0
VERTEX
  8
0IMP_ROD
 10
197207.55
 20
9345004.00
  0
VERTEX
  8
0IMP_ROD
 10
197333.97
 20
9345006.00
  0
VERTEX
  8
0IMP_ROD
 10
197460.42
 20
9345009.00
  0
VERTEX
  8
0IMP_ROD
 10
197707.20
 20
9345266.00
  0
VERTEX
  8
0IMP_ROD
 10
197833.66
 20
9345268.00
  0
VERTEX
  8
0IMP_ROD
 10
198083.48
 20
9345399.00
  0
VERTEX
  8
0IMP_ROD
 10
198209.91
 20
9345402.00
  0
VERTEX
  8
0IMP_ROD
 10
198336.36
 20
9345404.00
  0
VERTEX
  8
0IMP_ROD
 10
198462.81
 20
9345407.00
  0
VERTEX
  8
0IMP_ROD
 10
198592.28
 20
9345283.00
  0
VERTEX
  8
0IMP_ROD
 10
198721.78
 20
9345160.00
  0
VERTEX
  8
0IMP_ROD
 10
198851.27
 20
9345037.00
  0
VERTEX
  8
0IMP_ROD
 10
198983.81
 20
9344787.00
  0
VERTEX
  8
0IMP_ROD
 10
199239.73
 20
9344666.00
  0
VERTEX
  8
0IMP_ROD
 10
199369.22
 20
9344543.00
  0
VERTEX
  8
0IMP_ROD
 10
199498.70
 20
9344419.00
  0
VERTEX
  8
0IMP_ROD
 10
199625.16
 20
9344422.00
  0
VERTEX
  8
0IMP_ROD
 10
199878.03
 20
9344427.00
  0
VERTEX
  8
0IMP_ROD
 10
200004.48
 20
9344430.00
  0
VERTEX
  8
0IMP_ROD
 10
200257.36
 20
9344435.00
  0
VERTEX
  8
0IMP_ROD
 10
200383.80
 20
9344437.00
  0
VERTEX
  8
0IMP_ROD
 10
200639.73
 20
9344316.00
  0
VERTEX
  8
0IMP_ROD
 10
200892.61
 20
9344321.00
  0
VERTEX
  8
0IMP_ROD
 10
201145.48
 20
9344326.00
  0
VERTEX
  8
0IMP_ROD
 10
201271.92
 20
9344329.00
  0
VERTEX
  8
0IMP_ROD
 10
201401.41
 20
9344206.00
  0
VERTEX
  8
0IMP_ROD
 10
201654.30
 20
9344211.00
  0
VERTEX
  8
0IMP_ROD
 10
201783.78
 20
9344087.00
  0
VERTEX
  8
0IMP_ROD
 10
201910.23
 20
9344090.00
  0
VERTEX
  8
0IMP_ROD
 10
201913.28
 20
9343964.00
  0
VERTEX
  8
0IMP_ROD
 10
202166.16
 20
9343969.00
  0
VERTEX
  8
0IMP_ROD
 10
202292.61
 20
9343971.00
  0
VERTEX
  8
0IMP_ROD
 10
202671.91
 20
9343979.00
  0
VERTEX
  8
0IMP_ROD
 10
202798.36
 20
9343982.00
  0
VERTEX
  8
0IMP_ROD
 10
203048.19
 20
9344113.00
  0
VERTEX
  8
0IMP_ROD
 10
203301.06
 20
9344118.00
  0
VERTEX
  8
0IMP_ROD
 10
203427.52
 20
9344120.00
  0
VERTEX
  8
0IMP_ROD
 10
203553.97
 20
9344123.00
  0
VERTEX
  8
0IMP_ROD
 10
203680.39
 20
9344125.00
  0
VERTEX
  8
0IMP_ROD
 10
203806.84
 20
9344128.00
  0
VERTEX
  8
0IMP_ROD
 10
203933.28
 20
9344130.00
  0
VERTEX
  8
0IMP_ROD
 10
204053.63
 20
9344385.00
  0
VERTEX
  8
0IMP_ROD
 10
204177.03
 20
9344513.00
  0
VERTEX
  8
0IMP_ROD
 10
204297.36
 20
9344768.00
  0
VERTEX
  8
0IMP_ROD
 10
204294.31
 20
9344894.00
  0
VERTEX
  8
0IMP_ROD
 10
204420.77
 20
9344896.00
  0
VERTEX
  8
0IMP_ROD
 10
204544.14
 20
9345025.00
  0
VERTEX
  8
0IMP_ROD
 10
204664.50
 20
9345279.00
  0
VERTEX
  8
0IMP_ROD
 10
204658.41
 20
9345531.00
  0
VERTEX
  8
0IMP_ROD
 10
204781.80
 20
9345660.00
  0
VERTEX
  8
0IMP_ROD
 10
204908.23
 20
9345662.00
  0
VERTEX
  8
0IMP_ROD
 10
204905.19
 20
9345788.00
  0
VERTEX
  8
0IMP_ROD
 10
204902.14
 20
9345914.00
  0
VERTEX
  8
0IMP_ROD
 10
205028.59
 20
9345917.00
  0
VERTEX
  8
0IMP_ROD
 10
205148.91
 20
9346171.00
  0
VERTEX
  8
0IMP_ROD
 10
205275.36
 20
9346174.00
  0
VERTEX
  8
0IMP_ROD
 10
205528.25
 20
9346179.00
  0
VERTEX
  8
0IMP_ROD
 10
205654.69
 20
9346182.00
  0
VERTEX
  8
0IMP_ROD
 10
205781.13
 20
9346184.00
  0
VERTEX
  8
0IMP_ROD
 10
205907.58
 20
9346187.00
  0
VERTEX
  8
0IMP_ROD
 10
206034.02
 20
9346189.00
  0
VERTEX
  8
0IMP_ROD
 10
206160.44
 20
9346192.00
  0
VERTEX
  8
0IMP_ROD
 10
206413.33
 20
9346197.00
  0
VERTEX
  8
0IMP_ROD
 10
206539.77
 20
9346199.00
  0
VERTEX
  8
0IMP_ROD
 10
206666.22
 20
9346202.00
  0
VERTEX
  8
0IMP_ROD
 10
206792.66
 20
9346204.00
  0
VERTEX
  8
0IMP_ROD
 10
206789.61
 20
9346330.00
  0
VERTEX
  8
0IMP_ROD
 10
206913.00
 20
9346459.00
  0
VERTEX
  8
0IMP_ROD
 10
206909.95
 20
9346585.00
  0
VERTEX
  8
0IMP_ROD
 10
207159.78
 20
9346716.00
  0
VERTEX
  8
0IMP_ROD
 10
207283.19
 20
9346844.00
  0
VERTEX
  8
0IMP_ROD
 10
207536.06
 20
9346850.00
  0
VERTEX
  8
0IMP_ROD
 10
207662.48
 20
9346852.00
  0
VERTEX
  8
0IMP_ROD
 10
207788.94
 20
9346855.00
  0
VERTEX
  8
0IMP_ROD
 10
207915.39
 20
9346857.00
  0
VERTEX
  8
0IMP_ROD
 10
208168.27
 20
9346862.00
  0
VERTEX
  8
0IMP_ROD
 10
208421.16
 20
9346867.00
  0
VERTEX
  8
0IMP_ROD
 10
208674.03
 20
9346872.00
  0
VERTEX
  8
0IMP_ROD
 10
208731.67
 20
9346874.00
  0
SEQEND
  8
0IMP_ROD
  0
POLYLINE
  8
0IMP_ROD
 66
     1
  0
VERTEX
  8
0IMP_ROD
 10
180149.63
 20
9341716.00
  0
VERTEX
  8
0IMP_ROD
 10
180162.05
 20
9341690.00
  0
VERTEX
  8
0IMP_ROD
 10
180224.36
 20
9341626.00
  0
VERTEX
  8
0IMP_ROD
 10
180223.27
 20
9341562.00
  0
VERTEX
  8
0IMP_ROD
 10
180253.33
 20
9341466.00
  0
VERTEX
  8
0IMP_ROD
 10
180315.08
 20
9341370.00
  0
VERTEX
  8
0IMP_ROD
 10
180345.69
 20
9341306.00
  0
VERTEX
  8
0IMP_ROD
 10
180407.45
 20
9341210.00
  0
VERTEX
  8
0IMP_ROD
 10
180438.06
 20
9341146.00
  0
VERTEX
  8
0IMP_ROD
 10
180500.38
 20
9341081.00
  0
VERTEX
  8
0IMP_ROD
 10
180593.84
 20
9340984.00
  0
VERTEX
  8
0IMP_ROD
 10
180623.89
 20
9340888.00
  0
VERTEX
  8
0IMP_ROD
 10
180717.91
 20
9340823.00
  0
VERTEX
  8
0IMP_ROD
 10
180780.22
 20
9340758.00
  0
VERTEX
  8
0IMP_ROD
 10
180873.69
 20
9340661.00
  0
VERTEX
  8
0IMP_ROD
 10
180904.30
 20
9340597.00
  0
VERTEX
  8
0IMP_ROD
 10
180966.05
 20
9340501.00
  0
VERTEX
  8
0IMP_ROD
 10
180996.66
 20
9340437.00
  0
VERTEX
  8
0IMP_ROD
 10
181058.97
 20
9340372.00
  0
VERTEX
  8
0IMP_ROD
 10
181057.88
 20
9340309.00
  0
VERTEX
  8
0IMP_ROD
 10
181087.39
 20
9340181.00
  0
VERTEX
  8
0IMP_ROD
 10
181150.25
 20
9340148.00
  0
VERTEX
  8
0IMP_ROD
 10
181149.16
 20
9340085.00
  0
VERTEX
  8
0IMP_ROD
 10
181179.75
 20
9340021.00
  0
VERTEX
  8
0IMP_ROD
 10
181241.52
 20
9339924.00
  0
VERTEX
  8
0IMP_ROD
 10
181271.58
 20
9339828.00
  0
VERTEX
  8
0IMP_ROD
 10
181270.48
 20
9339765.00
  0
VERTEX
  8
0IMP_ROD
 10
181301.09
 20
9339701.00
  0
VERTEX
  8
0IMP_ROD
 10
181299.45
 20
9339606.00
  0
VERTEX
  8
0IMP_ROD
 10
181329.52
 20
9339510.00
  0
VERTEX
  8
0IMP_ROD
 10
181359.56
 20
9339414.00
  0
VERTEX
  8
0IMP_ROD
 10
181358.47
 20
9339351.00
  0
VERTEX
  8
0IMP_ROD
 10
181356.83
 20
9339255.00
  0
VERTEX
  8
0IMP_ROD
 10
181387.44
 20
9339191.00
  0
VERTEX
  8
0IMP_ROD
 10
181418.05
 20
9339127.00
  0
VERTEX
  8
0IMP_ROD
 10
181448.66
 20
9339063.00
  0
VERTEX
  8
0IMP_ROD
 10
181510.42
 20
9338967.00
  0
VERTEX
  8
0IMP_ROD
 10
181541.02
 20
9338903.00
  0
VERTEX
  8
0IMP_ROD
 10
181571.63
 20
9338839.00
  0
VERTEX
  8
0IMP_ROD
 10
181633.94
 20
9338774.00
  0
VERTEX
  8
0IMP_ROD
 10
181664.55
 20
9338710.00
  0
VERTEX
  8
0IMP_ROD
 10
181726.86
 20
9338645.00
  0
VERTEX
  8
0IMP_ROD
 10
181789.17
 20
9338581.00
  0
VERTEX
  8
0IMP_ROD
 10
181819.22
 20
9338485.00
  0
VERTEX
  8
0IMP_ROD
 10
181882.08
 20
9338452.00
  0
VERTEX
  8
0IMP_ROD
 10
181975.55
 20
9338355.00
  0
VERTEX
  8
0IMP_ROD
 10
182006.16
 20
9338291.00
  0
VERTEX
  8
0IMP_ROD
 10
182036.22
 20
9338195.00
  0
VERTEX
  8
0IMP_ROD
 10
182098.53
 20
9338131.00
  0
VERTEX
  8
0IMP_ROD
 10
182160.83
 20
9338066.00
  0
VERTEX
  8
0IMP_ROD
 10
182159.73
 20
9338002.00
  0
VERTEX
  8
0IMP_ROD
 10
182190.34
 20
9337938.00
  0
VERTEX
  8
0IMP_ROD
 10
182250.55
 20
9337800.00
  0
SEQEND
  8
0IMP_ROD
  0
POLYLINE
  8
0IMP_ROD
 66
     1
  0
VERTEX
  8
0IMP_ROD
 10
189303.42
 20
9337171.00
  0
VERTEX
  8
0IMP_ROD
 10
189424.63
 20
9337285.00
  0
VERTEX
  8
0IMP_ROD
 10
189551.06
 20
9337288.00
  0
VERTEX
  8
0IMP_ROD
 10
189544.95
 20
9337540.00
  0
VERTEX
  8
0IMP_ROD
 10
189541.91
 20
9337666.00
  0
VERTEX
  8
0IMP_ROD
 10
189538.86
 20
9337792.00
  0
VERTEX
  8
0IMP_ROD
 10
189535.81
 20
9337918.00
  0
VERTEX
  8
0IMP_ROD
 10
189529.72
 20
9338170.00
  0
VERTEX
  8
0IMP_ROD
 10
189529.72
 20
9338296.00
  0
SEQEND
  8
0IMP_ROD
  0
POLYLINE
  8
0IMP_ROD
 66
     1
  0
VERTEX
  8
0IMP_ROD
 10
182299.50
 20
9337644.00
  0
VERTEX
  8
0IMP_ROD
 10
182372.89
 20
9337491.00
  0
VERTEX
  8
0IMP_ROD
 10
182403.50
 20
9337427.00
  0
VERTEX
  8
0IMP_ROD
 10
182402.41
 20
9337363.00
  0
VERTEX
  8
0IMP_ROD
 10
182464.72
 20
9337298.00
  0
VERTEX
  8
0IMP_ROD
 10
182494.78
 20
9337203.00
  0
VERTEX
  8
0IMP_ROD
 10
182525.39
 20
9337139.00
  0
VERTEX
  8
0IMP_ROD
 10
182555.44
 20
9337043.00
  0
VERTEX
  8
0IMP_ROD
 10
182616.66
 20
9336915.00
  0
VERTEX
  8
0IMP_ROD
 10
182747.11
 20
9336764.00
  0
SEQEND
  8
0IMP_ROD
  0
POLYLINE
  8
0IMP_ROD
 66
     1
  0
VERTEX
  8
0IMP_ROD
 10
188934.09
 20
9336645.00
  0
VERTEX
  8
0IMP_ROD
 10
189060.53
 20
9336648.00
  0
VERTEX
  8
0IMP_ROD
 10
189183.94
 20
9336776.00
  0
VERTEX
  8
0IMP_ROD
 10
189310.36
 20
9336779.00
  0
VERTEX
  8
0IMP_ROD
 10
189307.31
 20
9336905.00
  0
VERTEX
  8
0IMP_ROD
 10
189304.27
 20
9337031.00
  0
VERTEX
  8
0IMP_ROD
 10
189303.42
 20
9337171.00
  0
SEQEND
  8
0IMP_ROD
  0
POLYLINE
  8
0IMP_ROD
 66
     1
  0
VERTEX
  8
0IMP_ROD
 10
183250.34
 20
9336405.00
  0
VERTEX
  8
0IMP_ROD
 10
183244.25
 20
9336531.00
  0
VERTEX
  8
0IMP_ROD
 10
183117.83
 20
9336528.00
  0
VERTEX
  8
0IMP_ROD
 10
182991.38
 20
9336526.00
  0
VERTEX
  8
0IMP_ROD
 10
182988.33
 20
9336652.00
  0
VERTEX
  8
0IMP_ROD
 10
182861.91
 20
9336649.00
  0
VERTEX
  8
0IMP_ROD
 10
182747.11
 20
9336764.00
  0
SEQEND
  8
0IMP_ROD
  0
POLYLINE
  8
0IMP_ROD
 66
     1
  0
VERTEX
  8
0IMP_ROD
 10
223051.91
 20
9340666.00
  0
VERTEX
  8
0IMP_ROD
 10
223079.83
 20
9340476.00
  0
VERTEX
  8
0IMP_ROD
 10
223078.19
 20
9340381.00
  0
VERTEX
  8
0IMP_ROD
 10
223076.55
 20
9340286.00
  0
VERTEX
  8
0IMP_ROD
 10
223074.36
 20
9340159.00
  0
VERTEX
  8
0IMP_ROD
 10
223072.17
 20
9340032.00
  0
VERTEX
  8
0IMP_ROD
 10
223070.53
 20
9339937.00
  0
VERTEX
  8
0IMP_ROD
 10
223068.34
 20
9339810.00
  0
VERTEX
  8
0IMP_ROD
 10
223067.23
 20
9339746.00
  0
VERTEX
  8
0IMP_ROD
 10
223065.59
 20
9339651.00
  0
VERTEX
  8
0IMP_ROD
 10
223063.95
 20
9339556.00
  0
VERTEX
  8
0IMP_ROD
 10
223062.31
 20
9339461.00
  0
VERTEX
  8
0IMP_ROD
 10
223060.67
 20
9339366.00
  0
VERTEX
  8
0IMP_ROD
 10
223059.03
 20
9339270.00
  0
VERTEX
  8
0IMP_ROD
 10
223057.39
 20
9339175.00
  0
VERTEX
  8
0IMP_ROD
 10
223055.73
 20
9339080.00
  0
VERTEX
  8
0IMP_ROD
 10
223054.11
 20
9338985.00
  0
VERTEX
  8
0IMP_ROD
 10
223052.45
 20
9338890.00
  0
VERTEX
  8
0IMP_ROD
 10
223050.81
 20
9338794.00
  0
VERTEX
  8
0IMP_ROD
 10
223049.17
 20
9338699.00
  0
VERTEX
  8
0IMP_ROD
 10
223048.08
 20
9338636.00
  0
VERTEX
  8
0IMP_ROD
 10
223109.84
 20
9338539.00
  0
VERTEX
  8
0IMP_ROD
 10
223108.20
 20
9338444.00
  0
VERTEX
  8
0IMP_ROD
 10
223106.02
 20
9338317.00
  0
VERTEX
  8
0IMP_ROD
 10
223167.78
 20
9338221.00
  0
VERTEX
  8
0IMP_ROD
 10
223228.98
 20
9338093.00
  0
VERTEX
  8
0IMP_ROD
 10
223227.34
 20
9337998.00
  0
VERTEX
  8
0IMP_ROD
 10
223256.31
 20
9337838.00
  0
VERTEX
  8
0IMP_ROD
 10
223286.38
 20
9337743.00
  0
VERTEX
  8
0IMP_ROD
 10
223316.42
 20
9337647.00
  0
VERTEX
  8
0IMP_ROD
 10
223314.80
 20
9337552.00
  0
VERTEX
  8
0IMP_ROD
 10
223344.84
 20
9337456.00
  0
VERTEX
  8
0IMP_ROD
 10
223374.91
 20
9337360.00
  0
VERTEX
  8
0IMP_ROD
 10
223404.97
 20
9337264.00
  0
VERTEX
  8
0IMP_ROD
 10
223403.33
 20
9337169.00
  0
VERTEX
  8
0IMP_ROD
 10
223465.09
 20
9337073.00
  0
VERTEX
  8
0IMP_ROD
 10
223495.14
 20
9336977.00
  0
VERTEX
  8
0IMP_ROD
 10
223525.20
 20
9336881.00
  0
VERTEX
  8
0IMP_ROD
 10
223524.11
 20
9336817.00
  0
VERTEX
  8
0IMP_ROD
 10
223586.42
 20
9336753.00
  0
VERTEX
  8
0IMP_ROD
 10
223615.94
 20
9336625.00
  0
VERTEX
  8
0IMP_ROD
 10
223678.23
 20
9336561.00
  0
VERTEX
  8
0IMP_ROD
 10
223708.30
 20
9336465.00
  0
VERTEX
  8
0IMP_ROD
 10
223738.91
 20
9336401.00
  0
VERTEX
  8
0IMP_ROD
 10
223768.97
 20
9336305.00
  0
VERTEX
  8
0IMP_ROD
 10
223799.58
 20
9336241.00
  0
VERTEX
  8
0IMP_ROD
 10
223830.19
 20
9336177.00
  0
VERTEX
  8
0IMP_ROD
 10
223860.80
 20
9336113.00
  0
SEQEND
  8
0IMP_ROD
  0
POLYLINE
  8
0IMP_ROD
 66
     1
  0
VERTEX
  8
0IMP_ROD
 10
182250.55
 20
9337800.00
  0
VERTEX
  8
0IMP_ROD
 10
181994.28
 20
9337688.00
  0
VERTEX
  8
0IMP_ROD
 10
181944.23
 20
9337644.00
  0
VERTEX
  8
0IMP_ROD
 10
181894.19
 20
9337600.00
  0
VERTEX
  8
0IMP_ROD
 10
181831.64
 20
9337550.00
  0
VERTEX
  8
0IMP_ROD
 10
181781.61
 20
9337512.00
  0
VERTEX
  8
0IMP_ROD
 10
181712.86
 20
9337481.00
  0
VERTEX
  8
0IMP_ROD
 10
181662.84
 20
9337456.00
  0
VERTEX
  8
0IMP_ROD
 10
181612.83
 20
9337425.00
  0
VERTEX
  8
0IMP_ROD
 10
181544.08
 20
9337394.00
  0
VERTEX
  8
0IMP_ROD
 10
181494.05
 20
9337362.00
  0
VERTEX
  8
0IMP_ROD
 10
181437.77
 20
9337318.00
  0
VERTEX
  8
0IMP_ROD
 10
181387.70
 20
9337268.00
  0
VERTEX
  8
0IMP_ROD
 10
181368.81
 20
9337187.00
  0
VERTEX
  8
0IMP_ROD
 10
181293.81
 20
9337162.00
  0
VERTEX
  8
0IMP_ROD
 10
181243.78
 20
9337118.00
  0
VERTEX
  8
0IMP_ROD
 10
181199.92
 20
9337049.00
  0
VERTEX
  8
0IMP_ROD
 10
181174.84
 20
9336999.00
  0
VERTEX
  8
0IMP_ROD
 10
181106.02
 20
9336930.00
  0
VERTEX
  8
0IMP_ROD
 10
181074.69
 20
9336880.00
  0
VERTEX
  8
0IMP_ROD
 10
181030.88
 20
9336830.00
  0
VERTEX
  8
0IMP_ROD
 10
180987.06
 20
9336780.00
  0
VERTEX
  8
0IMP_ROD
 10
180961.98
 20
9336730.00
  0
VERTEX
  8
0IMP_ROD
 10
180918.17
 20
9336680.00
  0
VERTEX
  8
0IMP_ROD
 10
180861.88
 20
9336630.00
  0
VERTEX
  8
0IMP_ROD
 10
180805.55
 20
9336567.00
  0
VERTEX
  8
0IMP_ROD
 10
180749.23
 20
9336511.00
  0
VERTEX
  8
0IMP_ROD
 10
180717.91
 20
9336461.00
  0
VERTEX
  8
0IMP_ROD
 10
180655.31
 20
9336386.00
  0
VERTEX
  8
0IMP_ROD
 10
180605.25
 20
9336336.00
  0
VERTEX
  8
0IMP_ROD
 10
180561.44
 20
9336286.00
  0
VERTEX
  8
0IMP_ROD
 10
180536.36
 20
9336236.00
  0
VERTEX
  8
0IMP_ROD
 10
180467.61
 20
9336205.00
  0
VERTEX
  8
0IMP_ROD
 10
180448.77
 20
9336154.00
  0
VERTEX
  8
0IMP_ROD
 10
180367.47
 20
9336098.00
  0
VERTEX
  8
0IMP_ROD
 10
180317.44
 20
9336054.00
  0
VERTEX
  8
0IMP_ROD
 10
180223.52
 20
9335935.00
  0
SEQEND
  8
0IMP_ROD
  0
POLYLINE
  8
0IMP_ROD
 66
     1
  0
VERTEX
  8
0IMP_ROD
 10
184018.14
 20
9335916.00
  0
VERTEX
  8
0IMP_ROD
 10
184015.09
 20
9336042.00
  0
VERTEX
  8
0IMP_ROD
 10
183888.64
 20
9336040.00
  0
VERTEX
  8
0IMP_ROD
 10
183762.22
 20
9336037.00
  0
VERTEX
  8
0IMP_ROD
 10
183759.17
 20
9336163.00
  0
VERTEX
  8
0IMP_ROD
 10
183632.72
 20
9336161.00
  0
VERTEX
  8
0IMP_ROD
 10
183629.67
 20
9336286.00
  0
VERTEX
  8
0IMP_ROD
 10
183503.25
 20
9336284.00
  0
VERTEX
  8
0IMP_ROD
 10
183376.80
 20
9336281.00
  0
VERTEX
  8
0IMP_ROD
 10
183250.34
 20
9336405.00
  0
SEQEND
  8
0IMP_ROD
  0
POLYLINE
  8
0IMP_ROD
 66
     1
  0
VERTEX
  8
0IMP_ROD
 10
187814.41
 20
9335866.00
  0
VERTEX
  8
0IMP_ROD
 10
187937.81
 20
9335995.00
  0
VERTEX
  8
0IMP_ROD
 10
187934.77
 20
9336121.00
  0
VERTEX
  8
0IMP_ROD
 10
188061.19
 20
9336123.00
  0
VERTEX
  8
0IMP_ROD
 10
188058.16
 20
9336249.00
  0
VERTEX
  8
0IMP_ROD
 10
188184.59
 20
9336252.00
  0
VERTEX
  8
0IMP_ROD
 10
188181.55
 20
9336378.00
  0
VERTEX
  8
0IMP_ROD
 10
188307.98
 20
9336380.00
  0
VERTEX
  8
0IMP_ROD
 10
188304.94
 20
9336506.00
  0
VERTEX
  8
0IMP_ROD
 10
188431.38
 20
9336509.00
  0
VERTEX
  8
0IMP_ROD
 10
188681.20
 20
9336640.00
  0
VERTEX
  8
0IMP_ROD
 10
188807.66
 20
9336643.00
  0
VERTEX
  8
0IMP_ROD
 10
188934.09
 20
9336645.00
  0
SEQEND
  8
0IMP_ROD
  0
TEXT
  8
1IMP_ROD
 10
169851.97
 20
9387355.00
 40
600.00
  1
404
  0
TEXT
  8
1IMP_ROD
 10
170842.69
 20
9352208.00
 40
600.00
  1
230
  0
TEXT
  8
1IMP_ROD
 10
179494.31
 20
9342176.00
 40
600.00
  1
230
  0
TEXT
  8
1IMP_ROD
 10
179164.16
 20
9356597.00
 40
600.00
  1
134
  0
TEXT
  8
1IMP_ROD
 10
198908.09
 20
9381339.00
 40
600.00
  1
201
  0
TEXT
  8
1IMP_ROD
 10
208907.02
 20
9346845.00
 40
600.00
  1
409
  0
TEXT
  8
1IMP_ROD
 10
212938.77
 20
9374009.00
 40
600.00
  1
126
  0
TEXT
  8
1IMP_ROD
 10
221094.33
 20
9386663.00
 40
600.00
  1
126
  0
TEXT
  8
1IMP_ROD
 10
172709.70
 20
9398314.00
 40
600.00
  1
201
  0
TEXT
  8
1IMP_ROD
 10
180924.47
 20
9402276.00
 40
600.00
  1
404
  0
ENDSEC
  0
EOF
