  0
SECTION
  2
HEADER
  9
$EXTMIN
 10
157278.72           
 20
9331716.00          
  9
$EXTMAX
 10
506769.00           
 20
9561427.00          
  9
$LUPREC
 70
     7
  0
ENDSEC
  0
SECTION
  2
ENTITIES
  0
LINE
  8
0IMP_GRD
 10
180000.00
 20
9540000.00
 11
180000.00
 21
9557298.00
  0
LINE
  8
0IMP_GRD
 10
166900.84
 20
9540000.00
 11
180000.00
 21
9540000.00
  0
LINE
  8
0IMP_GRD
 10
200000.00
 20
9540000.00
 11
200000.00
 21
9557353.00
  0
LINE
  8
0IMP_GRD
 10
180000.00
 20
9540000.00
 11
200000.00
 21
9540000.00
  0
LINE
  8
0IMP_GRD
 10
220000.00
 20
9540000.00
 11
220000.00
 21
9557408.00
  0
LINE
  8
0IMP_GRD
 10
200000.00
 20
9540000.00
 11
220000.00
 21
9540000.00
  0
LINE
  8
0IMP_GRD
 10
240000.00
 20
9540000.00
 11
240000.00
 21
9557463.00
  0
LINE
  8
0IMP_GRD
 10
220000.00
 20
9540000.00
 11
240000.00
 21
9540000.00
  0
LINE
  8
0IMP_GRD
 10
260000.00
 20
9540000.00
 11
260000.00
 21
9557518.00
  0
LINE
  8
0IMP_GRD
 10
240000.00
 20
9540000.00
 11
260000.00
 21
9540000.00
  0
LINE
  8
0IMP_GRD
 10
280000.00
 20
9540000.00
 11
280000.00
 21
9557572.00
  0
LINE
  8
0IMP_GRD
 10
260000.00
 20
9540000.00
 11
280000.00
 21
9540000.00
  0
LINE
  8
0IMP_GRD
 10
300000.00
 20
9540000.00
 11
300000.00
 21
9557627.00
  0
LINE
  8
0IMP_GRD
 10
280000.00
 20
9540000.00
 11
300000.00
 21
9540000.00
  0
LINE
  8
0IMP_GRD
 10
320000.00
 20
9540000.00
 11
320000.00
 21
9557682.00
  0
LINE
  8
0IMP_GRD
 10
300000.00
 20
9540000.00
 11
320000.00
 21
9540000.00
  0
LINE
  8
0IMP_GRD
 10
340000.00
 20
9540000.00
 11
340000.00
 21
9557725.00
  0
LINE
  8
0IMP_GRD
 10
320000.00
 20
9540000.00
 11
340000.00
 21
9540000.00
  0
LINE
  8
0IMP_GRD
 10
360000.00
 20
9540000.00
 11
360000.00
 21
9557743.00
  0
LINE
  8
0IMP_GRD
 10
340000.00
 20
9540000.00
 11
360000.00
 21
9540000.00
  0
LINE
  8
0IMP_GRD
 10
380000.00
 20
9540000.00
 11
380000.00
 21
9557761.00
  0
LINE
  8
0IMP_GRD
 10
360000.00
 20
9540000.00
 11
380000.00
 21
9540000.00
  0
LINE
  8
0IMP_GRD
 10
400000.00
 20
9540000.00
 11
400000.00
 21
9557780.00
  0
LINE
  8
0IMP_GRD
 10
380000.00
 20
9540000.00
 11
400000.00
 21
9540000.00
  0
LINE
  8
0IMP_GRD
 10
420000.00
 20
9540000.00
 11
420000.00
 21
9557798.00
  0
LINE
  8
0IMP_GRD
 10
400000.00
 20
9540000.00
 11
420000.00
 21
9540000.00
  0
LINE
  8
0IMP_GRD
 10
440000.00
 20
9540000.00
 11
440000.00
 21
9557816.00
  0
LINE
  8
0IMP_GRD
 10
420000.00
 20
9540000.00
 11
440000.00
 21
9540000.00
  0
LINE
  8
0IMP_GRD
 10
460000.00
 20
9540000.00
 11
460000.00
 21
9557834.00
  0
LINE
  8
0IMP_GRD
 10
440000.00
 20
9540000.00
 11
460000.00
 21
9540000.00
  0
LINE
  8
0IMP_GRD
 10
480000.00
 20
9540000.00
 11
480000.00
 21
9557853.00
  0
LINE
  8
0IMP_GRD
 10
460000.00
 20
9540000.00
 11
480000.00
 21
9540000.00
  0
LINE
  8
0IMP_GRD
 10
500000.00
 20
9540000.00
 11
500000.00
 21
9557871.00
  0
LINE
  8
0IMP_GRD
 10
480000.00
 20
9540000.00
 11
500000.00
 21
9540000.00
  0
LINE
  8
0IMP_GRD
 10
180000.00
 20
9520000.00
 11
180000.00
 21
9540000.00
  0
LINE
  8
0IMP_GRD
 10
166983.08
 20
9520000.00
 11
180000.00
 21
9520000.00
  0
LINE
  8
0IMP_GRD
 10
200000.00
 20
9520000.00
 11
200000.00
 21
9540000.00
  0
LINE
  8
0IMP_GRD
 10
180000.00
 20
9520000.00
 11
200000.00
 21
9520000.00
  0
LINE
  8
0IMP_GRD
 10
220000.00
 20
9520000.00
 11
220000.00
 21
9540000.00
  0
LINE
  8
0IMP_GRD
 10
200000.00
 20
9520000.00
 11
220000.00
 21
9520000.00
  0
LINE
  8
0IMP_GRD
 10
240000.00
 20
9520000.00
 11
240000.00
 21
9540000.00
  0
LINE
  8
0IMP_GRD
 10
220000.00
 20
9520000.00
 11
240000.00
 21
9520000.00
  0
LINE
  8
0IMP_GRD
 10
260000.00
 20
9520000.00
 11
260000.00
 21
9540000.00
  0
LINE
  8
0IMP_GRD
 10
240000.00
 20
9520000.00
 11
260000.00
 21
9520000.00
  0
LINE
  8
0IMP_GRD
 10
280000.00
 20
9520000.00
 11
280000.00
 21
9540000.00
  0
LINE
  8
0IMP_GRD
 10
260000.00
 20
9520000.00
 11
280000.00
 21
9520000.00
  0
LINE
  8
0IMP_GRD
 10
300000.00
 20
9520000.00
 11
300000.00
 21
9540000.00
  0
LINE
  8
0IMP_GRD
 10
280000.00
 20
9520000.00
 11
300000.00
 21
9520000.00
  0
LINE
  8
0IMP_GRD
 10
320000.00
 20
9520000.00
 11
320000.00
 21
9540000.00
  0
LINE
  8
0IMP_GRD
 10
300000.00
 20
9520000.00
 11
320000.00
 21
9520000.00
  0
LINE
  8
0IMP_GRD
 10
340000.00
 20
9520000.00
 11
340000.00
 21
9540000.00
  0
LINE
  8
0IMP_GRD
 10
320000.00
 20
9520000.00
 11
340000.00
 21
9520000.00
  0
LINE
  8
0IMP_GRD
 10
360000.00
 20
9520000.00
 11
360000.00
 21
9540000.00
  0
LINE
  8
0IMP_GRD
 10
340000.00
 20
9520000.00
 11
360000.00
 21
9520000.00
  0
LINE
  8
0IMP_GRD
 10
380000.00
 20
9520000.00
 11
380000.00
 21
9540000.00
  0
LINE
  8
0IMP_GRD
 10
360000.00
 20
9520000.00
 11
380000.00
 21
9520000.00
  0
LINE
  8
0IMP_GRD
 10
400000.00
 20
9520000.00
 11
400000.00
 21
9540000.00
  0
LINE
  8
0IMP_GRD
 10
380000.00
 20
9520000.00
 11
400000.00
 21
9520000.00
  0
LINE
  8
0IMP_GRD
 10
420000.00
 20
9520000.00
 11
420000.00
 21
9540000.00
  0
LINE
  8
0IMP_GRD
 10
400000.00
 20
9520000.00
 11
420000.00
 21
9520000.00
  0
LINE
  8
0IMP_GRD
 10
440000.00
 20
9520000.00
 11
440000.00
 21
9540000.00
  0
LINE
  8
0IMP_GRD
 10
420000.00
 20
9520000.00
 11
440000.00
 21
9520000.00
  0
LINE
  8
0IMP_GRD
 10
460000.00
 20
9520000.00
 11
460000.00
 21
9540000.00
  0
LINE
  8
0IMP_GRD
 10
440000.00
 20
9520000.00
 11
460000.00
 21
9520000.00
  0
LINE
  8
0IMP_GRD
 10
480000.00
 20
9520000.00
 11
480000.00
 21
9540000.00
  0
LINE
  8
0IMP_GRD
 10
460000.00
 20
9520000.00
 11
480000.00
 21
9520000.00
  0
LINE
  8
0IMP_GRD
 10
500000.00
 20
9520000.00
 11
500000.00
 21
9540000.00
  0
LINE
  8
0IMP_GRD
 10
480000.00
 20
9520000.00
 11
500000.00
 21
9520000.00
  0
LINE
  8
0IMP_GRD
 10
180000.00
 20
9500000.00
 11
180000.00
 21
9520000.00
  0
LINE
  8
0IMP_GRD
 10
167065.31
 20
9500000.00
 11
180000.00
 21
9500000.00
  0
LINE
  8
0IMP_GRD
 10
200000.00
 20
9500000.00
 11
200000.00
 21
9520000.00
  0
LINE
  8
0IMP_GRD
 10
180000.00
 20
9500000.00
 11
200000.00
 21
9500000.00
  0
LINE
  8
0IMP_GRD
 10
220000.00
 20
9500000.00
 11
220000.00
 21
9520000.00
  0
LINE
  8
0IMP_GRD
 10
200000.00
 20
9500000.00
 11
220000.00
 21
9500000.00
  0
LINE
  8
0IMP_GRD
 10
240000.00
 20
9500000.00
 11
240000.00
 21
9520000.00
  0
LINE
  8
0IMP_GRD
 10
220000.00
 20
9500000.00
 11
240000.00
 21
9500000.00
  0
LINE
  8
0IMP_GRD
 10
260000.00
 20
9500000.00
 11
260000.00
 21
9520000.00
  0
LINE
  8
0IMP_GRD
 10
240000.00
 20
9500000.00
 11
260000.00
 21
9500000.00
  0
LINE
  8
0IMP_GRD
 10
280000.00
 20
9500000.00
 11
280000.00
 21
9520000.00
  0
LINE
  8
0IMP_GRD
 10
260000.00
 20
9500000.00
 11
280000.00
 21
9500000.00
  0
LINE
  8
0IMP_GRD
 10
300000.00
 20
9500000.00
 11
300000.00
 21
9520000.00
  0
LINE
  8
0IMP_GRD
 10
280000.00
 20
9500000.00
 11
300000.00
 21
9500000.00
  0
LINE
  8
0IMP_GRD
 10
320000.00
 20
9500000.00
 11
320000.00
 21
9520000.00
  0
LINE
  8
0IMP_GRD
 10
300000.00
 20
9500000.00
 11
320000.00
 21
9500000.00
  0
LINE
  8
0IMP_GRD
 10
340000.00
 20
9500000.00
 11
340000.00
 21
9520000.00
  0
LINE
  8
0IMP_GRD
 10
320000.00
 20
9500000.00
 11
340000.00
 21
9500000.00
  0
LINE
  8
0IMP_GRD
 10
360000.00
 20
9500000.00
 11
360000.00
 21
9520000.00
  0
LINE
  8
0IMP_GRD
 10
340000.00
 20
9500000.00
 11
360000.00
 21
9500000.00
  0
LINE
  8
0IMP_GRD
 10
380000.00
 20
9500000.00
 11
380000.00
 21
9520000.00
  0
LINE
  8
0IMP_GRD
 10
360000.00
 20
9500000.00
 11
380000.00
 21
9500000.00
  0
LINE
  8
0IMP_GRD
 10
400000.00
 20
9500000.00
 11
400000.00
 21
9520000.00
  0
LINE
  8
0IMP_GRD
 10
380000.00
 20
9500000.00
 11
400000.00
 21
9500000.00
  0
LINE
  8
0IMP_GRD
 10
420000.00
 20
9500000.00
 11
420000.00
 21
9520000.00
  0
LINE
  8
0IMP_GRD
 10
400000.00
 20
9500000.00
 11
420000.00
 21
9500000.00
  0
LINE
  8
0IMP_GRD
 10
440000.00
 20
9500000.00
 11
440000.00
 21
9520000.00
  0
LINE
  8
0IMP_GRD
 10
420000.00
 20
9500000.00
 11
440000.00
 21
9500000.00
  0
LINE
  8
0IMP_GRD
 10
460000.00
 20
9500000.00
 11
460000.00
 21
9520000.00
  0
LINE
  8
0IMP_GRD
 10
440000.00
 20
9500000.00
 11
460000.00
 21
9500000.00
  0
LINE
  8
0IMP_GRD
 10
480000.00
 20
9500000.00
 11
480000.00
 21
9520000.00
  0
LINE
  8
0IMP_GRD
 10
460000.00
 20
9500000.00
 11
480000.00
 21
9500000.00
  0
LINE
  8
0IMP_GRD
 10
500000.00
 20
9500000.00
 11
500000.00
 21
9520000.00
  0
LINE
  8
0IMP_GRD
 10
480000.00
 20
9500000.00
 11
500000.00
 21
9500000.00
  0
LINE
  8
0IMP_GRD
 10
180000.00
 20
9480000.00
 11
180000.00
 21
9500000.00
  0
LINE
  8
0IMP_GRD
 10
167147.56
 20
9480000.00
 11
180000.00
 21
9480000.00
  0
LINE
  8
0IMP_GRD
 10
200000.00
 20
9480000.00
 11
200000.00
 21
9500000.00
  0
LINE
  8
0IMP_GRD
 10
180000.00
 20
9480000.00
 11
200000.00
 21
9480000.00
  0
LINE
  8
0IMP_GRD
 10
220000.00
 20
9480000.00
 11
220000.00
 21
9500000.00
  0
LINE
  8
0IMP_GRD
 10
200000.00
 20
9480000.00
 11
220000.00
 21
9480000.00
  0
LINE
  8
0IMP_GRD
 10
240000.00
 20
9480000.00
 11
240000.00
 21
9500000.00
  0
LINE
  8
0IMP_GRD
 10
220000.00
 20
9480000.00
 11
240000.00
 21
9480000.00
  0
LINE
  8
0IMP_GRD
 10
260000.00
 20
9480000.00
 11
260000.00
 21
9500000.00
  0
LINE
  8
0IMP_GRD
 10
240000.00
 20
9480000.00
 11
260000.00
 21
9480000.00
  0
LINE
  8
0IMP_GRD
 10
280000.00
 20
9480000.00
 11
280000.00
 21
9500000.00
  0
LINE
  8
0IMP_GRD
 10
260000.00
 20
9480000.00
 11
280000.00
 21
9480000.00
  0
LINE
  8
0IMP_GRD
 10
300000.00
 20
9480000.00
 11
300000.00
 21
9500000.00
  0
LINE
  8
0IMP_GRD
 10
280000.00
 20
9480000.00
 11
300000.00
 21
9480000.00
  0
LINE
  8
0IMP_GRD
 10
320000.00
 20
9480000.00
 11
320000.00
 21
9500000.00
  0
LINE
  8
0IMP_GRD
 10
300000.00
 20
9480000.00
 11
320000.00
 21
9480000.00
  0
LINE
  8
0IMP_GRD
 10
340000.00
 20
9480000.00
 11
340000.00
 21
9500000.00
  0
LINE
  8
0IMP_GRD
 10
320000.00
 20
9480000.00
 11
340000.00
 21
9480000.00
  0
LINE
  8
0IMP_GRD
 10
360000.00
 20
9480000.00
 11
360000.00
 21
9500000.00
  0
LINE
  8
0IMP_GRD
 10
340000.00
 20
9480000.00
 11
360000.00
 21
9480000.00
  0
LINE
  8
0IMP_GRD
 10
380000.00
 20
9480000.00
 11
380000.00
 21
9500000.00
  0
LINE
  8
0IMP_GRD
 10
360000.00
 20
9480000.00
 11
380000.00
 21
9480000.00
  0
LINE
  8
0IMP_GRD
 10
400000.00
 20
9480000.00
 11
400000.00
 21
9500000.00
  0
LINE
  8
0IMP_GRD
 10
380000.00
 20
9480000.00
 11
400000.00
 21
9480000.00
  0
LINE
  8
0IMP_GRD
 10
420000.00
 20
9480000.00
 11
420000.00
 21
9500000.00
  0
LINE
  8
0IMP_GRD
 10
400000.00
 20
9480000.00
 11
420000.00
 21
9480000.00
  0
LINE
  8
0IMP_GRD
 10
440000.00
 20
9480000.00
 11
440000.00
 21
9500000.00
  0
LINE
  8
0IMP_GRD
 10
420000.00
 20
9480000.00
 11
440000.00
 21
9480000.00
  0
LINE
  8
0IMP_GRD
 10
460000.00
 20
9480000.00
 11
460000.00
 21
9500000.00
  0
LINE
  8
0IMP_GRD
 10
440000.00
 20
9480000.00
 11
460000.00
 21
9480000.00
  0
LINE
  8
0IMP_GRD
 10
480000.00
 20
9480000.00
 11
480000.00
 21
9500000.00
  0
LINE
  8
0IMP_GRD
 10
460000.00
 20
9480000.00
 11
480000.00
 21
9480000.00
  0
LINE
  8
0IMP_GRD
 10
500000.00
 20
9480000.00
 11
500000.00
 21
9500000.00
  0
LINE
  8
0IMP_GRD
 10
480000.00
 20
9480000.00
 11
500000.00
 21
9480000.00
  0
LINE
  8
0IMP_GRD
 10
180000.00
 20
9460000.00
 11
180000.00
 21
9480000.00
  0
LINE
  8
0IMP_GRD
 10
167229.80
 20
9460000.00
 11
180000.00
 21
9460000.00
  0
LINE
  8
0IMP_GRD
 10
200000.00
 20
9460000.00
 11
200000.00
 21
9480000.00
  0
LINE
  8
0IMP_GRD
 10
180000.00
 20
9460000.00
 11
200000.00
 21
9460000.00
  0
LINE
  8
0IMP_GRD
 10
220000.00
 20
9460000.00
 11
220000.00
 21
9480000.00
  0
LINE
  8
0IMP_GRD
 10
200000.00
 20
9460000.00
 11
220000.00
 21
9460000.00
  0
LINE
  8
0IMP_GRD
 10
240000.00
 20
9460000.00
 11
240000.00
 21
9480000.00
  0
LINE
  8
0IMP_GRD
 10
220000.00
 20
9460000.00
 11
240000.00
 21
9460000.00
  0
LINE
  8
0IMP_GRD
 10
260000.00
 20
9460000.00
 11
260000.00
 21
9480000.00
  0
LINE
  8
0IMP_GRD
 10
240000.00
 20
9460000.00
 11
260000.00
 21
9460000.00
  0
LINE
  8
0IMP_GRD
 10
280000.00
 20
9460000.00
 11
280000.00
 21
9480000.00
  0
LINE
  8
0IMP_GRD
 10
260000.00
 20
9460000.00
 11
280000.00
 21
9460000.00
  0
LINE
  8
0IMP_GRD
 10
300000.00
 20
9460000.00
 11
300000.00
 21
9480000.00
  0
LINE
  8
0IMP_GRD
 10
280000.00
 20
9460000.00
 11
300000.00
 21
9460000.00
  0
LINE
  8
0IMP_GRD
 10
320000.00
 20
9460000.00
 11
320000.00
 21
9480000.00
  0
LINE
  8
0IMP_GRD
 10
300000.00
 20
9460000.00
 11
320000.00
 21
9460000.00
  0
LINE
  8
0IMP_GRD
 10
340000.00
 20
9460000.00
 11
340000.00
 21
9480000.00
  0
LINE
  8
0IMP_GRD
 10
320000.00
 20
9460000.00
 11
340000.00
 21
9460000.00
  0
LINE
  8
0IMP_GRD
 10
360000.00
 20
9460000.00
 11
360000.00
 21
9480000.00
  0
LINE
  8
0IMP_GRD
 10
340000.00
 20
9460000.00
 11
360000.00
 21
9460000.00
  0
LINE
  8
0IMP_GRD
 10
380000.00
 20
9460000.00
 11
380000.00
 21
9480000.00
  0
LINE
  8
0IMP_GRD
 10
360000.00
 20
9460000.00
 11
380000.00
 21
9460000.00
  0
LINE
  8
0IMP_GRD
 10
400000.00
 20
9460000.00
 11
400000.00
 21
9480000.00
  0
LINE
  8
0IMP_GRD
 10
380000.00
 20
9460000.00
 11
400000.00
 21
9460000.00
  0
LINE
  8
0IMP_GRD
 10
420000.00
 20
9460000.00
 11
420000.00
 21
9480000.00
  0
LINE
  8
0IMP_GRD
 10
400000.00
 20
9460000.00
 11
420000.00
 21
9460000.00
  0
LINE
  8
0IMP_GRD
 10
440000.00
 20
9460000.00
 11
440000.00
 21
9480000.00
  0
LINE
  8
0IMP_GRD
 10
420000.00
 20
9460000.00
 11
440000.00
 21
9460000.00
  0
LINE
  8
0IMP_GRD
 10
460000.00
 20
9460000.00
 11
460000.00
 21
9480000.00
  0
LINE
  8
0IMP_GRD
 10
440000.00
 20
9460000.00
 11
460000.00
 21
9460000.00
  0
LINE
  8
0IMP_GRD
 10
480000.00
 20
9460000.00
 11
480000.00
 21
9480000.00
  0
LINE
  8
0IMP_GRD
 10
460000.00
 20
9460000.00
 11
480000.00
 21
9460000.00
  0
LINE
  8
0IMP_GRD
 10
500000.00
 20
9460000.00
 11
500000.00
 21
9480000.00
  0
LINE
  8
0IMP_GRD
 10
480000.00
 20
9460000.00
 11
500000.00
 21
9460000.00
  0
LINE
  8
0IMP_GRD
 10
180000.00
 20
9440000.00
 11
180000.00
 21
9460000.00
  0
LINE
  8
0IMP_GRD
 10
167318.02
 20
9440000.00
 11
180000.00
 21
9440000.00
  0
LINE
  8
0IMP_GRD
 10
200000.00
 20
9440000.00
 11
200000.00
 21
9460000.00
  0
LINE
  8
0IMP_GRD
 10
180000.00
 20
9440000.00
 11
200000.00
 21
9440000.00
  0
LINE
  8
0IMP_GRD
 10
220000.00
 20
9440000.00
 11
220000.00
 21
9460000.00
  0
LINE
  8
0IMP_GRD
 10
200000.00
 20
9440000.00
 11
220000.00
 21
9440000.00
  0
LINE
  8
0IMP_GRD
 10
240000.00
 20
9440000.00
 11
240000.00
 21
9460000.00
  0
LINE
  8
0IMP_GRD
 10
220000.00
 20
9440000.00
 11
240000.00
 21
9440000.00
  0
LINE
  8
0IMP_GRD
 10
260000.00
 20
9440000.00
 11
260000.00
 21
9460000.00
  0
LINE
  8
0IMP_GRD
 10
240000.00
 20
9440000.00
 11
260000.00
 21
9440000.00
  0
LINE
  8
0IMP_GRD
 10
280000.00
 20
9440000.00
 11
280000.00
 21
9460000.00
  0
LINE
  8
0IMP_GRD
 10
260000.00
 20
9440000.00
 11
280000.00
 21
9440000.00
  0
LINE
  8
0IMP_GRD
 10
300000.00
 20
9440000.00
 11
300000.00
 21
9460000.00
  0
LINE
  8
0IMP_GRD
 10
280000.00
 20
9440000.00
 11
300000.00
 21
9440000.00
  0
LINE
  8
0IMP_GRD
 10
320000.00
 20
9440000.00
 11
320000.00
 21
9460000.00
  0
LINE
  8
0IMP_GRD
 10
300000.00
 20
9440000.00
 11
320000.00
 21
9440000.00
  0
LINE
  8
0IMP_GRD
 10
340000.00
 20
9440000.00
 11
340000.00
 21
9460000.00
  0
LINE
  8
0IMP_GRD
 10
320000.00
 20
9440000.00
 11
340000.00
 21
9440000.00
  0
LINE
  8
0IMP_GRD
 10
360000.00
 20
9440000.00
 11
360000.00
 21
9460000.00
  0
LINE
  8
0IMP_GRD
 10
340000.00
 20
9440000.00
 11
360000.00
 21
9440000.00
  0
LINE
  8
0IMP_GRD
 10
380000.00
 20
9440000.00
 11
380000.00
 21
9460000.00
  0
LINE
  8
0IMP_GRD
 10
360000.00
 20
9440000.00
 11
380000.00
 21
9440000.00
  0
LINE
  8
0IMP_GRD
 10
400000.00
 20
9440000.00
 11
400000.00
 21
9460000.00
  0
LINE
  8
0IMP_GRD
 10
380000.00
 20
9440000.00
 11
400000.00
 21
9440000.00
  0
LINE
  8
0IMP_GRD
 10
420000.00
 20
9440000.00
 11
420000.00
 21
9460000.00
  0
LINE
  8
0IMP_GRD
 10
400000.00
 20
9440000.00
 11
420000.00
 21
9440000.00
  0
LINE
  8
0IMP_GRD
 10
440000.00
 20
9440000.00
 11
440000.00
 21
9460000.00
  0
LINE
  8
0IMP_GRD
 10
420000.00
 20
9440000.00
 11
440000.00
 21
9440000.00
  0
LINE
  8
0IMP_GRD
 10
460000.00
 20
9440000.00
 11
460000.00
 21
9460000.00
  0
LINE
  8
0IMP_GRD
 10
440000.00
 20
9440000.00
 11
460000.00
 21
9440000.00
  0
LINE
  8
0IMP_GRD
 10
480000.00
 20
9440000.00
 11
480000.00
 21
9460000.00
  0
LINE
  8
0IMP_GRD
 10
460000.00
 20
9440000.00
 11
480000.00
 21
9440000.00
  0
LINE
  8
0IMP_GRD
 10
500000.00
 20
9440000.00
 11
500000.00
 21
9460000.00
  0
LINE
  8
0IMP_GRD
 10
480000.00
 20
9440000.00
 11
500000.00
 21
9440000.00
  0
LINE
  8
0IMP_GRD
 10
180000.00
 20
9420000.00
 11
180000.00
 21
9440000.00
  0
LINE
  8
0IMP_GRD
 10
167418.48
 20
9420000.00
 11
180000.00
 21
9420000.00
  0
LINE
  8
0IMP_GRD
 10
200000.00
 20
9420000.00
 11
200000.00
 21
9440000.00
  0
LINE
  8
0IMP_GRD
 10
180000.00
 20
9420000.00
 11
200000.00
 21
9420000.00
  0
LINE
  8
0IMP_GRD
 10
220000.00
 20
9420000.00
 11
220000.00
 21
9440000.00
  0
LINE
  8
0IMP_GRD
 10
200000.00
 20
9420000.00
 11
220000.00
 21
9420000.00
  0
LINE
  8
0IMP_GRD
 10
240000.00
 20
9420000.00
 11
240000.00
 21
9440000.00
  0
LINE
  8
0IMP_GRD
 10
220000.00
 20
9420000.00
 11
240000.00
 21
9420000.00
  0
LINE
  8
0IMP_GRD
 10
260000.00
 20
9420000.00
 11
260000.00
 21
9440000.00
  0
LINE
  8
0IMP_GRD
 10
240000.00
 20
9420000.00
 11
260000.00
 21
9420000.00
  0
LINE
  8
0IMP_GRD
 10
280000.00
 20
9420000.00
 11
280000.00
 21
9440000.00
  0
LINE
  8
0IMP_GRD
 10
260000.00
 20
9420000.00
 11
280000.00
 21
9420000.00
  0
LINE
  8
0IMP_GRD
 10
300000.00
 20
9420000.00
 11
300000.00
 21
9440000.00
  0
LINE
  8
0IMP_GRD
 10
280000.00
 20
9420000.00
 11
300000.00
 21
9420000.00
  0
LINE
  8
0IMP_GRD
 10
320000.00
 20
9420000.00
 11
320000.00
 21
9440000.00
  0
LINE
  8
0IMP_GRD
 10
300000.00
 20
9420000.00
 11
320000.00
 21
9420000.00
  0
LINE
  8
0IMP_GRD
 10
340000.00
 20
9420000.00
 11
340000.00
 21
9440000.00
  0
LINE
  8
0IMP_GRD
 10
320000.00
 20
9420000.00
 11
340000.00
 21
9420000.00
  0
LINE
  8
0IMP_GRD
 10
360000.00
 20
9420000.00
 11
360000.00
 21
9440000.00
  0
LINE
  8
0IMP_GRD
 10
340000.00
 20
9420000.00
 11
360000.00
 21
9420000.00
  0
LINE
  8
0IMP_GRD
 10
380000.00
 20
9420000.00
 11
380000.00
 21
9440000.00
  0
LINE
  8
0IMP_GRD
 10
360000.00
 20
9420000.00
 11
380000.00
 21
9420000.00
  0
LINE
  8
0IMP_GRD
 10
400000.00
 20
9420000.00
 11
400000.00
 21
9440000.00
  0
LINE
  8
0IMP_GRD
 10
380000.00
 20
9420000.00
 11
400000.00
 21
9420000.00
  0
LINE
  8
0IMP_GRD
 10
420000.00
 20
9420000.00
 11
420000.00
 21
9440000.00
  0
LINE
  8
0IMP_GRD
 10
400000.00
 20
9420000.00
 11
420000.00
 21
9420000.00
  0
LINE
  8
0IMP_GRD
 10
440000.00
 20
9420000.00
 11
440000.00
 21
9440000.00
  0
LINE
  8
0IMP_GRD
 10
420000.00
 20
9420000.00
 11
440000.00
 21
9420000.00
  0
LINE
  8
0IMP_GRD
 10
460000.00
 20
9420000.00
 11
460000.00
 21
9440000.00
  0
LINE
  8
0IMP_GRD
 10
440000.00
 20
9420000.00
 11
460000.00
 21
9420000.00
  0
LINE
  8
0IMP_GRD
 10
480000.00
 20
9420000.00
 11
480000.00
 21
9440000.00
  0
LINE
  8
0IMP_GRD
 10
460000.00
 20
9420000.00
 11
480000.00
 21
9420000.00
  0
LINE
  8
0IMP_GRD
 10
500000.00
 20
9420000.00
 11
500000.00
 21
9440000.00
  0
LINE
  8
0IMP_GRD
 10
480000.00
 20
9420000.00
 11
500000.00
 21
9420000.00
  0
LINE
  8
0IMP_GRD
 10
180000.00
 20
9400000.00
 11
180000.00
 21
9420000.00
  0
LINE
  8
0IMP_GRD
 10
167518.95
 20
9400000.00
 11
180000.00
 21
9400000.00
  0
LINE
  8
0IMP_GRD
 10
200000.00
 20
9400000.00
 11
200000.00
 21
9420000.00
  0
LINE
  8
0IMP_GRD
 10
180000.00
 20
9400000.00
 11
200000.00
 21
9400000.00
  0
LINE
  8
0IMP_GRD
 10
220000.00
 20
9400000.00
 11
220000.00
 21
9420000.00
  0
LINE
  8
0IMP_GRD
 10
200000.00
 20
9400000.00
 11
220000.00
 21
9400000.00
  0
LINE
  8
0IMP_GRD
 10
240000.00
 20
9400000.00
 11
240000.00
 21
9420000.00
  0
LINE
  8
0IMP_GRD
 10
220000.00
 20
9400000.00
 11
240000.00
 21
9400000.00
  0
LINE
  8
0IMP_GRD
 10
260000.00
 20
9400000.00
 11
260000.00
 21
9420000.00
  0
LINE
  8
0IMP_GRD
 10
240000.00
 20
9400000.00
 11
260000.00
 21
9400000.00
  0
LINE
  8
0IMP_GRD
 10
280000.00
 20
9400000.00
 11
280000.00
 21
9420000.00
  0
LINE
  8
0IMP_GRD
 10
260000.00
 20
9400000.00
 11
280000.00
 21
9400000.00
  0
LINE
  8
0IMP_GRD
 10
300000.00
 20
9400000.00
 11
300000.00
 21
9420000.00
  0
LINE
  8
0IMP_GRD
 10
280000.00
 20
9400000.00
 11
300000.00
 21
9400000.00
  0
LINE
  8
0IMP_GRD
 10
320000.00
 20
9400000.00
 11
320000.00
 21
9420000.00
  0
LINE
  8
0IMP_GRD
 10
300000.00
 20
9400000.00
 11
320000.00
 21
9400000.00
  0
LINE
  8
0IMP_GRD
 10
340000.00
 20
9400000.00
 11
340000.00
 21
9420000.00
  0
LINE
  8
0IMP_GRD
 10
320000.00
 20
9400000.00
 11
340000.00
 21
9400000.00
  0
LINE
  8
0IMP_GRD
 10
360000.00
 20
9400000.00
 11
360000.00
 21
9420000.00
  0
LINE
  8
0IMP_GRD
 10
340000.00
 20
9400000.00
 11
360000.00
 21
9400000.00
  0
LINE
  8
0IMP_GRD
 10
380000.00
 20
9400000.00
 11
380000.00
 21
9420000.00
  0
LINE
  8
0IMP_GRD
 10
360000.00
 20
9400000.00
 11
380000.00
 21
9400000.00
  0
LINE
  8
0IMP_GRD
 10
400000.00
 20
9400000.00
 11
400000.00
 21
9420000.00
  0
LINE
  8
0IMP_GRD
 10
380000.00
 20
9400000.00
 11
400000.00
 21
9400000.00
  0
LINE
  8
0IMP_GRD
 10
420000.00
 20
9400000.00
 11
420000.00
 21
9420000.00
  0
LINE
  8
0IMP_GRD
 10
400000.00
 20
9400000.00
 11
420000.00
 21
9400000.00
  0
LINE
  8
0IMP_GRD
 10
440000.00
 20
9400000.00
 11
440000.00
 21
9420000.00
  0
LINE
  8
0IMP_GRD
 10
420000.00
 20
9400000.00
 11
440000.00
 21
9400000.00
  0
LINE
  8
0IMP_GRD
 10
460000.00
 20
9400000.00
 11
460000.00
 21
9420000.00
  0
LINE
  8
0IMP_GRD
 10
440000.00
 20
9400000.00
 11
460000.00
 21
9400000.00
  0
LINE
  8
0IMP_GRD
 10
480000.00
 20
9400000.00
 11
480000.00
 21
9420000.00
  0
LINE
  8
0IMP_GRD
 10
460000.00
 20
9400000.00
 11
480000.00
 21
9400000.00
  0
LINE
  8
0IMP_GRD
 10
500000.00
 20
9400000.00
 11
500000.00
 21
9420000.00
  0
LINE
  8
0IMP_GRD
 10
480000.00
 20
9400000.00
 11
500000.00
 21
9400000.00
  0
LINE
  8
0IMP_GRD
 10
180000.00
 20
9380000.00
 11
180000.00
 21
9400000.00
  0
LINE
  8
0IMP_GRD
 10
167619.41
 20
9380000.00
 11
180000.00
 21
9380000.00
  0
LINE
  8
0IMP_GRD
 10
200000.00
 20
9380000.00
 11
200000.00
 21
9400000.00
  0
LINE
  8
0IMP_GRD
 10
180000.00
 20
9380000.00
 11
200000.00
 21
9380000.00
  0
LINE
  8
0IMP_GRD
 10
220000.00
 20
9380000.00
 11
220000.00
 21
9400000.00
  0
LINE
  8
0IMP_GRD
 10
200000.00
 20
9380000.00
 11
220000.00
 21
9380000.00
  0
LINE
  8
0IMP_GRD
 10
240000.00
 20
9380000.00
 11
240000.00
 21
9400000.00
  0
LINE
  8
0IMP_GRD
 10
220000.00
 20
9380000.00
 11
240000.00
 21
9380000.00
  0
LINE
  8
0IMP_GRD
 10
260000.00
 20
9380000.00
 11
260000.00
 21
9400000.00
  0
LINE
  8
0IMP_GRD
 10
240000.00
 20
9380000.00
 11
260000.00
 21
9380000.00
  0
LINE
  8
0IMP_GRD
 10
280000.00
 20
9380000.00
 11
280000.00
 21
9400000.00
  0
LINE
  8
0IMP_GRD
 10
260000.00
 20
9380000.00
 11
280000.00
 21
9380000.00
  0
LINE
  8
0IMP_GRD
 10
300000.00
 20
9380000.00
 11
300000.00
 21
9400000.00
  0
LINE
  8
0IMP_GRD
 10
280000.00
 20
9380000.00
 11
300000.00
 21
9380000.00
  0
LINE
  8
0IMP_GRD
 10
320000.00
 20
9380000.00
 11
320000.00
 21
9400000.00
  0
LINE
  8
0IMP_GRD
 10
300000.00
 20
9380000.00
 11
320000.00
 21
9380000.00
  0
LINE
  8
0IMP_GRD
 10
340000.00
 20
9380000.00
 11
340000.00
 21
9400000.00
  0
LINE
  8
0IMP_GRD
 10
320000.00
 20
9380000.00
 11
340000.00
 21
9380000.00
  0
LINE
  8
0IMP_GRD
 10
360000.00
 20
9380000.00
 11
360000.00
 21
9400000.00
  0
LINE
  8
0IMP_GRD
 10
340000.00
 20
9380000.00
 11
360000.00
 21
9380000.00
  0
LINE
  8
0IMP_GRD
 10
380000.00
 20
9380000.00
 11
380000.00
 21
9400000.00
  0
LINE
  8
0IMP_GRD
 10
360000.00
 20
9380000.00
 11
380000.00
 21
9380000.00
  0
LINE
  8
0IMP_GRD
 10
400000.00
 20
9380000.00
 11
400000.00
 21
9400000.00
  0
LINE
  8
0IMP_GRD
 10
380000.00
 20
9380000.00
 11
400000.00
 21
9380000.00
  0
LINE
  8
0IMP_GRD
 10
420000.00
 20
9380000.00
 11
420000.00
 21
9400000.00
  0
LINE
  8
0IMP_GRD
 10
400000.00
 20
9380000.00
 11
420000.00
 21
9380000.00
  0
LINE
  8
0IMP_GRD
 10
440000.00
 20
9380000.00
 11
440000.00
 21
9400000.00
  0
LINE
  8
0IMP_GRD
 10
420000.00
 20
9380000.00
 11
440000.00
 21
9380000.00
  0
LINE
  8
0IMP_GRD
 10
460000.00
 20
9380000.00
 11
460000.00
 21
9400000.00
  0
LINE
  8
0IMP_GRD
 10
440000.00
 20
9380000.00
 11
460000.00
 21
9380000.00
  0
LINE
  8
0IMP_GRD
 10
480000.00
 20
9380000.00
 11
480000.00
 21
9400000.00
  0
LINE
  8
0IMP_GRD
 10
460000.00
 20
9380000.00
 11
480000.00
 21
9380000.00
  0
LINE
  8
0IMP_GRD
 10
500000.00
 20
9380000.00
 11
500000.00
 21
9400000.00
  0
LINE
  8
0IMP_GRD
 10
480000.00
 20
9380000.00
 11
500000.00
 21
9380000.00
  0
LINE
  8
0IMP_GRD
 10
180000.00
 20
9360000.00
 11
180000.00
 21
9380000.00
  0
LINE
  8
0IMP_GRD
 10
167719.88
 20
9360000.00
 11
180000.00
 21
9360000.00
  0
LINE
  8
0IMP_GRD
 10
200000.00
 20
9360000.00
 11
200000.00
 21
9380000.00
  0
LINE
  8
0IMP_GRD
 10
180000.00
 20
9360000.00
 11
200000.00
 21
9360000.00
  0
LINE
  8
0IMP_GRD
 10
220000.00
 20
9360000.00
 11
220000.00
 21
9380000.00
  0
LINE
  8
0IMP_GRD
 10
200000.00
 20
9360000.00
 11
220000.00
 21
9360000.00
  0
LINE
  8
0IMP_GRD
 10
240000.00
 20
9360000.00
 11
240000.00
 21
9380000.00
  0
LINE
  8
0IMP_GRD
 10
220000.00
 20
9360000.00
 11
240000.00
 21
9360000.00
  0
LINE
  8
0IMP_GRD
 10
260000.00
 20
9360000.00
 11
260000.00
 21
9380000.00
  0
LINE
  8
0IMP_GRD
 10
240000.00
 20
9360000.00
 11
260000.00
 21
9360000.00
  0
LINE
  8
0IMP_GRD
 10
280000.00
 20
9360000.00
 11
280000.00
 21
9380000.00
  0
LINE
  8
0IMP_GRD
 10
260000.00
 20
9360000.00
 11
280000.00
 21
9360000.00
  0
LINE
  8
0IMP_GRD
 10
300000.00
 20
9360000.00
 11
300000.00
 21
9380000.00
  0
LINE
  8
0IMP_GRD
 10
280000.00
 20
9360000.00
 11
300000.00
 21
9360000.00
  0
LINE
  8
0IMP_GRD
 10
320000.00
 20
9360000.00
 11
320000.00
 21
9380000.00
  0
LINE
  8
0IMP_GRD
 10
300000.00
 20
9360000.00
 11
320000.00
 21
9360000.00
  0
LINE
  8
0IMP_GRD
 10
340000.00
 20
9360000.00
 11
340000.00
 21
9380000.00
  0
LINE
  8
0IMP_GRD
 10
320000.00
 20
9360000.00
 11
340000.00
 21
9360000.00
  0
LINE
  8
0IMP_GRD
 10
360000.00
 20
9360000.00
 11
360000.00
 21
9380000.00
  0
LINE
  8
0IMP_GRD
 10
340000.00
 20
9360000.00
 11
360000.00
 21
9360000.00
  0
LINE
  8
0IMP_GRD
 10
380000.00
 20
9360000.00
 11
380000.00
 21
9380000.00
  0
LINE
  8
0IMP_GRD
 10
360000.00
 20
9360000.00
 11
380000.00
 21
9360000.00
  0
LINE
  8
0IMP_GRD
 10
400000.00
 20
9360000.00
 11
400000.00
 21
9380000.00
  0
LINE
  8
0IMP_GRD
 10
380000.00
 20
9360000.00
 11
400000.00
 21
9360000.00
  0
LINE
  8
0IMP_GRD
 10
420000.00
 20
9360000.00
 11
420000.00
 21
9380000.00
  0
LINE
  8
0IMP_GRD
 10
400000.00
 20
9360000.00
 11
420000.00
 21
9360000.00
  0
LINE
  8
0IMP_GRD
 10
440000.00
 20
9360000.00
 11
440000.00
 21
9380000.00
  0
LINE
  8
0IMP_GRD
 10
420000.00
 20
9360000.00
 11
440000.00
 21
9360000.00
  0
LINE
  8
0IMP_GRD
 10
460000.00
 20
9360000.00
 11
460000.00
 21
9380000.00
  0
LINE
  8
0IMP_GRD
 10
440000.00
 20
9360000.00
 11
460000.00
 21
9360000.00
  0
LINE
  8
0IMP_GRD
 10
480000.00
 20
9360000.00
 11
480000.00
 21
9380000.00
  0
LINE
  8
0IMP_GRD
 10
460000.00
 20
9360000.00
 11
480000.00
 21
9360000.00
  0
LINE
  8
0IMP_GRD
 10
500000.00
 20
9360000.00
 11
500000.00
 21
9380000.00
  0
LINE
  8
0IMP_GRD
 10
480000.00
 20
9360000.00
 11
500000.00
 21
9360000.00
  0
LINE
  8
0IMP_GRD
 10
180000.00
 20
9340000.00
 11
180000.00
 21
9360000.00
  0
LINE
  8
0IMP_GRD
 10
167820.34
 20
9340000.00
 11
180000.00
 21
9340000.00
  0
LINE
  8
0IMP_GRD
 10
200000.00
 20
9340000.00
 11
200000.00
 21
9360000.00
  0
LINE
  8
0IMP_GRD
 10
180000.00
 20
9340000.00
 11
200000.00
 21
9340000.00
  0
LINE
  8
0IMP_GRD
 10
220000.00
 20
9340000.00
 11
220000.00
 21
9360000.00
  0
LINE
  8
0IMP_GRD
 10
200000.00
 20
9340000.00
 11
220000.00
 21
9340000.00
  0
LINE
  8
0IMP_GRD
 10
240000.00
 20
9340000.00
 11
240000.00
 21
9360000.00
  0
LINE
  8
0IMP_GRD
 10
220000.00
 20
9340000.00
 11
240000.00
 21
9340000.00
  0
LINE
  8
0IMP_GRD
 10
260000.00
 20
9340000.00
 11
260000.00
 21
9360000.00
  0
LINE
  8
0IMP_GRD
 10
240000.00
 20
9340000.00
 11
260000.00
 21
9340000.00
  0
LINE
  8
0IMP_GRD
 10
280000.00
 20
9340000.00
 11
280000.00
 21
9360000.00
  0
LINE
  8
0IMP_GRD
 10
260000.00
 20
9340000.00
 11
280000.00
 21
9340000.00
  0
LINE
  8
0IMP_GRD
 10
300000.00
 20
9340000.00
 11
300000.00
 21
9360000.00
  0
LINE
  8
0IMP_GRD
 10
280000.00
 20
9340000.00
 11
300000.00
 21
9340000.00
  0
LINE
  8
0IMP_GRD
 10
320000.00
 20
9340000.00
 11
320000.00
 21
9360000.00
  0
LINE
  8
0IMP_GRD
 10
300000.00
 20
9340000.00
 11
320000.00
 21
9340000.00
  0
LINE
  8
0IMP_GRD
 10
340000.00
 20
9340000.00
 11
340000.00
 21
9360000.00
  0
LINE
  8
0IMP_GRD
 10
320000.00
 20
9340000.00
 11
340000.00
 21
9340000.00
  0
LINE
  8
0IMP_GRD
 10
360000.00
 20
9340000.00
 11
360000.00
 21
9360000.00
  0
LINE
  8
0IMP_GRD
 10
340000.00
 20
9340000.00
 11
360000.00
 21
9340000.00
  0
LINE
  8
0IMP_GRD
 10
380000.00
 20
9340000.00
 11
380000.00
 21
9360000.00
  0
LINE
  8
0IMP_GRD
 10
360000.00
 20
9340000.00
 11
380000.00
 21
9340000.00
  0
LINE
  8
0IMP_GRD
 10
400000.00
 20
9340000.00
 11
400000.00
 21
9360000.00
  0
LINE
  8
0IMP_GRD
 10
380000.00
 20
9340000.00
 11
400000.00
 21
9340000.00
  0
LINE
  8
0IMP_GRD
 10
420000.00
 20
9340000.00
 11
420000.00
 21
9360000.00
  0
LINE
  8
0IMP_GRD
 10
400000.00
 20
9340000.00
 11
420000.00
 21
9340000.00
  0
LINE
  8
0IMP_GRD
 10
440000.00
 20
9340000.00
 11
440000.00
 21
9360000.00
  0
LINE
  8
0IMP_GRD
 10
420000.00
 20
9340000.00
 11
440000.00
 21
9340000.00
  0
LINE
  8
0IMP_GRD
 10
460000.00
 20
9340000.00
 11
460000.00
 21
9360000.00
  0
LINE
  8
0IMP_GRD
 10
440000.00
 20
9340000.00
 11
460000.00
 21
9340000.00
  0
LINE
  8
0IMP_GRD
 10
480000.00
 20
9340000.00
 11
480000.00
 21
9360000.00
  0
LINE
  8
0IMP_GRD
 10
460000.00
 20
9340000.00
 11
480000.00
 21
9340000.00
  0
LINE
  8
0IMP_GRD
 10
500000.00
 20
9340000.00
 11
500000.00
 21
9360000.00
  0
LINE
  8
0IMP_GRD
 10
480000.00
 20
9340000.00
 11
500000.00
 21
9340000.00
  0
LINE
  8
0IMP_GRD
 10
500000.00
 20
9336793.00
 11
500000.00
 21
9340000.00
  0
LINE
  8
0IMP_GRD
 10
480000.00
 20
9336766.00
 11
480000.00
 21
9340000.00
  0
LINE
  8
0IMP_GRD
 10
460000.00
 20
9336738.00
 11
460000.00
 21
9340000.00
  0
LINE
  8
0IMP_GRD
 10
440000.00
 20
9336711.00
 11
440000.00
 21
9340000.00
  0
LINE
  8
0IMP_GRD
 10
420000.00
 20
9336684.00
 11
420000.00
 21
9340000.00
  0
LINE
  8
0IMP_GRD
 10
400000.00
 20
9336656.00
 11
400000.00
 21
9340000.00
  0
LINE
  8
0IMP_GRD
 10
380000.00
 20
9336629.00
 11
380000.00
 21
9340000.00
  0
LINE
  8
0IMP_GRD
 10
360000.00
 20
9336602.00
 11
360000.00
 21
9340000.00
  0
LINE
  8
0IMP_GRD
 10
340000.00
 20
9336574.00
 11
340000.00
 21
9340000.00
  0
LINE
  8
0IMP_GRD
 10
320000.00
 20
9336509.00
 11
320000.00
 21
9340000.00
  0
LINE
  8
0IMP_GRD
 10
300000.00
 20
9336427.00
 11
300000.00
 21
9340000.00
  0
LINE
  8
0IMP_GRD
 10
280000.00
 20
9336344.00
 11
280000.00
 21
9340000.00
  0
LINE
  8
0IMP_GRD
 10
260000.00
 20
9336262.00
 11
260000.00
 21
9340000.00
  0
LINE
  8
0IMP_GRD
 10
240000.00
 20
9336180.00
 11
240000.00
 21
9340000.00
  0
LINE
  8
0IMP_GRD
 10
220000.00
 20
9336098.00
 11
220000.00
 21
9340000.00
  0
LINE
  8
0IMP_GRD
 10
200000.00
 20
9336016.00
 11
200000.00
 21
9340000.00
  0
LINE
  8
0IMP_GRD
 10
180000.00
 20
9335934.00
 11
180000.00
 21
9340000.00
  0
TEXT
  8
1IMP_GRD
 10
161944.06
 20
9339493.00
 40
1000.00
  1
40 KmN
  0
TEXT
  8
1IMP_GRD
 10
164055.89
 20
9519602.00
 40
1000.00
  1
20
  0
TEXT
  8
1IMP_GRD
 10
164055.89
 20
9499493.00
 40
1000.00
  1
00
  0
TEXT
  8
1IMP_GRD
 10
164055.89
 20
9479493.00
 40
1000.00
  1
80
  0
TEXT
  8
1IMP_GRD
 10
164034.72
 20
9459523.00
 40
1000.00
  1
60
  0
TEXT
  8
1IMP_GRD
 10
160893.70
 20
9539602.00
 40
1000.00
  1
40 KmN
  0
TEXT
  8
1IMP_GRD
 10
162823.36
 20
9379253.00
 40
1000.00
  1
93
  0
TEXT
  8
1IMP_GRD
 10
162770.05
 20
9359196.00
 40
1000.00
  1
93
  0
TEXT
  8
1IMP_GRD
 10
160076.94
 20
9339493.00
 40
1000.00
  1
93
  0
TEXT
  8
1IMP_GRD
 10
162229.28
 20
9439395.00
 40
1000.00
  1
94
  0
TEXT
  8
1IMP_GRD
 10
162158.16
 20
9419409.00
 40
1000.00
  1
94
  0
TEXT
  8
1IMP_GRD
 10
162500.03
 20
9399424.00
 40
1000.00
  1
94
  0
TEXT
  8
1IMP_GRD
 10
158806.70
 20
9539577.00
 40
1000.00
  1
95
  0
TEXT
  8
1IMP_GRD
 10
162045.34
 20
9479579.00
 40
1000.00
  1
94
  0
TEXT
  8
1IMP_GRD
 10
161784.91
 20
9459594.00
 40
1000.00
  1
94
  0
TEXT
  8
1IMP_GRD
 10
162047.05
 20
9499494.00
 40
1000.00
  1
95
  0
TEXT
  8
1IMP_GRD
 10
161975.95
 20
9519589.00
 40
1000.00
  1
95
  0
TEXT
  8
1IMP_GRD
 10
164688.33
 20
9399493.00
 40
1000.00
  1
00
  0
TEXT
  8
1IMP_GRD
 10
164435.34
 20
9419493.00
 40
1000.00
  1
20
  0
TEXT
  8
1IMP_GRD
 10
164435.34
 20
9439493.00
 40
1000.00
  1
40
  0
TEXT
  8
1IMP_GRD
 10
164688.33
 20
9379165.00
 40
1000.00
  1
80
  0
TEXT
  8
1IMP_GRD
 10
164688.33
 20
9359165.00
 40
1000.00
  1
60
  0
TEXT
  8
1IMP_GRD
 10
179167.59
 20
9332499.00
 40
1000.00
  1
1
  0
TEXT
  8
1IMP_GRD
 10
180038.80
 20
9332429.00
 40
1000.00
  1
80 KmE
  0
TEXT
  8
1IMP_GRD
 10
179167.59
 20
9558517.00
 40
1000.00
  1
1
  0
TEXT
  8
1IMP_GRD
 10
180056.03
 20
9558461.00
 40
1000.00
  1
80
  0
TEXT
  8
1IMP_GRD
 10
199060.33
 20
9332527.00
 40
1000.00
  1
2
  0
TEXT
  8
1IMP_GRD
 10
200056.03
 20
9332508.00
 40
1000.00
  1
00
  0
TEXT
  8
1IMP_GRD
 10
199060.33
 20
9558991.00
 40
1000.00
  1
2
  0
TEXT
  8
1IMP_GRD
 10
200056.03
 20
9558972.00
 40
1000.00
  1
00
  0
TEXT
  8
1IMP_GRD
 10
218960.25
 20
9332836.00
 40
1000.00
  1
2
  0
TEXT
  8
1IMP_GRD
 10
219983.56
 20
9332798.00
 40
1000.00
  1
20
  0
TEXT
  8
1IMP_GRD
 10
218960.25
 20
9559300.00
 40
1000.00
  1
2
  0
TEXT
  8
1IMP_GRD
 10
219983.56
 20
9559262.00
 40
1000.00
  1
20
  0
TEXT
  8
1IMP_GRD
 10
239314.53
 20
9332816.00
 40
1000.00
  1
2
  0
TEXT
  8
1IMP_GRD
 10
240154.11
 20
9332798.00
 40
1000.00
  1
40
  0
TEXT
  8
1IMP_GRD
 10
239314.53
 20
9559280.00
 40
1000.00
  1
2
  0
TEXT
  8
1IMP_GRD
 10
240154.11
 20
9559262.00
 40
1000.00
  1
40
  0
TEXT
  8
1IMP_GRD
 10
259076.55
 20
9333156.00
 40
1000.00
  1
2
  0
TEXT
  8
1IMP_GRD
 10
260154.09
 20
9333133.00
 40
1000.00
  1
60
  0
TEXT
  8
1IMP_GRD
 10
259076.55
 20
9559285.00
 40
1000.00
  1
2
  0
TEXT
  8
1IMP_GRD
 10
260154.09
 20
9559262.00
 40
1000.00
  1
60
  0
TEXT
  8
1IMP_GRD
 10
278920.66
 20
9333156.00
 40
1000.00
  1
2
  0
TEXT
  8
1IMP_GRD
 10
279898.28
 20
9333133.00
 40
1000.00
  1
80
  0
TEXT
  8
1IMP_GRD
 10
278920.66
 20
9559285.00
 40
1000.00
  1
2
  0
TEXT
  8
1IMP_GRD
 10
279898.28
 20
9559262.00
 40
1000.00
  1
80
  0
TEXT
  8
1IMP_GRD
 10
298881.84
 20
9332802.00
 40
1000.00
  1
3
  0
TEXT
  8
1IMP_GRD
 10
299970.78
 20
9332843.00
 40
1000.00
  1
00
  0
TEXT
  8
1IMP_GRD
 10
298881.84
 20
9558931.00
 40
1000.00
  1
3
  0
TEXT
  8
1IMP_GRD
 10
299970.78
 20
9558972.00
 40
1000.00
  1
00
  0
TEXT
  8
1IMP_GRD
 10
318941.50
 20
9332853.00
 40
1000.00
  1
3
  0
TEXT
  8
1IMP_GRD
 10
319970.78
 20
9332843.00
 40
1000.00
  1
20
  0
TEXT
  8
1IMP_GRD
 10
318941.50
 20
9558982.00
 40
1000.00
  1
3
  0
TEXT
  8
1IMP_GRD
 10
319970.78
 20
9558972.00
 40
1000.00
  1
20
  0
TEXT
  8
1IMP_GRD
 10
338965.53
 20
9333352.00
 40
1000.00
  1
3
  0
TEXT
  8
1IMP_GRD
 10
339970.78
 20
9333289.00
 40
1000.00
  1
40
  0
TEXT
  8
1IMP_GRD
 10
338965.53
 20
9559035.00
 40
1000.00
  1
3
  0
TEXT
  8
1IMP_GRD
 10
339970.78
 20
9558972.00
 40
1000.00
  1
40
  0
TEXT
  8
1IMP_GRD
 10
359076.94
 20
9333285.00
 40
1000.00
  1
3
  0
TEXT
  8
1IMP_GRD
 10
360226.59
 20
9333289.00
 40
1000.00
  1
60
  0
TEXT
  8
1IMP_GRD
 10
359076.94
 20
9558968.00
 40
1000.00
  1
3
  0
TEXT
  8
1IMP_GRD
 10
360226.59
 20
9558972.00
 40
1000.00
  1
60
  0
TEXT
  8
1IMP_GRD
 10
379139.84
 20
9333403.00
 40
1000.00
  1
3
  0
TEXT
  8
1IMP_GRD
 10
380226.59
 20
9333434.00
 40
1000.00
  1
80
  0
TEXT
  8
1IMP_GRD
 10
379139.84
 20
9559086.00
 40
1000.00
  1
3
  0
TEXT
  8
1IMP_GRD
 10
380226.59
 20
9559117.00
 40
1000.00
  1
80
  0
TEXT
  8
1IMP_GRD
 10
398608.22
 20
9333485.00
 40
1000.00
  1
4
  0
TEXT
  8
1IMP_GRD
 10
399629.72
 20
9333434.00
 40
1000.00
  1
00
  0
TEXT
  8
1IMP_GRD
 10
398608.22
 20
9559168.00
 40
1000.00
  1
4
  0
TEXT
  8
1IMP_GRD
 10
399629.72
 20
9559117.00
 40
1000.00
  1
00
  0
TEXT
  8
1IMP_GRD
 10
418501.81
 20
9333888.00
 40
1000.00
  1
4
  0
TEXT
  8
1IMP_GRD
 10
419629.72
 20
9333768.00
 40
1000.00
  1
20
  0
TEXT
  8
1IMP_GRD
 10
418501.81
 20
9559236.00
 40
1000.00
  1
4
  0
TEXT
  8
1IMP_GRD
 10
419629.72
 20
9559117.00
 40
1000.00
  1
20
  0
TEXT
  8
1IMP_GRD
 10
439117.63
 20
9333629.00
 40
1000.00
  1
4
  0
TEXT
  8
1IMP_GRD
 10
440102.22
 20
9333495.00
 40
1000.00
  1
40
  0
TEXT
  8
1IMP_GRD
 10
439117.63
 20
9558978.00
 40
1000.00
  1
4
  0
TEXT
  8
1IMP_GRD
 10
440102.22
 20
9558844.00
 40
1000.00
  1
40
  0
TEXT
  8
1IMP_GRD
 10
458723.09
 20
9333892.00
 40
1000.00
  1
4
  0
TEXT
  8
1IMP_GRD
 10
459926.44
 20
9333801.00
 40
1000.00
  1
60
  0
TEXT
  8
1IMP_GRD
 10
458723.09
 20
9559240.00
 40
1000.00
  1
4
  0
TEXT
  8
1IMP_GRD
 10
459926.44
 20
9559150.00
 40
1000.00
  1
60
  0
TEXT
  8
1IMP_GRD
 10
480422.69
 20
9333777.00
 40
1000.00
  1
80
  0
TEXT
  8
1IMP_GRD
 10
480422.69
 20
9559125.00
 40
1000.00
  1
80
  0
TEXT
  8
1IMP_GRD
 10
479304.34
 20
9333786.00
 40
1000.00
  1
4
  0
TEXT
  8
1IMP_GRD
 10
479304.34
 20
9559134.00
 40
1000.00
  1
4
  0
TEXT
  8
1IMP_GRD
 10
500793.94
 20
9439395.00
 40
1000.00
  1
94
  0
TEXT
  8
1IMP_GRD
 10
500722.81
 20
9419409.00
 40
1000.00
  1
94
  0
TEXT
  8
1IMP_GRD
 10
500811.72
 20
9399424.00
 40
1000.00
  1
94
  0
TEXT
  8
1IMP_GRD
 10
500989.47
 20
9479579.00
 40
1000.00
  1
94
  0
TEXT
  8
1IMP_GRD
 10
500349.56
 20
9459594.00
 40
1000.00
  1
94
  0
TEXT
  8
1IMP_GRD
 10
500913.00
 20
9539577.00
 40
1000.00
  1
95
  0
TEXT
  8
1IMP_GRD
 10
500920.06
 20
9519589.00
 40
1000.00
  1
95
  0
TEXT
  8
1IMP_GRD
 10
500991.16
 20
9499494.00
 40
1000.00
  1
95
  0
TEXT
  8
1IMP_GRD
 10
496158.75
 20
9561427.00
 40
1000.00
  1
500 kmE
  0
TEXT
  8
1IMP_GRD
 10
497681.50
 20
9331716.00
 40
1000.00
  1
00 KmE
  0
TEXT
  8
1IMP_GRD
 10
496705.66
 20
9331716.00
 40
1000.00
  1
5
  0
TEXT
  8
1IMP_GRD
 10
503000.00
 20
9339627.00
 40
1000.00
  1
40 KmN
  0
TEXT
  8
1IMP_GRD
 10
501135.03
 20
9379253.00
 40
1000.00
  1
93
  0
TEXT
  8
1IMP_GRD
 10
501081.72
 20
9359196.00
 40
1000.00
  1
93
  0
TEXT
  8
1IMP_GRD
 10
501081.72
 20
9339658.00
 40
1000.00
  1
93
  0
TEXT
  8
1IMP_GRD
 10
503000.00
 20
9359165.00
 40
1000.00
  1
60
  0
TEXT
  8
1IMP_GRD
 10
503000.00
 20
9379165.00
 40
1000.00
  1
80
  0
TEXT
  8
1IMP_GRD
 10
503000.00
 20
9399493.00
 40
1000.00
  1
00
  0
TEXT
  8
1IMP_GRD
 10
503000.00
 20
9419493.00
 40
1000.00
  1
20
  0
TEXT
  8
1IMP_GRD
 10
503000.00
 20
9439493.00
 40
1000.00
  1
40
  0
TEXT
  8
1IMP_GRD
 10
503000.00
 20
9539602.00
 40
1000.00
  1
40 KmN
  0
TEXT
  8
1IMP_GRD
 10
502599.38
 20
9459523.00
 40
1000.00
  1
60
  0
TEXT
  8
1IMP_GRD
 10
503000.00
 20
9479493.00
 40
1000.00
  1
80
  0
TEXT
  8
1IMP_GRD
 10
503000.00
 20
9499493.00
 40
1000.00
  1
00
  0
TEXT
  8
1IMP_GRD
 10
163553.14
 20
9334154.00
 40
1000.00
  1
o 48
  0
TEXT
  8
1IMP_GRD
 10
168655.84
 20
9335117.00
 40
1000.00
  1
o
  0
TEXT
  8
1IMP_GRD
 10
169793.02
 20
9334183.00
 40
1000.00
  1
00'
  0
TEXT
  8
1IMP_GRD
 10
158129.70
 20
9335962.00
 40
1000.00
  1
s -6
  0
TEXT
  8
1IMP_GRD
 10
163279.78
 20
9336741.00
 40
1000.00
  1
o
  0
TEXT
  8
1IMP_GRD
 10
164259.50
 20
9335948.00
 40
1000.00
  1
00'
  0
TEXT
  8
1IMP_GRD
 10
157278.72
 20
9555631.00
 40
1000.00
  1
s -4
  0
TEXT
  8
1IMP_GRD
 10
162357.28
 20
9556467.00
 40
1000.00
  1
o
  0
TEXT
  8
1IMP_GRD
 10
163373.00
 20
9555661.00
 40
1000.00
  1
00'
  0
TEXT
  8
1IMP_GRD
 10
163940.59
 20
9557663.00
 40
1000.00
  1
o 48
  0
TEXT
  8
1IMP_GRD
 10
169049.05
 20
9558529.00
 40
1000.00
  1
o
  0
TEXT
  8
1IMP_GRD
 10
170124.50
 20
9557663.00
 40
1000.00
  1
00'
  0
TEXT
  8
1IMP_GRD
 10
491403.31
 20
9558439.00
 40
1000.00
  1
o 45
  0
TEXT
  8
1IMP_GRD
 10
496585.53
 20
9559232.00
 40
1000.00
  1
o
  0
TEXT
  8
1IMP_GRD
 10
498048.75
 20
9558378.00
 40
1000.00
  1
00'
  0
TEXT
  8
1IMP_GRD
 10
500426.47
 20
9556549.00
 40
1000.00
  1
s -4
  0
TEXT
  8
1IMP_GRD
 10
505547.72
 20
9557219.00
 40
1000.00
  1
o
  0
TEXT
  8
1IMP_GRD
 10
506706.09
 20
9556609.00
 40
1000.00
  1
00'
  0
TEXT
  8
1IMP_GRD
 10
503164.69
 20
9519533.00
 40
1000.00
  1
20
  0
TEXT
  8
1IMP_GRD
 10
490789.63
 20
9335011.00
 40
1000.00
  1
o -45
  0
TEXT
  8
1IMP_GRD
 10
497315.56
 20
9335865.00
 40
1000.00
  1
o
  0
TEXT
  8
1IMP_GRD
 10
498474.38
 20
9335011.00
 40
1000.00
  1
00'
  0
TEXT
  8
1IMP_GRD
 10
500487.03
 20
9337268.00
 40
1000.00
  1
s -6
  0
TEXT
  8
1IMP_GRD
 10
505549.19
 20
9338000.00
 40
1000.00
  1
o
  0
TEXT
  8
1IMP_GRD
 10
506769.00
 20
9337207.00
 40
1000.00
  1
00'
  0
ENDSEC
  0
EOF
