  0
SECTION
  2
HEADER
  9
$EXTMIN
 10
167411.41           
 20
9336134.00          
  9
$EXTMAX
 10
231959.91           
 20
9421506.00          
  9
$LUPREC
 70
     7
  0
ENDSEC
  0
SECTION
  2
ENTITIES
  0
LINE
  8
0IMP_DRE
 10
167416.78
 20
9420339.00
 11
167411.44
 21
9421405.00
  0
POLYLINE
  8
0IMP_DRE
 66
     1
  0
VERTEX
  8
0IMP_DRE
 10
177424.98
 20
9419352.00
  0
VERTEX
  8
0IMP_DRE
 10
177368.88
 20
9419333.00
  0
VERTEX
  8
0IMP_DRE
 10
177312.84
 20
9419333.00
  0
VERTEX
  8
0IMP_DRE
 10
177250.61
 20
9419334.00
  0
VERTEX
  8
0IMP_DRE
 10
177182.14
 20
9419334.00
  0
VERTEX
  8
0IMP_DRE
 10
177101.16
 20
9419321.00
  0
VERTEX
  8
0IMP_DRE
 10
177032.69
 20
9419322.00
  0
VERTEX
  8
0IMP_DRE
 10
176964.42
 20
9419366.00
  0
VERTEX
  8
0IMP_DRE
 10
176902.38
 20
9419410.00
  0
VERTEX
  8
0IMP_DRE
 10
176840.36
 20
9419460.00
  0
VERTEX
  8
0IMP_DRE
 10
176753.36
 20
9419491.00
  0
VERTEX
  8
0IMP_DRE
 10
176697.48
 20
9419523.00
  0
VERTEX
  8
0IMP_DRE
 10
176641.55
 20
9419542.00
  0
VERTEX
  8
0IMP_DRE
 10
176579.39
 20
9419561.00
  0
VERTEX
  8
0IMP_DRE
 10
176523.45
 20
9419580.00
  0
VERTEX
  8
0IMP_DRE
 10
176467.55
 20
9419605.00
  0
VERTEX
  8
0IMP_DRE
 10
176405.52
 20
9419649.00
  0
VERTEX
  8
0IMP_DRE
 10
176349.66
 20
9419686.00
  0
VERTEX
  8
0IMP_DRE
 10
176293.84
 20
9419730.00
  0
VERTEX
  8
0IMP_DRE
 10
176256.75
 20
9419787.00
  0
VERTEX
  8
0IMP_DRE
 10
176226.03
 20
9419874.00
  0
VERTEX
  8
0IMP_DRE
 10
176213.91
 20
9419943.00
  0
VERTEX
  8
0IMP_DRE
 10
176207.94
 20
9420000.00
  0
VERTEX
  8
0IMP_DRE
 10
176282.78
 20
9420031.00
  0
VERTEX
  8
0IMP_DRE
 10
176344.97
 20
9420018.00
  0
VERTEX
  8
0IMP_DRE
 10
176400.81
 20
9419980.00
  0
VERTEX
  8
0IMP_DRE
 10
176487.75
 20
9419936.00
  0
VERTEX
  8
0IMP_DRE
 10
176549.83
 20
9419899.00
  0
VERTEX
  8
0IMP_DRE
 10
176636.92
 20
9419886.00
  0
VERTEX
  8
0IMP_DRE
 10
176705.36
 20
9419879.00
  0
VERTEX
  8
0IMP_DRE
 10
176761.38
 20
9419879.00
  0
VERTEX
  8
0IMP_DRE
 10
176848.52
 20
9419879.00
  0
VERTEX
  8
0IMP_DRE
 10
176935.67
 20
9419879.00
  0
VERTEX
  8
0IMP_DRE
 10
176997.91
 20
9419879.00
  0
VERTEX
  8
0IMP_DRE
 10
177053.94
 20
9419878.00
  0
VERTEX
  8
0IMP_DRE
 10
177116.17
 20
9419878.00
  0
VERTEX
  8
0IMP_DRE
 10
177172.08
 20
9419853.00
  0
VERTEX
  8
0IMP_DRE
 10
177221.64
 20
9419803.00
  0
VERTEX
  8
0IMP_DRE
 10
177252.52
 20
9419746.00
  0
VERTEX
  8
0IMP_DRE
 10
177283.38
 20
9419690.00
  0
VERTEX
  8
0IMP_DRE
 10
177308.05
 20
9419640.00
  0
VERTEX
  8
0IMP_DRE
 10
177338.91
 20
9419584.00
  0
VERTEX
  8
0IMP_DRE
 10
177376.02
 20
9419533.00
  0
VERTEX
  8
0IMP_DRE
 10
177400.69
 20
9419483.00
  0
VERTEX
  8
0IMP_DRE
 10
177406.67
 20
9419433.00
  0
VERTEX
  8
0IMP_DRE
 10
177424.98
 20
9419352.00
  0
SEQEND
  8
0IMP_DRE
  0
POLYLINE
  8
0IMP_DRE
 66
     1
  0
VERTEX
  8
0IMP_DRE
 10
180915.02
 20
9417578.00
  0
VERTEX
  8
0IMP_DRE
 10
180852.86
 20
9417597.00
  0
VERTEX
  8
0IMP_DRE
 10
180747.19
 20
9417628.00
  0
VERTEX
  8
0IMP_DRE
 10
180647.72
 20
9417654.00
  0
VERTEX
  8
0IMP_DRE
 10
180566.88
 20
9417673.00
  0
VERTEX
  8
0IMP_DRE
 10
180473.59
 20
9417692.00
  0
VERTEX
  8
0IMP_DRE
 10
180411.47
 20
9417717.00
  0
VERTEX
  8
0IMP_DRE
 10
180355.56
 20
9417742.00
  0
VERTEX
  8
0IMP_DRE
 10
180299.75
 20
9417786.00
  0
VERTEX
  8
0IMP_DRE
 10
180250.19
 20
9417836.00
  0
VERTEX
  8
0IMP_DRE
 10
180231.77
 20
9417892.00
  0
VERTEX
  8
0IMP_DRE
 10
180175.98
 20
9417943.00
  0
VERTEX
  8
0IMP_DRE
 10
180126.56
 20
9418024.00
  0
VERTEX
  8
0IMP_DRE
 10
180101.92
 20
9418080.00
  0
VERTEX
  8
0IMP_DRE
 10
180114.59
 20
9418131.00
  0
VERTEX
  8
0IMP_DRE
 10
180195.58
 20
9418143.00
  0
VERTEX
  8
0IMP_DRE
 10
180276.50
 20
9418143.00
  0
VERTEX
  8
0IMP_DRE
 10
180344.81
 20
9418111.00
  0
VERTEX
  8
0IMP_DRE
 10
180431.77
 20
9418067.00
  0
VERTEX
  8
0IMP_DRE
 10
180493.86
 20
9418036.00
  0
VERTEX
  8
0IMP_DRE
 10
180549.80
 20
9418017.00
  0
VERTEX
  8
0IMP_DRE
 10
180618.16
 20
9417991.00
  0
VERTEX
  8
0IMP_DRE
 10
180705.17
 20
9417966.00
  0
VERTEX
  8
0IMP_DRE
 10
180767.34
 20
9417947.00
  0
VERTEX
  8
0IMP_DRE
 10
180829.47
 20
9417922.00
  0
VERTEX
  8
0IMP_DRE
 10
180891.56
 20
9417891.00
  0
VERTEX
  8
0IMP_DRE
 10
180947.36
 20
9417840.00
  0
VERTEX
  8
0IMP_DRE
 10
180978.22
 20
9417784.00
  0
VERTEX
  8
0IMP_DRE
 10
180984.09
 20
9417709.00
  0
VERTEX
  8
0IMP_DRE
 10
180990.09
 20
9417659.00
  0
VERTEX
  8
0IMP_DRE
 10
180915.02
 20
9417578.00
  0
SEQEND
  8
0IMP_DRE
  0
POLYLINE
  8
0IMP_DRE
 66
     1
  0
VERTEX
  8
0IMP_DRE
 10
181303.03
 20
9409937.00
  0
VERTEX
  8
0IMP_DRE
 10
181328.27
 20
9410012.00
  0
VERTEX
  8
0IMP_DRE
 10
181359.72
 20
9410081.00
  0
VERTEX
  8
0IMP_DRE
 10
181409.94
 20
9410174.00
  0
VERTEX
  8
0IMP_DRE
 10
181453.78
 20
9410230.00
  0
VERTEX
  8
0IMP_DRE
 10
181516.39
 20
9410312.00
  0
VERTEX
  8
0IMP_DRE
 10
181579.02
 20
9410393.00
  0
VERTEX
  8
0IMP_DRE
 10
181616.73
 20
9410474.00
  0
VERTEX
  8
0IMP_DRE
 10
181666.80
 20
9410530.00
  0
VERTEX
  8
0IMP_DRE
 10
181716.83
 20
9410580.00
  0
VERTEX
  8
0IMP_DRE
 10
181748.30
 20
9410655.00
  0
VERTEX
  8
0IMP_DRE
 10
181792.13
 20
9410711.00
  0
VERTEX
  8
0IMP_DRE
 10
181873.42
 20
9410792.00
  0
VERTEX
  8
0IMP_DRE
 10
181898.72
 20
9410880.00
  0
VERTEX
  8
0IMP_DRE
 10
181942.70
 20
9410967.00
  0
VERTEX
  8
0IMP_DRE
 10
181961.80
 20
9411061.00
  0
VERTEX
  8
0IMP_DRE
 10
181987.05
 20
9411136.00
  0
VERTEX
  8
0IMP_DRE
 10
182006.06
 20
9411211.00
  0
VERTEX
  8
0IMP_DRE
 10
182025.09
 20
9411286.00
  0
VERTEX
  8
0IMP_DRE
 10
182050.33
 20
9411361.00
  0
VERTEX
  8
0IMP_DRE
 10
182069.23
 20
9411411.00
  0
VERTEX
  8
0IMP_DRE
 10
182088.14
 20
9411461.00
  0
VERTEX
  8
0IMP_DRE
 10
182107.16
 20
9411536.00
  0
VERTEX
  8
0IMP_DRE
 10
182119.84
 20
9411586.00
  0
VERTEX
  8
0IMP_DRE
 10
182126.30
 20
9411636.00
  0
VERTEX
  8
0IMP_DRE
 10
182139.13
 20
9411718.00
  0
VERTEX
  8
0IMP_DRE
 10
182151.86
 20
9411780.00
  0
VERTEX
  8
0IMP_DRE
 10
182164.75
 20
9411874.00
  0
VERTEX
  8
0IMP_DRE
 10
182177.56
 20
9411955.00
  0
VERTEX
  8
0IMP_DRE
 10
182190.53
 20
9412068.00
  0
VERTEX
  8
0IMP_DRE
 10
182190.83
 20
9412131.00
  0
VERTEX
  8
0IMP_DRE
 10
182197.39
 20
9412206.00
  0
VERTEX
  8
0IMP_DRE
 10
182203.94
 20
9412274.00
  0
VERTEX
  8
0IMP_DRE
 10
182204.17
 20
9412325.00
  0
VERTEX
  8
0IMP_DRE
 10
182198.27
 20
9412393.00
  0
VERTEX
  8
0IMP_DRE
 10
182173.80
 20
9412487.00
  0
VERTEX
  8
0IMP_DRE
 10
182149.28
 20
9412569.00
  0
VERTEX
  8
0IMP_DRE
 10
182130.98
 20
9412650.00
  0
VERTEX
  8
0IMP_DRE
 10
182124.98
 20
9412700.00
  0
VERTEX
  8
0IMP_DRE
 10
182112.88
 20
9412775.00
  0
VERTEX
  8
0IMP_DRE
 10
182106.94
 20
9412838.00
  0
VERTEX
  8
0IMP_DRE
 10
182094.91
 20
9412925.00
  0
VERTEX
  8
0IMP_DRE
 10
182088.91
 20
9412976.00
  0
VERTEX
  8
0IMP_DRE
 10
182076.75
 20
9413038.00
  0
VERTEX
  8
0IMP_DRE
 10
182064.53
 20
9413088.00
  0
VERTEX
  8
0IMP_DRE
 10
182052.42
 20
9413163.00
  0
VERTEX
  8
0IMP_DRE
 10
182046.58
 20
9413245.00
  0
VERTEX
  8
0IMP_DRE
 10
182040.73
 20
9413326.00
  0
VERTEX
  8
0IMP_DRE
 10
182028.72
 20
9413420.00
  0
VERTEX
  8
0IMP_DRE
 10
182022.98
 20
9413526.00
  0
VERTEX
  8
0IMP_DRE
 10
182023.36
 20
9413608.00
  0
VERTEX
  8
0IMP_DRE
 10
182005.20
 20
9413720.00
  0
VERTEX
  8
0IMP_DRE
 10
181986.91
 20
9413802.00
  0
VERTEX
  8
0IMP_DRE
 10
181968.61
 20
9413883.00
  0
VERTEX
  8
0IMP_DRE
 10
181937.80
 20
9413952.00
  0
VERTEX
  8
0IMP_DRE
 10
181919.42
 20
9414015.00
  0
VERTEX
  8
0IMP_DRE
 10
181888.61
 20
9414084.00
  0
VERTEX
  8
0IMP_DRE
 10
181851.58
 20
9414153.00
  0
VERTEX
  8
0IMP_DRE
 10
181826.97
 20
9414215.00
  0
VERTEX
  8
0IMP_DRE
 10
181796.19
 20
9414290.00
  0
VERTEX
  8
0IMP_DRE
 10
181765.39
 20
9414359.00
  0
VERTEX
  8
0IMP_DRE
 10
181747.09
 20
9414441.00
  0
VERTEX
  8
0IMP_DRE
 10
181697.70
 20
9414528.00
  0
VERTEX
  8
0IMP_DRE
 10
181679.41
 20
9414610.00
  0
VERTEX
  8
0IMP_DRE
 10
181623.78
 20
9414698.00
  0
VERTEX
  8
0IMP_DRE
 10
181618.02
 20
9414798.00
  0
VERTEX
  8
0IMP_DRE
 10
181599.67
 20
9414867.00
  0
VERTEX
  8
0IMP_DRE
 10
181562.75
 20
9414960.00
  0
VERTEX
  8
0IMP_DRE
 10
181550.53
 20
9415011.00
  0
VERTEX
  8
0IMP_DRE
 10
181532.23
 20
9415092.00
  0
VERTEX
  8
0IMP_DRE
 10
181489.02
 20
9415167.00
  0
VERTEX
  8
0IMP_DRE
 10
181470.66
 20
9415236.00
  0
VERTEX
  8
0IMP_DRE
 10
181446.05
 20
9415299.00
  0
VERTEX
  8
0IMP_DRE
 10
181415.30
 20
9415380.00
  0
VERTEX
  8
0IMP_DRE
 10
181396.86
 20
9415430.00
  0
VERTEX
  8
0IMP_DRE
 10
181372.33
 20
9415512.00
  0
VERTEX
  8
0IMP_DRE
 10
181347.69
 20
9415568.00
  0
VERTEX
  8
0IMP_DRE
 10
181304.53
 20
9415656.00
  0
VERTEX
  8
0IMP_DRE
 10
181286.17
 20
9415725.00
  0
VERTEX
  8
0IMP_DRE
 10
181267.78
 20
9415787.00
  0
VERTEX
  8
0IMP_DRE
 10
181212.14
 20
9415869.00
  0
VERTEX
  8
0IMP_DRE
 10
181200.16
 20
9415969.00
  0
VERTEX
  8
0IMP_DRE
 10
181156.81
 20
9416019.00
  0
VERTEX
  8
0IMP_DRE
 10
181113.61
 20
9416100.00
  0
VERTEX
  8
0IMP_DRE
 10
181107.63
 20
9416151.00
  0
VERTEX
  8
0IMP_DRE
 10
181058.11
 20
9416213.00
  0
VERTEX
  8
0IMP_DRE
 10
181014.78
 20
9416263.00
  0
VERTEX
  8
0IMP_DRE
 10
180971.44
 20
9416314.00
  0
VERTEX
  8
0IMP_DRE
 10
180921.88
 20
9416364.00
  0
VERTEX
  8
0IMP_DRE
 10
180897.31
 20
9416439.00
  0
VERTEX
  8
0IMP_DRE
 10
180804.20
 20
9416496.00
  0
VERTEX
  8
0IMP_DRE
 10
180761.05
 20
9416583.00
  0
VERTEX
  8
0IMP_DRE
 10
180674.09
 20
9416627.00
  0
VERTEX
  8
0IMP_DRE
 10
180587.30
 20
9416703.00
  0
VERTEX
  8
0IMP_DRE
 10
180506.67
 20
9416765.00
  0
VERTEX
  8
0IMP_DRE
 10
180469.61
 20
9416828.00
  0
VERTEX
  8
0IMP_DRE
 10
180426.30
 20
9416885.00
  0
VERTEX
  8
0IMP_DRE
 10
180370.48
 20
9416928.00
  0
VERTEX
  8
0IMP_DRE
 10
180314.69
 20
9416979.00
  0
VERTEX
  8
0IMP_DRE
 10
180277.67
 20
9417048.00
  0
VERTEX
  8
0IMP_DRE
 10
180221.94
 20
9417110.00
  0
VERTEX
  8
0IMP_DRE
 10
180203.61
 20
9417185.00
  0
VERTEX
  8
0IMP_DRE
 10
180147.81
 20
9417236.00
  0
VERTEX
  8
0IMP_DRE
 10
180092.14
 20
9417311.00
  0
VERTEX
  8
0IMP_DRE
 10
180042.58
 20
9417361.00
  0
VERTEX
  8
0IMP_DRE
 10
179986.81
 20
9417418.00
  0
VERTEX
  8
0IMP_DRE
 10
179899.91
 20
9417468.00
  0
VERTEX
  8
0IMP_DRE
 10
179837.83
 20
9417506.00
  0
VERTEX
  8
0IMP_DRE
 10
179781.95
 20
9417537.00
  0
VERTEX
  8
0IMP_DRE
 10
179707.41
 20
9417569.00
  0
VERTEX
  8
0IMP_DRE
 10
179651.56
 20
9417606.00
  0
VERTEX
  8
0IMP_DRE
 10
179564.64
 20
9417657.00
  0
VERTEX
  8
0IMP_DRE
 10
179483.95
 20
9417707.00
  0
VERTEX
  8
0IMP_DRE
 10
179396.84
 20
9417713.00
  0
VERTEX
  8
0IMP_DRE
 10
179340.88
 20
9417726.00
  0
VERTEX
  8
0IMP_DRE
 10
179241.38
 20
9417745.00
  0
VERTEX
  8
0IMP_DRE
 10
179154.38
 20
9417777.00
  0
VERTEX
  8
0IMP_DRE
 10
179067.44
 20
9417821.00
  0
VERTEX
  8
0IMP_DRE
 10
179011.47
 20
9417833.00
  0
VERTEX
  8
0IMP_DRE
 10
178918.33
 20
9417884.00
  0
VERTEX
  8
0IMP_DRE
 10
178862.48
 20
9417921.00
  0
VERTEX
  8
0IMP_DRE
 10
178775.42
 20
9417940.00
  0
VERTEX
  8
0IMP_DRE
 10
178700.94
 20
9417984.00
  0
VERTEX
  8
0IMP_DRE
 10
178626.44
 20
9418028.00
  0
VERTEX
  8
0IMP_DRE
 10
178527.08
 20
9418079.00
  0
VERTEX
  8
0IMP_DRE
 10
178471.09
 20
9418085.00
  0
VERTEX
  8
0IMP_DRE
 10
178421.53
 20
9418135.00
  0
VERTEX
  8
0IMP_DRE
 10
178322.05
 20
9418160.00
  0
VERTEX
  8
0IMP_DRE
 10
178260.00
 20
9418204.00
  0
VERTEX
  8
0IMP_DRE
 10
178166.89
 20
9418261.00
  0
VERTEX
  8
0IMP_DRE
 10
178086.03
 20
9418274.00
  0
VERTEX
  8
0IMP_DRE
 10
178030.22
 20
9418318.00
  0
VERTEX
  8
0IMP_DRE
 10
177936.97
 20
9418343.00
  0
VERTEX
  8
0IMP_DRE
 10
177862.44
 20
9418381.00
  0
VERTEX
  8
0IMP_DRE
 10
177787.98
 20
9418431.00
  0
VERTEX
  8
0IMP_DRE
 10
177694.84
 20
9418481.00
  0
VERTEX
  8
0IMP_DRE
 10
177645.39
 20
9418557.00
  0
VERTEX
  8
0IMP_DRE
 10
177595.91
 20
9418626.00
  0
VERTEX
  8
0IMP_DRE
 10
177546.34
 20
9418676.00
  0
VERTEX
  8
0IMP_DRE
 10
177490.50
 20
9418713.00
  0
VERTEX
  8
0IMP_DRE
 10
177447.25
 20
9418782.00
  0
VERTEX
  8
0IMP_DRE
 10
177255.39
 20
9419021.00
  0
VERTEX
  8
0IMP_DRE
 10
177168.33
 20
9419040.00
  0
VERTEX
  8
0IMP_DRE
 10
177081.39
 20
9419084.00
  0
VERTEX
  8
0IMP_DRE
 10
177019.28
 20
9419115.00
  0
VERTEX
  8
0IMP_DRE
 10
176932.31
 20
9419153.00
  0
VERTEX
  8
0IMP_DRE
 10
176876.34
 20
9419166.00
  0
VERTEX
  8
0IMP_DRE
 10
176776.88
 20
9419191.00
  0
VERTEX
  8
0IMP_DRE
 10
176720.94
 20
9419210.00
  0
VERTEX
  8
0IMP_DRE
 10
176627.66
 20
9419229.00
  0
VERTEX
  8
0IMP_DRE
 10
176546.89
 20
9419260.00
  0
VERTEX
  8
0IMP_DRE
 10
176472.39
 20
9419304.00
  0
VERTEX
  8
0IMP_DRE
 10
176379.17
 20
9419336.00
  0
VERTEX
  8
0IMP_DRE
 10
176304.67
 20
9419380.00
  0
VERTEX
  8
0IMP_DRE
 10
176223.94
 20
9419418.00
  0
VERTEX
  8
0IMP_DRE
 10
176136.98
 20
9419462.00
  0
VERTEX
  8
0IMP_DRE
 10
176056.19
 20
9419487.00
  0
VERTEX
  8
0IMP_DRE
 10
175962.98
 20
9419525.00
  0
VERTEX
  8
0IMP_DRE
 10
175869.80
 20
9419563.00
  0
VERTEX
  8
0IMP_DRE
 10
175782.73
 20
9419582.00
  0
VERTEX
  8
0IMP_DRE
 10
175720.58
 20
9419601.00
  0
VERTEX
  8
0IMP_DRE
 10
175608.63
 20
9419620.00
  0
VERTEX
  8
0IMP_DRE
 10
175552.63
 20
9419626.00
  0
VERTEX
  8
0IMP_DRE
 10
175453.09
 20
9419639.00
  0
VERTEX
  8
0IMP_DRE
 10
175359.78
 20
9419652.00
  0
VERTEX
  8
0IMP_DRE
 10
175260.25
 20
9419664.00
  0
VERTEX
  8
0IMP_DRE
 10
175166.94
 20
9419677.00
  0
VERTEX
  8
0IMP_DRE
 10
175073.63
 20
9419690.00
  0
VERTEX
  8
0IMP_DRE
 10
174986.58
 20
9419709.00
  0
VERTEX
  8
0IMP_DRE
 10
174911.94
 20
9419722.00
  0
VERTEX
  8
0IMP_DRE
 10
174855.97
 20
9419734.00
  0
VERTEX
  8
0IMP_DRE
 10
174756.44
 20
9419747.00
  0
VERTEX
  8
0IMP_DRE
 10
174700.45
 20
9419754.00
  0
VERTEX
  8
0IMP_DRE
 10
174613.33
 20
9419760.00
  0
VERTEX
  8
0IMP_DRE
 10
174513.73
 20
9419760.00
  0
VERTEX
  8
0IMP_DRE
 10
174376.80
 20
9419761.00
  0
VERTEX
  8
0IMP_DRE
 10
174320.78
 20
9419761.00
  0
VERTEX
  8
0IMP_DRE
 10
174202.52
 20
9419761.00
  0
VERTEX
  8
0IMP_DRE
 10
174146.50
 20
9419761.00
  0
VERTEX
  8
0IMP_DRE
 10
174021.94
 20
9419749.00
  0
VERTEX
  8
0IMP_DRE
 10
173941.03
 20
9419749.00
  0
VERTEX
  8
0IMP_DRE
 10
173860.11
 20
9419750.00
  0
VERTEX
  8
0IMP_DRE
 10
173804.14
 20
9419762.00
  0
VERTEX
  8
0IMP_DRE
 10
173698.39
 20
9419775.00
  0
VERTEX
  8
0IMP_DRE
 10
173642.36
 20
9419775.00
  0
VERTEX
  8
0IMP_DRE
 10
173555.22
 20
9419775.00
  0
VERTEX
  8
0IMP_DRE
 10
173499.20
 20
9419776.00
  0
VERTEX
  8
0IMP_DRE
 10
173405.83
 20
9419776.00
  0
VERTEX
  8
0IMP_DRE
 10
173306.20
 20
9419770.00
  0
VERTEX
  8
0IMP_DRE
 10
173163.05
 20
9419770.00
  0
VERTEX
  8
0IMP_DRE
 10
173075.91
 20
9419771.00
  0
VERTEX
  8
0IMP_DRE
 10
172932.73
 20
9419771.00
  0
VERTEX
  8
0IMP_DRE
 10
172870.52
 20
9419777.00
  0
VERTEX
  8
0IMP_DRE
 10
172764.77
 20
9419790.00
  0
VERTEX
  8
0IMP_DRE
 10
172708.73
 20
9419790.00
  0
VERTEX
  8
0IMP_DRE
 10
172615.38
 20
9419791.00
  0
VERTEX
  8
0IMP_DRE
 10
172528.23
 20
9419791.00
  0
VERTEX
  8
0IMP_DRE
 10
172428.64
 20
9419791.00
  0
VERTEX
  8
0IMP_DRE
 10
172347.72
 20
9419791.00
  0
VERTEX
  8
0IMP_DRE
 10
172248.09
 20
9419785.00
  0
VERTEX
  8
0IMP_DRE
 10
172167.16
 20
9419779.00
  0
VERTEX
  8
0IMP_DRE
 10
172073.78
 20
9419780.00
  0
VERTEX
  8
0IMP_DRE
 10
171992.86
 20
9419780.00
  0
VERTEX
  8
0IMP_DRE
 10
171862.14
 20
9419780.00
  0
VERTEX
  8
0IMP_DRE
 10
171799.91
 20
9419780.00
  0
VERTEX
  8
0IMP_DRE
 10
171669.22
 20
9419787.00
  0
VERTEX
  8
0IMP_DRE
 10
171600.75
 20
9419787.00
  0
VERTEX
  8
0IMP_DRE
 10
171476.28
 20
9419794.00
  0
VERTEX
  8
0IMP_DRE
 10
171376.72
 20
9419800.00
  0
VERTEX
  8
0IMP_DRE
 10
171302.08
 20
9419813.00
  0
VERTEX
  8
0IMP_DRE
 10
171227.53
 20
9419844.00
  0
VERTEX
  8
0IMP_DRE
 10
171134.55
 20
9419926.00
  0
VERTEX
  8
0IMP_DRE
 10
171072.36
 20
9419939.00
  0
VERTEX
  8
0IMP_DRE
 10
170979.16
 20
9419977.00
  0
VERTEX
  8
0IMP_DRE
 10
170886.02
 20
9420027.00
  0
VERTEX
  8
0IMP_DRE
 10
170780.30
 20
9420046.00
  0
VERTEX
  8
0IMP_DRE
 10
170712.00
 20
9420084.00
  0
VERTEX
  8
0IMP_DRE
 10
170600.03
 20
9420103.00
  0
VERTEX
  8
0IMP_DRE
 10
170519.34
 20
9420153.00
  0
VERTEX
  8
0IMP_DRE
 10
170426.05
 20
9420166.00
  0
VERTEX
  8
0IMP_DRE
 10
170363.97
 20
9420203.00
  0
VERTEX
  8
0IMP_DRE
 10
170264.47
 20
9420223.00
  0
VERTEX
  8
0IMP_DRE
 10
170183.69
 20
9420254.00
  0
VERTEX
  8
0IMP_DRE
 10
170090.44
 20
9420279.00
  0
VERTEX
  8
0IMP_DRE
 10
170003.34
 20
9420292.00
  0
VERTEX
  8
0IMP_DRE
 10
169903.81
 20
9420305.00
  0
VERTEX
  8
0IMP_DRE
 10
169822.98
 20
9420324.00
  0
VERTEX
  8
0IMP_DRE
 10
169742.13
 20
9420337.00
  0
VERTEX
  8
0IMP_DRE
 10
169661.27
 20
9420349.00
  0
VERTEX
  8
0IMP_DRE
 10
169574.17
 20
9420362.00
  0
VERTEX
  8
0IMP_DRE
 10
169468.39
 20
9420369.00
  0
VERTEX
  8
0IMP_DRE
 10
169356.38
 20
9420375.00
  0
VERTEX
  8
0IMP_DRE
 10
169256.84
 20
9420388.00
  0
VERTEX
  8
0IMP_DRE
 10
169157.30
 20
9420401.00
  0
VERTEX
  8
0IMP_DRE
 10
169057.80
 20
9420420.00
  0
VERTEX
  8
0IMP_DRE
 10
168958.27
 20
9420433.00
  0
VERTEX
  8
0IMP_DRE
 10
168877.44
 20
9420452.00
  0
VERTEX
  8
0IMP_DRE
 10
168802.77
 20
9420458.00
  0
VERTEX
  8
0IMP_DRE
 10
168715.66
 20
9420465.00
  0
VERTEX
  8
0IMP_DRE
 10
168634.73
 20
9420465.00
  0
VERTEX
  8
0IMP_DRE
 10
168578.70
 20
9420465.00
  0
VERTEX
  8
0IMP_DRE
 10
168448.00
 20
9420465.00
  0
VERTEX
  8
0IMP_DRE
 10
168367.08
 20
9420466.00
  0
VERTEX
  8
0IMP_DRE
 10
168186.56
 20
9420466.00
  0
VERTEX
  8
0IMP_DRE
 10
168086.92
 20
9420454.00
  0
VERTEX
  8
0IMP_DRE
 10
167949.92
 20
9420442.00
  0
VERTEX
  8
0IMP_DRE
 10
167893.88
 20
9420436.00
  0
VERTEX
  8
0IMP_DRE
 10
167800.44
 20
9420423.00
  0
VERTEX
  8
0IMP_DRE
 10
167719.44
 20
9420405.00
  0
VERTEX
  8
0IMP_DRE
 10
167644.72
 20
9420399.00
  0
VERTEX
  8
0IMP_DRE
 10
167563.70
 20
9420380.00
  0
VERTEX
  8
0IMP_DRE
 10
167416.78
 20
9420339.00
  0
SEQEND
  8
0IMP_DRE
  0
POLYLINE
  8
0IMP_DRE
 66
     1
  0
VERTEX
  8
0IMP_DRE
 10
182266.16
 20
9409571.00
  0
VERTEX
  8
0IMP_DRE
 10
182247.25
 20
9409521.00
  0
VERTEX
  8
0IMP_DRE
 10
182234.52
 20
9409459.00
  0
VERTEX
  8
0IMP_DRE
 10
182215.58
 20
9409402.00
  0
VERTEX
  8
0IMP_DRE
 10
182196.64
 20
9409346.00
  0
VERTEX
  8
0IMP_DRE
 10
182158.95
 20
9409271.00
  0
VERTEX
  8
0IMP_DRE
 10
182115.09
 20
9409209.00
  0
VERTEX
  8
0IMP_DRE
 10
182065.09
 20
9409165.00
  0
VERTEX
  8
0IMP_DRE
 10
181984.14
 20
9409159.00
  0
VERTEX
  8
0IMP_DRE
 10
181928.27
 20
9409191.00
  0
VERTEX
  8
0IMP_DRE
 10
181872.39
 20
9409222.00
  0
VERTEX
  8
0IMP_DRE
 10
181853.95
 20
9409272.00
  0
VERTEX
  8
0IMP_DRE
 10
181810.75
 20
9409354.00
  0
VERTEX
  8
0IMP_DRE
 10
181786.27
 20
9409441.00
  0
VERTEX
  8
0IMP_DRE
 10
181761.69
 20
9409510.00
  0
VERTEX
  8
0IMP_DRE
 10
181755.80
 20
9409585.00
  0
VERTEX
  8
0IMP_DRE
 10
181749.98
 20
9409673.00
  0
VERTEX
  8
0IMP_DRE
 10
181750.33
 20
9409748.00
  0
VERTEX
  8
0IMP_DRE
 10
181750.70
 20
9409829.00
  0
VERTEX
  8
0IMP_DRE
 10
181751.17
 20
9409929.00
  0
VERTEX
  8
0IMP_DRE
 10
181770.08
 20
9409979.00
  0
VERTEX
  8
0IMP_DRE
 10
181813.95
 20
9410048.00
  0
VERTEX
  8
0IMP_DRE
 10
181845.41
 20
9410117.00
  0
VERTEX
  8
0IMP_DRE
 10
181870.63
 20
9410186.00
  0
VERTEX
  8
0IMP_DRE
 10
181902.03
 20
9410248.00
  0
VERTEX
  8
0IMP_DRE
 10
181921.05
 20
9410323.00
  0
VERTEX
  8
0IMP_DRE
 10
181927.53
 20
9410379.00
  0
VERTEX
  8
0IMP_DRE
 10
181946.47
 20
9410436.00
  0
VERTEX
  8
0IMP_DRE
 10
181952.92
 20
9410486.00
  0
VERTEX
  8
0IMP_DRE
 10
181984.33
 20
9410548.00
  0
VERTEX
  8
0IMP_DRE
 10
182040.61
 20
9410604.00
  0
VERTEX
  8
0IMP_DRE
 10
182096.75
 20
9410629.00
  0
VERTEX
  8
0IMP_DRE
 10
182121.33
 20
9410560.00
  0
VERTEX
  8
0IMP_DRE
 10
182133.55
 20
9410510.00
  0
VERTEX
  8
0IMP_DRE
 10
182151.94
 20
9410448.00
  0
VERTEX
  8
0IMP_DRE
 10
182151.70
 20
9410397.00
  0
VERTEX
  8
0IMP_DRE
 10
182157.70
 20
9410347.00
  0
VERTEX
  8
0IMP_DRE
 10
182163.66
 20
9410291.00
  0
VERTEX
  8
0IMP_DRE
 10
182169.63
 20
9410235.00
  0
VERTEX
  8
0IMP_DRE
 10
182169.36
 20
9410178.00
  0
VERTEX
  8
0IMP_DRE
 10
182175.30
 20
9410116.00
  0
VERTEX
  8
0IMP_DRE
 10
182187.44
 20
9410047.00
  0
VERTEX
  8
0IMP_DRE
 10
182193.39
 20
9409991.00
  0
VERTEX
  8
0IMP_DRE
 10
182205.50
 20
9409916.00
  0
VERTEX
  8
0IMP_DRE
 10
182211.44
 20
9409853.00
  0
VERTEX
  8
0IMP_DRE
 10
182211.03
 20
9409765.00
  0
VERTEX
  8
0IMP_DRE
 10
182217.00
 20
9409709.00
  0
VERTEX
  8
0IMP_DRE
 10
182216.73
 20
9409653.00
  0
VERTEX
  8
0IMP_DRE
 10
182266.16
 20
9409571.00
  0
SEQEND
  8
0IMP_DRE
  0
POLYLINE
  8
0IMP_DRE
 66
     1
  0
VERTEX
  8
0IMP_DRE
 10
182633.08
 20
9408150.00
  0
VERTEX
  8
0IMP_DRE
 10
182577.05
 20
9408150.00
  0
VERTEX
  8
0IMP_DRE
 10
182502.36
 20
9408150.00
  0
VERTEX
  8
0IMP_DRE
 10
182477.69
 20
9408200.00
  0
VERTEX
  8
0IMP_DRE
 10
182465.47
 20
9408250.00
  0
VERTEX
  8
0IMP_DRE
 10
182453.34
 20
9408319.00
  0
VERTEX
  8
0IMP_DRE
 10
182441.19
 20
9408382.00
  0
VERTEX
  8
0IMP_DRE
 10
182428.97
 20
9408432.00
  0
VERTEX
  8
0IMP_DRE
 10
182423.14
 20
9408520.00
  0
VERTEX
  8
0IMP_DRE
 10
182417.16
 20
9408570.00
  0
VERTEX
  8
0IMP_DRE
 10
182411.16
 20
9408620.00
  0
VERTEX
  8
0IMP_DRE
 10
182405.22
 20
9408682.00
  0
VERTEX
  8
0IMP_DRE
 10
182399.25
 20
9408739.00
  0
VERTEX
  8
0IMP_DRE
 10
182393.33
 20
9408801.00
  0
VERTEX
  8
0IMP_DRE
 10
182387.36
 20
9408858.00
  0
VERTEX
  8
0IMP_DRE
 10
182387.70
 20
9408933.00
  0
VERTEX
  8
0IMP_DRE
 10
182388.02
 20
9409002.00
  0
VERTEX
  8
0IMP_DRE
 10
182388.28
 20
9409058.00
  0
VERTEX
  8
0IMP_DRE
 10
182388.52
 20
9409108.00
  0
VERTEX
  8
0IMP_DRE
 10
182388.73
 20
9409158.00
  0
VERTEX
  8
0IMP_DRE
 10
182444.88
 20
9409183.00
  0
VERTEX
  8
0IMP_DRE
 10
182481.97
 20
9409126.00
  0
VERTEX
  8
0IMP_DRE
 10
182500.41
 20
9409076.00
  0
VERTEX
  8
0IMP_DRE
 10
182537.34
 20
9408989.00
  0
VERTEX
  8
0IMP_DRE
 10
182593.34
 20
9408982.00
  0
VERTEX
  8
0IMP_DRE
 10
182655.42
 20
9408944.00
  0
VERTEX
  8
0IMP_DRE
 10
182692.53
 20
9408894.00
  0
VERTEX
  8
0IMP_DRE
 10
182717.20
 20
9408844.00
  0
VERTEX
  8
0IMP_DRE
 10
182723.16
 20
9408788.00
  0
VERTEX
  8
0IMP_DRE
 10
182741.61
 20
9408738.00
  0
VERTEX
  8
0IMP_DRE
 10
182747.55
 20
9408675.00
  0
VERTEX
  8
0IMP_DRE
 10
182747.31
 20
9408625.00
  0
VERTEX
  8
0IMP_DRE
 10
182747.05
 20
9408569.00
  0
VERTEX
  8
0IMP_DRE
 10
182740.39
 20
9408475.00
  0
VERTEX
  8
0IMP_DRE
 10
182721.31
 20
9408387.00
  0
VERTEX
  8
0IMP_DRE
 10
182708.61
 20
9408331.00
  0
VERTEX
  8
0IMP_DRE
 10
182695.92
 20
9408281.00
  0
VERTEX
  8
0IMP_DRE
 10
182633.08
 20
9408150.00
  0
SEQEND
  8
0IMP_DRE
  0
POLYLINE
  8
0IMP_DRE
 66
     1
  0
VERTEX
  8
0IMP_DRE
 10
188846.59
 20
9404397.00
  0
VERTEX
  8
0IMP_DRE
 10
188908.89
 20
9404410.00
  0
VERTEX
  8
0IMP_DRE
 10
188989.88
 20
9404422.00
  0
VERTEX
  8
0IMP_DRE
 10
189064.63
 20
9404434.00
  0
VERTEX
  8
0IMP_DRE
 10
189145.61
 20
9404447.00
  0
VERTEX
  8
0IMP_DRE
 10
189220.30
 20
9404446.00
  0
VERTEX
  8
0IMP_DRE
 10
189288.80
 20
9404452.00
  0
VERTEX
  8
0IMP_DRE
 10
189344.84
 20
9404458.00
  0
VERTEX
  8
0IMP_DRE
 10
189419.56
 20
9404465.00
  0
VERTEX
  8
0IMP_DRE
 10
189506.77
 20
9404477.00
  0
VERTEX
  8
0IMP_DRE
 10
189562.84
 20
9404489.00
  0
VERTEX
  8
0IMP_DRE
 10
189643.83
 20
9404501.00
  0
VERTEX
  8
0IMP_DRE
 10
189731.03
 20
9404514.00
  0
VERTEX
  8
0IMP_DRE
 10
189799.53
 20
9404520.00
  0
VERTEX
  8
0IMP_DRE
 10
189868.03
 20
9404526.00
  0
VERTEX
  8
0IMP_DRE
 10
189942.72
 20
9404526.00
  0
VERTEX
  8
0IMP_DRE
 10
190023.64
 20
9404525.00
  0
VERTEX
  8
0IMP_DRE
 10
190079.66
 20
9404525.00
  0
VERTEX
  8
0IMP_DRE
 10
190173.03
 20
9404525.00
  0
VERTEX
  8
0IMP_DRE
 10
190229.08
 20
9404531.00
  0
VERTEX
  8
0IMP_DRE
 10
190341.14
 20
9404537.00
  0
VERTEX
  8
0IMP_DRE
 10
190409.64
 20
9404543.00
  0
VERTEX
  8
0IMP_DRE
 10
190552.84
 20
9404549.00
  0
VERTEX
  8
0IMP_DRE
 10
190633.78
 20
9404555.00
  0
VERTEX
  8
0IMP_DRE
 10
190745.89
 20
9404567.00
  0
VERTEX
  8
0IMP_DRE
 10
190833.11
 20
9404586.00
  0
VERTEX
  8
0IMP_DRE
 10
190901.61
 20
9404592.00
  0
VERTEX
  8
0IMP_DRE
 10
190963.97
 20
9404617.00
  0
VERTEX
  8
0IMP_DRE
 10
191032.59
 20
9404648.00
  0
VERTEX
  8
0IMP_DRE
 10
191113.86
 20
9404723.00
  0
VERTEX
  8
0IMP_DRE
 10
191188.75
 20
9404766.00
  0
VERTEX
  8
0IMP_DRE
 10
191276.09
 20
9404810.00
  0
VERTEX
  8
0IMP_DRE
 10
191363.33
 20
9404828.00
  0
VERTEX
  8
0IMP_DRE
 10
191419.55
 20
9404872.00
  0
VERTEX
  8
0IMP_DRE
 10
191531.66
 20
9404884.00
  0
VERTEX
  8
0IMP_DRE
 10
191600.30
 20
9404922.00
  0
VERTEX
  8
0IMP_DRE
 10
191731.09
 20
9404940.00
  0
VERTEX
  8
0IMP_DRE
 10
191806.00
 20
9404984.00
  0
VERTEX
  8
0IMP_DRE
 10
191911.86
 20
9404996.00
  0
VERTEX
  8
0IMP_DRE
 10
191980.53
 20
9405039.00
  0
VERTEX
  8
0IMP_DRE
 10
192042.98
 20
9405083.00
  0
VERTEX
  8
0IMP_DRE
 10
192117.83
 20
9405114.00
  0
VERTEX
  8
0IMP_DRE
 10
192173.94
 20
9405133.00
  0
VERTEX
  8
0IMP_DRE
 10
192230.02
 20
9405145.00
  0
VERTEX
  8
0IMP_DRE
 10
192292.28
 20
9405151.00
  0
VERTEX
  8
0IMP_DRE
 10
192367.02
 20
9405157.00
  0
VERTEX
  8
0IMP_DRE
 10
192447.95
 20
9405163.00
  0
VERTEX
  8
0IMP_DRE
 10
192522.80
 20
9405194.00
  0
VERTEX
  8
0IMP_DRE
 10
192603.97
 20
9405250.00
  0
VERTEX
  8
0IMP_DRE
 10
192678.81
 20
9405281.00
  0
VERTEX
  8
0IMP_DRE
 10
192747.55
 20
9405338.00
  0
VERTEX
  8
0IMP_DRE
 10
192835.00
 20
9405406.00
  0
VERTEX
  8
0IMP_DRE
 10
192915.98
 20
9405418.00
  0
VERTEX
  8
0IMP_DRE
 10
192997.08
 20
9405456.00
  0
VERTEX
  8
0IMP_DRE
 10
193065.58
 20
9405462.00
  0
VERTEX
  8
0IMP_DRE
 10
193140.27
 20
9405462.00
  0
VERTEX
  8
0IMP_DRE
 10
193208.73
 20
9405461.00
  0
VERTEX
  8
0IMP_DRE
 10
193302.11
 20
9405461.00
  0
VERTEX
  8
0IMP_DRE
 10
193376.77
 20
9405455.00
  0
VERTEX
  8
0IMP_DRE
 10
193451.38
 20
9405436.00
  0
VERTEX
  8
0IMP_DRE
 10
193519.80
 20
9405423.00
  0
VERTEX
  8
0IMP_DRE
 10
193575.69
 20
9405398.00
  0
VERTEX
  8
0IMP_DRE
 10
193637.91
 20
9405391.00
  0
VERTEX
  8
0IMP_DRE
 10
193693.81
 20
9405366.00
  0
VERTEX
  8
0IMP_DRE
 10
193774.63
 20
9405341.00
  0
VERTEX
  8
0IMP_DRE
 10
193830.58
 20
9405328.00
  0
VERTEX
  8
0IMP_DRE
 10
193892.80
 20
9405322.00
  0
VERTEX
  8
0IMP_DRE
 10
193948.80
 20
9405316.00
  0
VERTEX
  8
0IMP_DRE
 10
194011.03
 20
9405315.00
  0
VERTEX
  8
0IMP_DRE
 10
194073.25
 20
9405309.00
  0
VERTEX
  8
0IMP_DRE
 10
194135.50
 20
9405309.00
  0
VERTEX
  8
0IMP_DRE
 10
194216.42
 20
9405309.00
  0
VERTEX
  8
0IMP_DRE
 10
194303.53
 20
9405302.00
  0
VERTEX
  8
0IMP_DRE
 10
194378.22
 20
9405302.00
  0
VERTEX
  8
0IMP_DRE
 10
194434.25
 20
9405302.00
  0
VERTEX
  8
0IMP_DRE
 10
194490.27
 20
9405301.00
  0
VERTEX
  8
0IMP_DRE
 10
194552.48
 20
9405295.00
  0
VERTEX
  8
0IMP_DRE
 10
194639.63
 20
9405295.00
  0
VERTEX
  8
0IMP_DRE
 10
194726.77
 20
9405295.00
  0
VERTEX
  8
0IMP_DRE
 10
194782.80
 20
9405294.00
  0
SEQEND
  8
0IMP_DRE
  0
POLYLINE
  8
0IMP_DRE
 66
     1
  0
VERTEX
  8
0IMP_DRE
 10
167411.44
 20
9421405.00
  0
VERTEX
  8
0IMP_DRE
 10
167568.73
 20
9421469.00
  0
VERTEX
  8
0IMP_DRE
 10
167624.84
 20
9421487.00
  0
VERTEX
  8
0IMP_DRE
 10
167687.14
 20
9421500.00
  0
VERTEX
  8
0IMP_DRE
 10
167749.39
 20
9421500.00
  0
VERTEX
  8
0IMP_DRE
 10
167824.11
 20
9421506.00
  0
VERTEX
  8
0IMP_DRE
 10
167886.36
 20
9421506.00
  0
VERTEX
  8
0IMP_DRE
 10
167967.28
 20
9421505.00
  0
VERTEX
  8
0IMP_DRE
 10
168066.88
 20
9421505.00
  0
VERTEX
  8
0IMP_DRE
 10
168154.02
 20
9421505.00
  0
VERTEX
  8
0IMP_DRE
 10
168247.38
 20
9421505.00
  0
VERTEX
  8
0IMP_DRE
 10
168322.08
 20
9421504.00
  0
VERTEX
  8
0IMP_DRE
 10
168384.31
 20
9421504.00
  0
VERTEX
  8
0IMP_DRE
 10
168446.50
 20
9421491.00
  0
VERTEX
  8
0IMP_DRE
 10
168508.67
 20
9421473.00
  0
VERTEX
  8
0IMP_DRE
 10
168570.86
 20
9421460.00
  0
VERTEX
  8
0IMP_DRE
 10
168626.78
 20
9421441.00
  0
VERTEX
  8
0IMP_DRE
 10
168695.17
 20
9421422.00
  0
VERTEX
  8
0IMP_DRE
 10
168757.30
 20
9421397.00
  0
VERTEX
  8
0IMP_DRE
 10
168819.44
 20
9421372.00
  0
VERTEX
  8
0IMP_DRE
 10
168881.59
 20
9421353.00
  0
VERTEX
  8
0IMP_DRE
 10
168962.42
 20
9421334.00
  0
VERTEX
  8
0IMP_DRE
 10
169018.39
 20
9421321.00
  0
VERTEX
  8
0IMP_DRE
 10
169074.31
 20
9421302.00
  0
VERTEX
  8
0IMP_DRE
 10
169142.70
 20
9421283.00
  0
VERTEX
  8
0IMP_DRE
 10
169223.56
 20
9421270.00
  0
VERTEX
  8
0IMP_DRE
 10
169279.50
 20
9421251.00
  0
VERTEX
  8
0IMP_DRE
 10
169335.44
 20
9421232.00
  0
VERTEX
  8
0IMP_DRE
 10
169416.30
 20
9421220.00
  0
VERTEX
  8
0IMP_DRE
 10
169472.23
 20
9421201.00
  0
VERTEX
  8
0IMP_DRE
 10
169552.97
 20
9421163.00
  0
VERTEX
  8
0IMP_DRE
 10
169627.52
 20
9421132.00
  0
VERTEX
  8
0IMP_DRE
 10
169683.41
 20
9421100.00
  0
VERTEX
  8
0IMP_DRE
 10
169745.59
 20
9421087.00
  0
VERTEX
  8
0IMP_DRE
 10
169807.75
 20
9421068.00
  0
VERTEX
  8
0IMP_DRE
 10
169869.94
 20
9421056.00
  0
VERTEX
  8
0IMP_DRE
 10
169950.73
 20
9421031.00
  0
VERTEX
  8
0IMP_DRE
 10
170037.80
 20
9421012.00
  0
VERTEX
  8
0IMP_DRE
 10
170112.44
 20
9420999.00
  0
VERTEX
  8
0IMP_DRE
 10
170187.13
 20
9420999.00
  0
VERTEX
  8
0IMP_DRE
 10
170261.80
 20
9420992.00
  0
VERTEX
  8
0IMP_DRE
 10
170324.03
 20
9420992.00
  0
VERTEX
  8
0IMP_DRE
 10
170398.73
 20
9420992.00
  0
VERTEX
  8
0IMP_DRE
 10
170454.75
 20
9420992.00
  0
VERTEX
  8
0IMP_DRE
 10
170517.03
 20
9420998.00
  0
VERTEX
  8
0IMP_DRE
 10
170616.77
 20
9421029.00
  0
VERTEX
  8
0IMP_DRE
 10
170679.09
 20
9421047.00
  0
VERTEX
  8
0IMP_DRE
 10
170753.81
 20
9421053.00
  0
VERTEX
  8
0IMP_DRE
 10
170834.73
 20
9421053.00
  0
VERTEX
  8
0IMP_DRE
 10
170915.66
 20
9421053.00
  0
VERTEX
  8
0IMP_DRE
 10
170990.33
 20
9421046.00
  0
VERTEX
  8
0IMP_DRE
 10
171071.20
 20
9421040.00
  0
VERTEX
  8
0IMP_DRE
 10
171139.69
 20
9421040.00
  0
VERTEX
  8
0IMP_DRE
 10
171195.70
 20
9421040.00
  0
VERTEX
  8
0IMP_DRE
 10
171276.63
 20
9421039.00
  0
VERTEX
  8
0IMP_DRE
 10
171363.77
 20
9421039.00
  0
VERTEX
  8
0IMP_DRE
 10
171450.91
 20
9421039.00
  0
VERTEX
  8
0IMP_DRE
 10
171538.05
 20
9421039.00
  0
VERTEX
  8
0IMP_DRE
 10
171594.08
 20
9421039.00
  0
VERTEX
  8
0IMP_DRE
 10
171687.44
 20
9421038.00
  0
VERTEX
  8
0IMP_DRE
 10
171743.45
 20
9421038.00
  0
VERTEX
  8
0IMP_DRE
 10
171849.28
 20
9421038.00
  0
VERTEX
  8
0IMP_DRE
 10
171905.30
 20
9421038.00
  0
VERTEX
  8
0IMP_DRE
 10
171980.00
 20
9421037.00
  0
VERTEX
  8
0IMP_DRE
 10
172048.47
 20
9421037.00
  0
VERTEX
  8
0IMP_DRE
 10
172104.48
 20
9421037.00
  0
VERTEX
  8
0IMP_DRE
 10
172179.17
 20
9421037.00
  0
VERTEX
  8
0IMP_DRE
 10
172247.66
 20
9421037.00
  0
VERTEX
  8
0IMP_DRE
 10
172303.55
 20
9421012.00
  0
VERTEX
  8
0IMP_DRE
 10
172378.13
 20
9420986.00
  0
VERTEX
  8
0IMP_DRE
 10
172446.38
 20
9420936.00
  0
VERTEX
  8
0IMP_DRE
 10
172508.39
 20
9420886.00
  0
VERTEX
  8
0IMP_DRE
 10
172570.42
 20
9420842.00
  0
VERTEX
  8
0IMP_DRE
 10
172651.06
 20
9420779.00
  0
VERTEX
  8
0IMP_DRE
 10
172706.84
 20
9420729.00
  0
VERTEX
  8
0IMP_DRE
 10
172787.69
 20
9420710.00
  0
VERTEX
  8
0IMP_DRE
 10
172818.58
 20
9420660.00
  0
VERTEX
  8
0IMP_DRE
 10
172886.92
 20
9420635.00
  0
VERTEX
  8
0IMP_DRE
 10
172961.50
 20
9420609.00
  0
VERTEX
  8
0IMP_DRE
 10
173048.50
 20
9420578.00
  0
VERTEX
  8
0IMP_DRE
 10
173129.34
 20
9420559.00
  0
VERTEX
  8
0IMP_DRE
 10
173210.23
 20
9420552.00
  0
VERTEX
  8
0IMP_DRE
 10
173297.31
 20
9420540.00
  0
VERTEX
  8
0IMP_DRE
 10
173365.78
 20
9420539.00
  0
VERTEX
  8
0IMP_DRE
 10
173440.48
 20
9420539.00
  0
VERTEX
  8
0IMP_DRE
 10
173533.84
 20
9420539.00
  0
VERTEX
  8
0IMP_DRE
 10
173596.13
 20
9420545.00
  0
VERTEX
  8
0IMP_DRE
 10
173658.39
 20
9420551.00
  0
VERTEX
  8
0IMP_DRE
 10
173714.56
 20
9420582.00
  0
VERTEX
  8
0IMP_DRE
 10
173789.38
 20
9420607.00
  0
VERTEX
  8
0IMP_DRE
 10
173851.77
 20
9420638.00
  0
VERTEX
  8
0IMP_DRE
 10
173907.86
 20
9420657.00
  0
VERTEX
  8
0IMP_DRE
 10
173995.06
 20
9420669.00
  0
VERTEX
  8
0IMP_DRE
 10
174076.11
 20
9420694.00
  0
VERTEX
  8
0IMP_DRE
 10
174132.20
 20
9420712.00
  0
VERTEX
  8
0IMP_DRE
 10
174213.19
 20
9420725.00
  0
VERTEX
  8
0IMP_DRE
 10
174294.19
 20
9420743.00
  0
VERTEX
  8
0IMP_DRE
 10
174375.17
 20
9420756.00
  0
VERTEX
  8
0IMP_DRE
 10
174449.95
 20
9420774.00
  0
VERTEX
  8
0IMP_DRE
 10
174537.13
 20
9420780.00
  0
VERTEX
  8
0IMP_DRE
 10
174618.06
 20
9420786.00
  0
VERTEX
  8
0IMP_DRE
 10
174680.31
 20
9420786.00
  0
VERTEX
  8
0IMP_DRE
 10
174748.78
 20
9420786.00
  0
VERTEX
  8
0IMP_DRE
 10
174829.70
 20
9420786.00
  0
VERTEX
  8
0IMP_DRE
 10
174916.84
 20
9420785.00
  0
VERTEX
  8
0IMP_DRE
 10
174985.31
 20
9420785.00
  0
VERTEX
  8
0IMP_DRE
 10
175066.20
 20
9420779.00
  0
VERTEX
  8
0IMP_DRE
 10
175153.30
 20
9420766.00
  0
VERTEX
  8
0IMP_DRE
 10
175227.94
 20
9420753.00
  0
VERTEX
  8
0IMP_DRE
 10
175302.56
 20
9420740.00
  0
VERTEX
  8
0IMP_DRE
 10
175377.27
 20
9420740.00
  0
VERTEX
  8
0IMP_DRE
 10
175439.45
 20
9420728.00
  0
VERTEX
  8
0IMP_DRE
 10
175507.89
 20
9420721.00
  0
VERTEX
  8
0IMP_DRE
 10
175601.23
 20
9420715.00
  0
VERTEX
  8
0IMP_DRE
 10
175663.45
 20
9420708.00
  0
VERTEX
  8
0IMP_DRE
 10
175750.56
 20
9420702.00
  0
VERTEX
  8
0IMP_DRE
 10
175818.97
 20
9420689.00
  0
VERTEX
  8
0IMP_DRE
 10
175893.64
 20
9420683.00
  0
VERTEX
  8
0IMP_DRE
 10
175955.83
 20
9420670.00
  0
VERTEX
  8
0IMP_DRE
 10
176036.69
 20
9420657.00
  0
VERTEX
  8
0IMP_DRE
 10
176092.69
 20
9420651.00
  0
VERTEX
  8
0IMP_DRE
 10
176148.64
 20
9420638.00
  0
VERTEX
  8
0IMP_DRE
 10
176235.70
 20
9420619.00
  0
VERTEX
  8
0IMP_DRE
 10
176322.75
 20
9420600.00
  0
VERTEX
  8
0IMP_DRE
 10
176384.94
 20
9420587.00
  0
VERTEX
  8
0IMP_DRE
 10
176459.55
 20
9420568.00
  0
VERTEX
  8
0IMP_DRE
 10
176540.38
 20
9420549.00
  0
VERTEX
  8
0IMP_DRE
 10
176596.34
 20
9420537.00
  0
VERTEX
  8
0IMP_DRE
 10
176671.05
 20
9420536.00
  0
VERTEX
  8
0IMP_DRE
 10
176751.94
 20
9420530.00
  0
VERTEX
  8
0IMP_DRE
 10
176832.83
 20
9420523.00
  0
VERTEX
  8
0IMP_DRE
 10
176895.05
 20
9420517.00
  0
VERTEX
  8
0IMP_DRE
 10
176982.19
 20
9420517.00
  0
VERTEX
  8
0IMP_DRE
 10
177050.63
 20
9420510.00
  0
VERTEX
  8
0IMP_DRE
 10
177106.61
 20
9420504.00
  0
VERTEX
  8
0IMP_DRE
 10
177187.48
 20
9420491.00
  0
VERTEX
  8
0IMP_DRE
 10
177268.31
 20
9420472.00
  0
VERTEX
  8
0IMP_DRE
 10
177342.89
 20
9420447.00
  0
VERTEX
  8
0IMP_DRE
 10
177423.66
 20
9420415.00
  0
VERTEX
  8
0IMP_DRE
 10
177498.19
 20
9420378.00
  0
VERTEX
  8
0IMP_DRE
 10
177554.09
 20
9420353.00
  0
VERTEX
  8
0IMP_DRE
 10
177641.14
 20
9420334.00
  0
VERTEX
  8
0IMP_DRE
 10
177696.97
 20
9420290.00
  0
VERTEX
  8
0IMP_DRE
 10
177790.27
 20
9420277.00
  0
VERTEX
  8
0IMP_DRE
 10
177889.61
 20
9420220.00
  0
VERTEX
  8
0IMP_DRE
 10
177982.95
 20
9420214.00
  0
VERTEX
  8
0IMP_DRE
 10
178076.08
 20
9420163.00
  0
VERTEX
  8
0IMP_DRE
 10
178150.69
 20
9420144.00
  0
VERTEX
  8
0IMP_DRE
 10
178231.34
 20
9420088.00
  0
VERTEX
  8
0IMP_DRE
 10
178318.20
 20
9420025.00
  0
VERTEX
  8
0IMP_DRE
 10
178392.64
 20
9419969.00
  0
VERTEX
  8
0IMP_DRE
 10
178429.75
 20
9419918.00
  0
VERTEX
  8
0IMP_DRE
 10
178510.42
 20
9419862.00
  0
VERTEX
  8
0IMP_DRE
 10
178522.61
 20
9419806.00
  0
VERTEX
  8
0IMP_DRE
 10
178572.14
 20
9419749.00
  0
VERTEX
  8
0IMP_DRE
 10
178615.42
 20
9419686.00
  0
VERTEX
  8
0IMP_DRE
 10
178689.86
 20
9419630.00
  0
VERTEX
  8
0IMP_DRE
 10
178758.13
 20
9419586.00
  0
VERTEX
  8
0IMP_DRE
 10
178826.19
 20
9419498.00
  0
VERTEX
  8
0IMP_DRE
 10
178900.66
 20
9419448.00
  0
VERTEX
  8
0IMP_DRE
 10
178987.52
 20
9419385.00
  0
VERTEX
  8
0IMP_DRE
 10
179068.14
 20
9419322.00
  0
VERTEX
  8
0IMP_DRE
 10
179142.58
 20
9419266.00
  0
VERTEX
  8
0IMP_DRE
 10
179210.78
 20
9419209.00
  0
VERTEX
  8
0IMP_DRE
 10
179297.67
 20
9419153.00
  0
VERTEX
  8
0IMP_DRE
 10
179347.23
 20
9419102.00
  0
VERTEX
  8
0IMP_DRE
 10
179427.83
 20
9419033.00
  0
VERTEX
  8
0IMP_DRE
 10
179520.91
 20
9418971.00
  0
VERTEX
  8
0IMP_DRE
 10
179570.48
 20
9418920.00
  0
VERTEX
  8
0IMP_DRE
 10
179645.06
 20
9418895.00
  0
VERTEX
  8
0IMP_DRE
 10
179719.61
 20
9418864.00
  0
VERTEX
  8
0IMP_DRE
 10
179794.25
 20
9418851.00
  0
VERTEX
  8
0IMP_DRE
 10
179856.47
 20
9418845.00
  0
VERTEX
  8
0IMP_DRE
 10
179918.67
 20
9418838.00
  0
VERTEX
  8
0IMP_DRE
 10
179987.09
 20
9418825.00
  0
VERTEX
  8
0IMP_DRE
 10
180067.92
 20
9418806.00
  0
VERTEX
  8
0IMP_DRE
 10
180155.00
 20
9418794.00
  0
VERTEX
  8
0IMP_DRE
 10
180223.42
 20
9418781.00
  0
VERTEX
  8
0IMP_DRE
 10
180298.11
 20
9418781.00
  0
VERTEX
  8
0IMP_DRE
 10
180354.08
 20
9418768.00
  0
VERTEX
  8
0IMP_DRE
 10
180428.75
 20
9418762.00
  0
VERTEX
  8
0IMP_DRE
 10
180503.38
 20
9418749.00
  0
VERTEX
  8
0IMP_DRE
 10
180559.38
 20
9418742.00
  0
VERTEX
  8
0IMP_DRE
 10
180640.23
 20
9418730.00
  0
VERTEX
  8
0IMP_DRE
 10
180708.64
 20
9418717.00
  0
VERTEX
  8
0IMP_DRE
 10
180801.89
 20
9418692.00
  0
VERTEX
  8
0IMP_DRE
 10
180882.61
 20
9418648.00
  0
VERTEX
  8
0IMP_DRE
 10
180938.44
 20
9418604.00
  0
VERTEX
  8
0IMP_DRE
 10
180994.25
 20
9418560.00
  0
VERTEX
  8
0IMP_DRE
 10
181062.38
 20
9418485.00
  0
VERTEX
  8
0IMP_DRE
 10
181087.02
 20
9418428.00
  0
VERTEX
  8
0IMP_DRE
 10
181105.45
 20
9418378.00
  0
VERTEX
  8
0IMP_DRE
 10
181154.98
 20
9418322.00
  0
VERTEX
  8
0IMP_DRE
 10
181185.70
 20
9418234.00
  0
VERTEX
  8
0IMP_DRE
 10
181235.09
 20
9418146.00
  0
VERTEX
  8
0IMP_DRE
 10
181265.97
 20
9418090.00
  0
VERTEX
  8
0IMP_DRE
 10
181315.50
 20
9418033.00
  0
VERTEX
  8
0IMP_DRE
 10
181352.44
 20
9417946.00
  0
VERTEX
  8
0IMP_DRE
 10
181389.39
 20
9417858.00
  0
VERTEX
  8
0IMP_DRE
 10
181426.47
 20
9417802.00
  0
VERTEX
  8
0IMP_DRE
 10
181457.28
 20
9417733.00
  0
VERTEX
  8
0IMP_DRE
 10
181481.94
 20
9417682.00
  0
VERTEX
  8
0IMP_DRE
 10
181525.17
 20
9417607.00
  0
VERTEX
  8
0IMP_DRE
 10
181556.06
 20
9417557.00
  0
VERTEX
  8
0IMP_DRE
 10
181574.50
 20
9417507.00
  0
VERTEX
  8
0IMP_DRE
 10
181605.39
 20
9417457.00
  0
VERTEX
  8
0IMP_DRE
 10
181648.42
 20
9417338.00
  0
VERTEX
  8
0IMP_DRE
 10
181666.83
 20
9417282.00
  0
VERTEX
  8
0IMP_DRE
 10
181710.00
 20
9417194.00
  0
VERTEX
  8
0IMP_DRE
 10
181746.92
 20
9417100.00
  0
VERTEX
  8
0IMP_DRE
 10
181789.97
 20
9416987.00
  0
VERTEX
  8
0IMP_DRE
 10
181839.39
 20
9416906.00
  0
VERTEX
  8
0IMP_DRE
 10
181876.39
 20
9416830.00
  0
VERTEX
  8
0IMP_DRE
 10
181925.81
 20
9416749.00
  0
VERTEX
  8
0IMP_DRE
 10
181938.03
 20
9416699.00
  0
VERTEX
  8
0IMP_DRE
 10
181987.59
 20
9416649.00
  0
VERTEX
  8
0IMP_DRE
 10
181999.81
 20
9416599.00
  0
VERTEX
  8
0IMP_DRE
 10
182036.92
 20
9416548.00
  0
VERTEX
  8
0IMP_DRE
 10
182055.31
 20
9416486.00
  0
VERTEX
  8
0IMP_DRE
 10
182092.42
 20
9416436.00
  0
VERTEX
  8
0IMP_DRE
 10
182110.73
 20
9416354.00
  0
VERTEX
  8
0IMP_DRE
 10
182160.30
 20
9416304.00
  0
VERTEX
  8
0IMP_DRE
 10
182166.28
 20
9416254.00
  0
VERTEX
  8
0IMP_DRE
 10
182197.03
 20
9416173.00
  0
VERTEX
  8
0IMP_DRE
 10
182240.06
 20
9416054.00
  0
VERTEX
  8
0IMP_DRE
 10
182252.25
 20
9415997.00
  0
VERTEX
  8
0IMP_DRE
 10
182270.45
 20
9415897.00
  0
VERTEX
  8
0IMP_DRE
 10
182301.20
 20
9415816.00
  0
VERTEX
  8
0IMP_DRE
 10
182313.39
 20
9415759.00
  0
VERTEX
  8
0IMP_DRE
 10
182344.17
 20
9415684.00
  0
VERTEX
  8
0IMP_DRE
 10
182356.36
 20
9415628.00
  0
VERTEX
  8
0IMP_DRE
 10
182368.55
 20
9415571.00
  0
VERTEX
  8
0IMP_DRE
 10
182386.84
 20
9415490.00
  0
VERTEX
  8
0IMP_DRE
 10
182398.92
 20
9415409.00
  0
VERTEX
  8
0IMP_DRE
 10
182404.89
 20
9415352.00
  0
VERTEX
  8
0IMP_DRE
 10
182416.95
 20
9415271.00
  0
VERTEX
  8
0IMP_DRE
 10
182422.81
 20
9415190.00
  0
VERTEX
  8
0IMP_DRE
 10
182434.88
 20
9415108.00
  0
VERTEX
  8
0IMP_DRE
 10
182440.73
 20
9415027.00
  0
VERTEX
  8
0IMP_DRE
 10
182458.94
 20
9414927.00
  0
VERTEX
  8
0IMP_DRE
 10
182464.67
 20
9414820.00
  0
VERTEX
  8
0IMP_DRE
 10
182470.64
 20
9414764.00
  0
VERTEX
  8
0IMP_DRE
 10
182476.34
 20
9414651.00
  0
VERTEX
  8
0IMP_DRE
 10
182494.61
 20
9414564.00
  0
VERTEX
  8
0IMP_DRE
 10
182506.72
 20
9414489.00
  0
VERTEX
  8
0IMP_DRE
 10
182518.94
 20
9414438.00
  0
VERTEX
  8
0IMP_DRE
 10
182531.16
 20
9414388.00
  0
VERTEX
  8
0IMP_DRE
 10
182543.22
 20
9414307.00
  0
VERTEX
  8
0IMP_DRE
 10
182567.69
 20
9414213.00
  0
VERTEX
  8
0IMP_DRE
 10
182579.84
 20
9414151.00
  0
VERTEX
  8
0IMP_DRE
 10
182598.13
 20
9414063.00
  0
VERTEX
  8
0IMP_DRE
 10
182597.89
 20
9414013.00
  0
VERTEX
  8
0IMP_DRE
 10
182597.48
 20
9413925.00
  0
VERTEX
  8
0IMP_DRE
 10
182597.22
 20
9413869.00
  0
VERTEX
  8
0IMP_DRE
 10
182596.77
 20
9413769.00
  0
VERTEX
  8
0IMP_DRE
 10
182596.50
 20
9413712.00
  0
VERTEX
  8
0IMP_DRE
 10
182589.58
 20
9413562.00
  0
VERTEX
  8
0IMP_DRE
 10
182589.36
 20
9413512.00
  0
VERTEX
  8
0IMP_DRE
 10
182582.75
 20
9413431.00
  0
VERTEX
  8
0IMP_DRE
 10
182576.27
 20
9413375.00
  0
VERTEX
  8
0IMP_DRE
 10
182569.61
 20
9413281.00
  0
VERTEX
  8
0IMP_DRE
 10
182563.05
 20
9413206.00
  0
VERTEX
  8
0IMP_DRE
 10
182562.64
 20
9413118.00
  0
VERTEX
  8
0IMP_DRE
 10
182562.27
 20
9413037.00
  0
VERTEX
  8
0IMP_DRE
 10
182561.89
 20
9412955.00
  0
VERTEX
  8
0IMP_DRE
 10
182561.66
 20
9412905.00
  0
VERTEX
  8
0IMP_DRE
 10
182573.70
 20
9412818.00
  0
VERTEX
  8
0IMP_DRE
 10
182604.42
 20
9412730.00
  0
VERTEX
  8
0IMP_DRE
 10
182635.14
 20
9412642.00
  0
VERTEX
  8
0IMP_DRE
 10
182653.55
 20
9412586.00
  0
VERTEX
  8
0IMP_DRE
 10
182678.05
 20
9412498.00
  0
VERTEX
  8
0IMP_DRE
 10
182696.28
 20
9412404.00
  0
VERTEX
  8
0IMP_DRE
 10
182701.78
 20
9412248.00
  0
VERTEX
  8
0IMP_DRE
 10
182713.86
 20
9412167.00
  0
VERTEX
  8
0IMP_DRE
 10
182719.48
 20
9412035.00
  0
VERTEX
  8
0IMP_DRE
 10
182719.05
 20
9411941.00
  0
VERTEX
  8
0IMP_DRE
 10
182718.78
 20
9411885.00
  0
VERTEX
  8
0IMP_DRE
 10
182718.55
 20
9411835.00
  0
VERTEX
  8
0IMP_DRE
 10
182718.33
 20
9411785.00
  0
VERTEX
  8
0IMP_DRE
 10
182718.03
 20
9411722.00
  0
VERTEX
  8
0IMP_DRE
 10
182711.31
 20
9411616.00
  0
VERTEX
  8
0IMP_DRE
 10
182692.41
 20
9411566.00
  0
VERTEX
  8
0IMP_DRE
 10
182679.53
 20
9411472.00
  0
VERTEX
  8
0IMP_DRE
 10
182660.48
 20
9411391.00
  0
VERTEX
  8
0IMP_DRE
 10
182641.41
 20
9411303.00
  0
VERTEX
  8
0IMP_DRE
 10
182628.55
 20
9411216.00
  0
VERTEX
  8
0IMP_DRE
 10
182621.84
 20
9411109.00
  0
VERTEX
  8
0IMP_DRE
 10
182615.27
 20
9411034.00
  0
VERTEX
  8
0IMP_DRE
 10
182614.86
 20
9410947.00
  0
VERTEX
  8
0IMP_DRE
 10
182614.42
 20
9410853.00
  0
VERTEX
  8
0IMP_DRE
 10
182614.00
 20
9410759.00
  0
VERTEX
  8
0IMP_DRE
 10
182613.73
 20
9410703.00
  0
VERTEX
  8
0IMP_DRE
 10
182625.75
 20
9410609.00
  0
VERTEX
  8
0IMP_DRE
 10
182644.19
 20
9410559.00
  0
VERTEX
  8
0IMP_DRE
 10
182656.41
 20
9410509.00
  0
VERTEX
  8
0IMP_DRE
 10
182687.16
 20
9410427.00
  0
VERTEX
  8
0IMP_DRE
 10
182699.38
 20
9410377.00
  0
VERTEX
  8
0IMP_DRE
 10
182742.66
 20
9410315.00
  0
VERTEX
  8
0IMP_DRE
 10
182767.30
 20
9410258.00
  0
VERTEX
  8
0IMP_DRE
 10
182804.39
 20
9410202.00
  0
VERTEX
  8
0IMP_DRE
 10
182853.95
 20
9410152.00
  0
VERTEX
  8
0IMP_DRE
 10
182891.03
 20
9410095.00
  0
VERTEX
  8
0IMP_DRE
 10
182934.20
 20
9410007.00
  0
VERTEX
  8
0IMP_DRE
 10
182971.27
 20
9409945.00
  0
VERTEX
  8
0IMP_DRE
 10
183014.58
 20
9409888.00
  0
VERTEX
  8
0IMP_DRE
 10
183051.55
 20
9409807.00
  0
VERTEX
  8
0IMP_DRE
 10
183094.72
 20
9409719.00
  0
VERTEX
  8
0IMP_DRE
 10
183113.16
 20
9409669.00
  0
VERTEX
  8
0IMP_DRE
 10
183175.20
 20
9409625.00
  0
VERTEX
  8
0IMP_DRE
 10
183205.92
 20
9409537.00
  0
VERTEX
  8
0IMP_DRE
 10
183218.14
 20
9409487.00
  0
VERTEX
  8
0IMP_DRE
 10
183267.53
 20
9409400.00
  0
VERTEX
  8
0IMP_DRE
 10
183285.91
 20
9409337.00
  0
VERTEX
  8
0IMP_DRE
 10
183329.25
 20
9409287.00
  0
VERTEX
  8
0IMP_DRE
 10
183372.53
 20
9409224.00
  0
VERTEX
  8
0IMP_DRE
 10
183415.88
 20
9409174.00
  0
VERTEX
  8
0IMP_DRE
 10
183434.31
 20
9409124.00
  0
VERTEX
  8
0IMP_DRE
 10
183477.63
 20
9409067.00
  0
VERTEX
  8
0IMP_DRE
 10
183496.08
 20
9409017.00
  0
VERTEX
  8
0IMP_DRE
 10
183545.58
 20
9408955.00
  0
VERTEX
  8
0IMP_DRE
 10
183582.58
 20
9408879.00
  0
VERTEX
  8
0IMP_DRE
 10
183632.09
 20
9408817.00
  0
VERTEX
  8
0IMP_DRE
 10
183675.31
 20
9408741.00
  0
VERTEX
  8
0IMP_DRE
 10
183724.67
 20
9408647.00
  0
VERTEX
  8
0IMP_DRE
 10
183773.86
 20
9408516.00
  0
VERTEX
  8
0IMP_DRE
 10
183786.08
 20
9408466.00
  0
VERTEX
  8
0IMP_DRE
 10
183823.03
 20
9408378.00
  0
VERTEX
  8
0IMP_DRE
 10
183866.22
 20
9408297.00
  0
VERTEX
  8
0IMP_DRE
 10
183878.30
 20
9408215.00
  0
VERTEX
  8
0IMP_DRE
 10
183933.89
 20
9408121.00
  0
VERTEX
  8
0IMP_DRE
 10
183983.28
 20
9408034.00
  0
VERTEX
  8
0IMP_DRE
 10
184007.92
 20
9407977.00
  0
VERTEX
  8
0IMP_DRE
 10
184038.81
 20
9407927.00
  0
VERTEX
  8
0IMP_DRE
 10
184057.25
 20
9407877.00
  0
VERTEX
  8
0IMP_DRE
 10
184100.59
 20
9407827.00
  0
VERTEX
  8
0IMP_DRE
 10
184137.67
 20
9407770.00
  0
VERTEX
  8
0IMP_DRE
 10
184180.98
 20
9407714.00
  0
VERTEX
  8
0IMP_DRE
 10
184224.28
 20
9407651.00
  0
VERTEX
  8
0IMP_DRE
 10
184267.58
 20
9407595.00
  0
VERTEX
  8
0IMP_DRE
 10
184317.13
 20
9407538.00
  0
VERTEX
  8
0IMP_DRE
 10
184354.20
 20
9407482.00
  0
VERTEX
  8
0IMP_DRE
 10
184397.41
 20
9407400.00
  0
VERTEX
  8
0IMP_DRE
 10
184409.63
 20
9407350.00
  0
VERTEX
  8
0IMP_DRE
 10
184428.00
 20
9407288.00
  0
VERTEX
  8
0IMP_DRE
 10
184458.70
 20
9407194.00
  0
VERTEX
  8
0IMP_DRE
 10
184477.00
 20
9407112.00
  0
VERTEX
  8
0IMP_DRE
 10
184495.27
 20
9407025.00
  0
VERTEX
  8
0IMP_DRE
 10
184513.70
 20
9406975.00
  0
VERTEX
  8
0IMP_DRE
 10
184531.92
 20
9406874.00
  0
VERTEX
  8
0IMP_DRE
 10
184562.70
 20
9406799.00
  0
VERTEX
  8
0IMP_DRE
 10
184581.14
 20
9406749.00
  0
VERTEX
  8
0IMP_DRE
 10
184599.58
 20
9406699.00
  0
VERTEX
  8
0IMP_DRE
 10
184617.91
 20
9406624.00
  0
VERTEX
  8
0IMP_DRE
 10
184667.36
 20
9406549.00
  0
VERTEX
  8
0IMP_DRE
 10
184679.58
 20
9406499.00
  0
VERTEX
  8
0IMP_DRE
 10
184698.02
 20
9406449.00
  0
VERTEX
  8
0IMP_DRE
 10
184728.88
 20
9406392.00
  0
VERTEX
  8
0IMP_DRE
 10
184778.25
 20
9406298.00
  0
VERTEX
  8
0IMP_DRE
 10
184802.70
 20
9406204.00
  0
VERTEX
  8
0IMP_DRE
 10
184852.13
 20
9406123.00
  0
VERTEX
  8
0IMP_DRE
 10
184895.13
 20
9405997.00
  0
VERTEX
  8
0IMP_DRE
 10
184907.31
 20
9405941.00
  0
VERTEX
  8
0IMP_DRE
 10
184950.36
 20
9405828.00
  0
VERTEX
  8
0IMP_DRE
 10
184974.89
 20
9405747.00
  0
VERTEX
  8
0IMP_DRE
 10
185018.06
 20
9405659.00
  0
VERTEX
  8
0IMP_DRE
 10
185067.63
 20
9405609.00
  0
VERTEX
  8
0IMP_DRE
 10
185086.06
 20
9405559.00
  0
VERTEX
  8
0IMP_DRE
 10
185135.56
 20
9405496.00
  0
VERTEX
  8
0IMP_DRE
 10
185203.84
 20
9405452.00
  0
VERTEX
  8
0IMP_DRE
 10
185216.06
 20
9405402.00
  0
VERTEX
  8
0IMP_DRE
 10
185284.44
 20
9405383.00
  0
VERTEX
  8
0IMP_DRE
 10
185340.20
 20
9405327.00
  0
VERTEX
  8
0IMP_DRE
 10
185396.08
 20
9405295.00
  0
VERTEX
  8
0IMP_DRE
 10
185483.05
 20
9405258.00
  0
VERTEX
  8
0IMP_DRE
 10
185538.95
 20
9405232.00
  0
VERTEX
  8
0IMP_DRE
 10
185594.89
 20
9405213.00
  0
VERTEX
  8
0IMP_DRE
 10
185663.22
 20
9405182.00
  0
VERTEX
  8
0IMP_DRE
 10
185719.03
 20
9405138.00
  0
VERTEX
  8
0IMP_DRE
 10
185787.33
 20
9405100.00
  0
VERTEX
  8
0IMP_DRE
 10
185861.84
 20
9405063.00
  0
VERTEX
  8
0IMP_DRE
 10
185923.98
 20
9405037.00
  0
VERTEX
  8
0IMP_DRE
 10
185979.91
 20
9405018.00
  0
VERTEX
  8
0IMP_DRE
 10
186035.88
 20
9405006.00
  0
VERTEX
  8
0IMP_DRE
 10
186091.81
 20
9404987.00
  0
VERTEX
  8
0IMP_DRE
 10
186154.03
 20
9404980.00
  0
VERTEX
  8
0IMP_DRE
 10
186234.83
 20
9404955.00
  0
VERTEX
  8
0IMP_DRE
 10
186321.89
 20
9404936.00
  0
VERTEX
  8
0IMP_DRE
 10
186377.88
 20
9404930.00
  0
VERTEX
  8
0IMP_DRE
 10
186452.58
 20
9404930.00
  0
VERTEX
  8
0IMP_DRE
 10
186521.05
 20
9404929.00
  0
VERTEX
  8
0IMP_DRE
 10
186577.06
 20
9404929.00
  0
VERTEX
  8
0IMP_DRE
 10
186664.17
 20
9404923.00
  0
VERTEX
  8
0IMP_DRE
 10
186738.84
 20
9404916.00
  0
VERTEX
  8
0IMP_DRE
 10
186844.63
 20
9404910.00
  0
VERTEX
  8
0IMP_DRE
 10
186925.48
 20
9404897.00
  0
VERTEX
  8
0IMP_DRE
 10
186993.88
 20
9404878.00
  0
VERTEX
  8
0IMP_DRE
 10
187080.98
 20
9404871.00
  0
VERTEX
  8
0IMP_DRE
 10
187155.56
 20
9404846.00
  0
VERTEX
  8
0IMP_DRE
 10
187236.44
 20
9404833.00
  0
VERTEX
  8
0IMP_DRE
 10
187317.20
 20
9404802.00
  0
VERTEX
  8
0IMP_DRE
 10
187385.44
 20
9404752.00
  0
VERTEX
  8
0IMP_DRE
 10
187453.83
 20
9404733.00
  0
VERTEX
  8
0IMP_DRE
 10
187515.98
 20
9404714.00
  0
VERTEX
  8
0IMP_DRE
 10
187578.14
 20
9404695.00
  0
VERTEX
  8
0IMP_DRE
 10
187659.03
 20
9404688.00
  0
VERTEX
  8
0IMP_DRE
 10
187746.17
 20
9404688.00
  0
VERTEX
  8
0IMP_DRE
 10
187827.06
 20
9404682.00
  0
VERTEX
  8
0IMP_DRE
 10
187895.48
 20
9404669.00
  0
VERTEX
  8
0IMP_DRE
 10
187982.56
 20
9404656.00
  0
VERTEX
  8
0IMP_DRE
 10
188075.84
 20
9404637.00
  0
VERTEX
  8
0IMP_DRE
 10
188150.48
 20
9404624.00
  0
VERTEX
  8
0IMP_DRE
 10
188224.98
 20
9404580.00
  0
VERTEX
  8
0IMP_DRE
 10
188262.09
 20
9404530.00
  0
VERTEX
  8
0IMP_DRE
 10
188336.73
 20
9404518.00
  0
VERTEX
  8
0IMP_DRE
 10
188423.64
 20
9404467.00
  0
VERTEX
  8
0IMP_DRE
 10
188498.25
 20
9404448.00
  0
VERTEX
  8
0IMP_DRE
 10
188572.83
 20
9404423.00
  0
VERTEX
  8
0IMP_DRE
 10
188628.80
 20
9404410.00
  0
VERTEX
  8
0IMP_DRE
 10
188690.98
 20
9404398.00
  0
VERTEX
  8
0IMP_DRE
 10
188765.67
 20
9404398.00
  0
VERTEX
  8
0IMP_DRE
 10
188846.59
 20
9404397.00
  0
SEQEND
  8
0IMP_DRE
  0
POLYLINE
  8
0IMP_DRE
 66
     1
  0
VERTEX
  8
0IMP_DRE
 10
197005.17
 20
9403987.00
  0
VERTEX
  8
0IMP_DRE
 10
197004.94
 20
9403937.00
  0
VERTEX
  8
0IMP_DRE
 10
196954.91
 20
9403887.00
  0
VERTEX
  8
0IMP_DRE
 10
196898.83
 20
9403874.00
  0
VERTEX
  8
0IMP_DRE
 10
196842.81
 20
9403875.00
  0
VERTEX
  8
0IMP_DRE
 10
196755.67
 20
9403875.00
  0
VERTEX
  8
0IMP_DRE
 10
196662.42
 20
9403900.00
  0
VERTEX
  8
0IMP_DRE
 10
196600.38
 20
9403944.00
  0
VERTEX
  8
0IMP_DRE
 10
196525.91
 20
9403994.00
  0
VERTEX
  8
0IMP_DRE
 10
196470.09
 20
9404038.00
  0
VERTEX
  8
0IMP_DRE
 10
196408.02
 20
9404076.00
  0
VERTEX
  8
0IMP_DRE
 10
196352.23
 20
9404126.00
  0
VERTEX
  8
0IMP_DRE
 10
196315.11
 20
9404176.00
  0
VERTEX
  8
0IMP_DRE
 10
196296.70
 20
9404233.00
  0
VERTEX
  8
0IMP_DRE
 10
196290.70
 20
9404283.00
  0
VERTEX
  8
0IMP_DRE
 10
196340.73
 20
9404333.00
  0
VERTEX
  8
0IMP_DRE
 10
196396.75
 20
9404333.00
  0
VERTEX
  8
0IMP_DRE
 10
196446.31
 20
9404282.00
  0
VERTEX
  8
0IMP_DRE
 10
196502.14
 20
9404239.00
  0
VERTEX
  8
0IMP_DRE
 10
196558.05
 20
9404213.00
  0
VERTEX
  8
0IMP_DRE
 10
196620.14
 20
9404182.00
  0
VERTEX
  8
0IMP_DRE
 10
196682.30
 20
9404163.00
  0
VERTEX
  8
0IMP_DRE
 10
196738.30
 20
9404157.00
  0
VERTEX
  8
0IMP_DRE
 10
196794.28
 20
9404150.00
  0
VERTEX
  8
0IMP_DRE
 10
196850.25
 20
9404137.00
  0
VERTEX
  8
0IMP_DRE
 10
196906.22
 20
9404125.00
  0
VERTEX
  8
0IMP_DRE
 10
196955.75
 20
9404068.00
  0
VERTEX
  8
0IMP_DRE
 10
197005.17
 20
9403987.00
  0
SEQEND
  8
0IMP_DRE
  0
POLYLINE
  8
0IMP_DRE
 66
     1
  0
VERTEX
  8
0IMP_DRE
 10
199918.77
 20
9402740.00
  0
VERTEX
  8
0IMP_DRE
 10
199856.52
 20
9402740.00
  0
VERTEX
  8
0IMP_DRE
 10
199800.52
 20
9402746.00
  0
VERTEX
  8
0IMP_DRE
 10
199738.48
 20
9402790.00
  0
VERTEX
  8
0IMP_DRE
 10
199682.55
 20
9402809.00
  0
VERTEX
  8
0IMP_DRE
 10
199620.39
 20
9402828.00
  0
VERTEX
  8
0IMP_DRE
 10
199564.42
 20
9402841.00
  0
VERTEX
  8
0IMP_DRE
 10
199508.55
 20
9402872.00
  0
VERTEX
  8
0IMP_DRE
 10
199477.66
 20
9402923.00
  0
VERTEX
  8
0IMP_DRE
 10
199465.44
 20
9402973.00
  0
VERTEX
  8
0IMP_DRE
 10
199478.11
 20
9403023.00
  0
VERTEX
  8
0IMP_DRE
 10
199534.22
 20
9403041.00
  0
VERTEX
  8
0IMP_DRE
 10
199590.25
 20
9403041.00
  0
VERTEX
  8
0IMP_DRE
 10
199646.27
 20
9403041.00
  0
VERTEX
  8
0IMP_DRE
 10
199702.27
 20
9403035.00
  0
VERTEX
  8
0IMP_DRE
 10
199758.16
 20
9403009.00
  0
VERTEX
  8
0IMP_DRE
 10
199814.09
 20
9402990.00
  0
VERTEX
  8
0IMP_DRE
 10
199870.09
 20
9402984.00
  0
VERTEX
  8
0IMP_DRE
 10
199926.08
 20
9402978.00
  0
VERTEX
  8
0IMP_DRE
 10
199982.11
 20
9402977.00
  0
VERTEX
  8
0IMP_DRE
 10
200038.13
 20
9402977.00
  0
VERTEX
  8
0IMP_DRE
 10
200094.09
 20
9402965.00
  0
VERTEX
  8
0IMP_DRE
 10
200143.66
 20
9402914.00
  0
VERTEX
  8
0IMP_DRE
 10
200174.55
 20
9402864.00
  0
VERTEX
  8
0IMP_DRE
 10
200192.95
 20
9402808.00
  0
VERTEX
  8
0IMP_DRE
 10
200198.95
 20
9402758.00
  0
VERTEX
  8
0IMP_DRE
 10
200136.50
 20
9402714.00
  0
VERTEX
  8
0IMP_DRE
 10
200080.48
 20
9402714.00
  0
VERTEX
  8
0IMP_DRE
 10
200024.47
 20
9402715.00
  0
VERTEX
  8
0IMP_DRE
 10
199918.77
 20
9402740.00
  0
SEQEND
  8
0IMP_DRE
  0
POLYLINE
  8
0IMP_DRE
 66
     1
  0
VERTEX
  8
0IMP_DRE
 10
213968.03
 20
9394717.00
  0
VERTEX
  8
0IMP_DRE
 10
213880.95
 20
9394730.00
  0
VERTEX
  8
0IMP_DRE
 10
213824.95
 20
9394736.00
  0
VERTEX
  8
0IMP_DRE
 10
213769.02
 20
9394755.00
  0
VERTEX
  8
0IMP_DRE
 10
213706.86
 20
9394774.00
  0
VERTEX
  8
0IMP_DRE
 10
213644.73
 20
9394799.00
  0
VERTEX
  8
0IMP_DRE
 10
213582.64
 20
9394831.00
  0
VERTEX
  8
0IMP_DRE
 10
213489.44
 20
9394869.00
  0
VERTEX
  8
0IMP_DRE
 10
213408.72
 20
9394913.00
  0
VERTEX
  8
0IMP_DRE
 10
213346.55
 20
9394925.00
  0
VERTEX
  8
0IMP_DRE
 10
213290.52
 20
9394925.00
  0
VERTEX
  8
0IMP_DRE
 10
213234.50
 20
9394926.00
  0
VERTEX
  8
0IMP_DRE
 10
213172.25
 20
9394926.00
  0
VERTEX
  8
0IMP_DRE
 10
213078.88
 20
9394926.00
  0
VERTEX
  8
0IMP_DRE
 10
212979.34
 20
9394939.00
  0
VERTEX
  8
0IMP_DRE
 10
212879.84
 20
9394958.00
  0
VERTEX
  8
0IMP_DRE
 10
212805.23
 20
9394977.00
  0
VERTEX
  8
0IMP_DRE
 10
212711.95
 20
9394996.00
  0
VERTEX
  8
0IMP_DRE
 10
212618.72
 20
9395027.00
  0
VERTEX
  8
0IMP_DRE
 10
212562.81
 20
9395053.00
  0
VERTEX
  8
0IMP_DRE
 10
212506.97
 20
9395090.00
  0
VERTEX
  8
0IMP_DRE
 10
212451.09
 20
9395122.00
  0
VERTEX
  8
0IMP_DRE
 10
212364.09
 20
9395153.00
  0
VERTEX
  8
0IMP_DRE
 10
212302.03
 20
9395191.00
  0
VERTEX
  8
0IMP_DRE
 10
212239.92
 20
9395222.00
  0
VERTEX
  8
0IMP_DRE
 10
212159.09
 20
9395241.00
  0
VERTEX
  8
0IMP_DRE
 10
212103.13
 20
9395254.00
  0
VERTEX
  8
0IMP_DRE
 10
212047.17
 20
9395267.00
  0
VERTEX
  8
0IMP_DRE
 10
211991.17
 20
9395273.00
  0
VERTEX
  8
0IMP_DRE
 10
211935.19
 20
9395280.00
  0
VERTEX
  8
0IMP_DRE
 10
211848.06
 20
9395286.00
  0
VERTEX
  8
0IMP_DRE
 10
211792.05
 20
9395286.00
  0
VERTEX
  8
0IMP_DRE
 10
211704.92
 20
9395293.00
  0
VERTEX
  8
0IMP_DRE
 10
211611.56
 20
9395293.00
  0
VERTEX
  8
0IMP_DRE
 10
211524.45
 20
9395300.00
  0
VERTEX
  8
0IMP_DRE
 10
211462.27
 20
9395312.00
  0
VERTEX
  8
0IMP_DRE
 10
211375.13
 20
9395312.00
  0
VERTEX
  8
0IMP_DRE
 10
211319.11
 20
9395313.00
  0
VERTEX
  8
0IMP_DRE
 10
211225.75
 20
9395319.00
  0
VERTEX
  8
0IMP_DRE
 10
211132.48
 20
9395338.00
  0
VERTEX
  8
0IMP_DRE
 10
211076.52
 20
9395351.00
  0
VERTEX
  8
0IMP_DRE
 10
211014.39
 20
9395376.00
  0
VERTEX
  8
0IMP_DRE
 10
210933.58
 20
9395401.00
  0
VERTEX
  8
0IMP_DRE
 10
210877.59
 20
9395408.00
  0
VERTEX
  8
0IMP_DRE
 10
210821.69
 20
9395433.00
  0
VERTEX
  8
0IMP_DRE
 10
210759.53
 20
9395452.00
  0
VERTEX
  8
0IMP_DRE
 10
210678.69
 20
9395471.00
  0
VERTEX
  8
0IMP_DRE
 10
210610.34
 20
9395496.00
  0
VERTEX
  8
0IMP_DRE
 10
210541.95
 20
9395515.00
  0
VERTEX
  8
0IMP_DRE
 10
210454.92
 20
9395540.00
  0
VERTEX
  8
0IMP_DRE
 10
210367.84
 20
9395553.00
  0
VERTEX
  8
0IMP_DRE
 10
210286.98
 20
9395566.00
  0
VERTEX
  8
0IMP_DRE
 10
210212.34
 20
9395578.00
  0
VERTEX
  8
0IMP_DRE
 10
210119.06
 20
9395598.00
  0
VERTEX
  8
0IMP_DRE
 10
210025.81
 20
9395623.00
  0
VERTEX
  8
0IMP_DRE
 10
209963.69
 20
9395648.00
  0
VERTEX
  8
0IMP_DRE
 10
209876.63
 20
9395667.00
  0
VERTEX
  8
0IMP_DRE
 10
209814.55
 20
9395705.00
  0
VERTEX
  8
0IMP_DRE
 10
209721.33
 20
9395736.00
  0
VERTEX
  8
0IMP_DRE
 10
209653.03
 20
9395774.00
  0
VERTEX
  8
0IMP_DRE
 10
209591.05
 20
9395830.00
  0
VERTEX
  8
0IMP_DRE
 10
209535.23
 20
9395874.00
  0
VERTEX
  8
0IMP_DRE
 10
209485.66
 20
9395925.00
  0
VERTEX
  8
0IMP_DRE
 10
209417.45
 20
9395981.00
  0
VERTEX
  8
0IMP_DRE
 10
209399.03
 20
9396037.00
  0
VERTEX
  8
0IMP_DRE
 10
209305.89
 20
9396088.00
  0
VERTEX
  8
0IMP_DRE
 10
209250.00
 20
9396113.00
  0
VERTEX
  8
0IMP_DRE
 10
209187.95
 20
9396157.00
  0
VERTEX
  8
0IMP_DRE
 10
209107.16
 20
9396182.00
  0
VERTEX
  8
0IMP_DRE
 10
209020.20
 20
9396226.00
  0
VERTEX
  8
0IMP_DRE
 10
208970.67
 20
9396283.00
  0
VERTEX
  8
0IMP_DRE
 10
208877.50
 20
9396327.00
  0
VERTEX
  8
0IMP_DRE
 10
208827.97
 20
9396383.00
  0
VERTEX
  8
0IMP_DRE
 10
208772.03
 20
9396402.00
  0
VERTEX
  8
0IMP_DRE
 10
208685.00
 20
9396427.00
  0
VERTEX
  8
0IMP_DRE
 10
208591.78
 20
9396459.00
  0
VERTEX
  8
0IMP_DRE
 10
208529.69
 20
9396490.00
  0
VERTEX
  8
0IMP_DRE
 10
208473.78
 20
9396516.00
  0
VERTEX
  8
0IMP_DRE
 10
208417.88
 20
9396541.00
  0
VERTEX
  8
0IMP_DRE
 10
208337.09
 20
9396572.00
  0
VERTEX
  8
0IMP_DRE
 10
208281.36
 20
9396635.00
  0
VERTEX
  8
0IMP_DRE
 10
208231.80
 20
9396685.00
  0
VERTEX
  8
0IMP_DRE
 10
208182.23
 20
9396735.00
  0
VERTEX
  8
0IMP_DRE
 10
208126.45
 20
9396786.00
  0
VERTEX
  8
0IMP_DRE
 10
208108.00
 20
9396836.00
  0
VERTEX
  8
0IMP_DRE
 10
208052.03
 20
9396848.00
  0
VERTEX
  8
0IMP_DRE
 10
208002.47
 20
9396899.00
  0
VERTEX
  8
0IMP_DRE
 10
207953.09
 20
9396986.00
  0
VERTEX
  8
0IMP_DRE
 10
207866.14
 20
9397030.00
  0
VERTEX
  8
0IMP_DRE
 10
207822.94
 20
9397112.00
  0
VERTEX
  8
0IMP_DRE
 10
207767.27
 20
9397187.00
  0
VERTEX
  8
0IMP_DRE
 10
207724.02
 20
9397256.00
  0
VERTEX
  8
0IMP_DRE
 10
207680.80
 20
9397331.00
  0
VERTEX
  8
0IMP_DRE
 10
207637.48
 20
9397388.00
  0
VERTEX
  8
0IMP_DRE
 10
207594.14
 20
9397438.00
  0
VERTEX
  8
0IMP_DRE
 10
207550.80
 20
9397488.00
  0
VERTEX
  8
0IMP_DRE
 10
207495.00
 20
9397538.00
  0
VERTEX
  8
0IMP_DRE
 10
207445.44
 20
9397588.00
  0
VERTEX
  8
0IMP_DRE
 10
207395.88
 20
9397639.00
  0
VERTEX
  8
0IMP_DRE
 10
207333.89
 20
9397695.00
  0
VERTEX
  8
0IMP_DRE
 10
207278.09
 20
9397745.00
  0
VERTEX
  8
0IMP_DRE
 10
207222.20
 20
9397770.00
  0
VERTEX
  8
0IMP_DRE
 10
207160.16
 20
9397814.00
  0
VERTEX
  8
0IMP_DRE
 10
207104.34
 20
9397858.00
  0
VERTEX
  8
0IMP_DRE
 10
207048.52
 20
9397902.00
  0
VERTEX
  8
0IMP_DRE
 10
206955.31
 20
9397940.00
  0
VERTEX
  8
0IMP_DRE
 10
206880.89
 20
9397997.00
  0
VERTEX
  8
0IMP_DRE
 10
206825.02
 20
9398028.00
  0
VERTEX
  8
0IMP_DRE
 10
206731.94
 20
9398091.00
  0
VERTEX
  8
0IMP_DRE
 10
206657.31
 20
9398110.00
  0
VERTEX
  8
0IMP_DRE
 10
206582.86
 20
9398160.00
  0
VERTEX
  8
0IMP_DRE
 10
206526.98
 20
9398192.00
  0
VERTEX
  8
0IMP_DRE
 10
206440.05
 20
9398236.00
  0
VERTEX
  8
0IMP_DRE
 10
206359.44
 20
9398305.00
  0
VERTEX
  8
0IMP_DRE
 10
206303.59
 20
9398342.00
  0
VERTEX
  8
0IMP_DRE
 10
206216.69
 20
9398393.00
  0
VERTEX
  8
0IMP_DRE
 10
206167.11
 20
9398443.00
  0
VERTEX
  8
0IMP_DRE
 10
206111.42
 20
9398512.00
  0
VERTEX
  8
0IMP_DRE
 10
206018.30
 20
9398568.00
  0
VERTEX
  8
0IMP_DRE
 10
205937.53
 20
9398600.00
  0
VERTEX
  8
0IMP_DRE
 10
205875.55
 20
9398656.00
  0
VERTEX
  8
0IMP_DRE
 10
205782.38
 20
9398700.00
  0
VERTEX
  8
0IMP_DRE
 10
205695.48
 20
9398757.00
  0
VERTEX
  8
0IMP_DRE
 10
205639.70
 20
9398807.00
  0
VERTEX
  8
0IMP_DRE
 10
205552.67
 20
9398832.00
  0
VERTEX
  8
0IMP_DRE
 10
205471.91
 20
9398864.00
  0
VERTEX
  8
0IMP_DRE
 10
205397.47
 20
9398920.00
  0
VERTEX
  8
0IMP_DRE
 10
205322.80
 20
9398927.00
  0
VERTEX
  8
0IMP_DRE
 10
205266.88
 20
9398946.00
  0
VERTEX
  8
0IMP_DRE
 10
205192.38
 20
9398990.00
  0
VERTEX
  8
0IMP_DRE
 10
205105.48
 20
9399046.00
  0
VERTEX
  8
0IMP_DRE
 10
205012.20
 20
9399065.00
  0
VERTEX
  8
0IMP_DRE
 10
204925.45
 20
9399147.00
  0
VERTEX
  8
0IMP_DRE
 10
204869.53
 20
9399172.00
  0
VERTEX
  8
0IMP_DRE
 10
204770.17
 20
9399223.00
  0
VERTEX
  8
0IMP_DRE
 10
204720.61
 20
9399273.00
  0
VERTEX
  8
0IMP_DRE
 10
204633.67
 20
9399317.00
  0
VERTEX
  8
0IMP_DRE
 10
204553.05
 20
9399380.00
  0
VERTEX
  8
0IMP_DRE
 10
204503.47
 20
9399430.00
  0
VERTEX
  8
0IMP_DRE
 10
204447.72
 20
9399486.00
  0
VERTEX
  8
0IMP_DRE
 10
204354.72
 20
9399568.00
  0
VERTEX
  8
0IMP_DRE
 10
204298.91
 20
9399612.00
  0
VERTEX
  8
0IMP_DRE
 10
204218.22
 20
9399662.00
  0
VERTEX
  8
0IMP_DRE
 10
204137.64
 20
9399737.00
  0
VERTEX
  8
0IMP_DRE
 10
204057.03
 20
9399806.00
  0
VERTEX
  8
0IMP_DRE
 10
203982.75
 20
9399894.00
  0
VERTEX
  8
0IMP_DRE
 10
203895.92
 20
9399963.00
  0
VERTEX
  8
0IMP_DRE
 10
203840.11
 20
9400007.00
  0
VERTEX
  8
0IMP_DRE
 10
203790.53
 20
9400057.00
  0
VERTEX
  8
0IMP_DRE
 10
203697.42
 20
9400114.00
  0
VERTEX
  8
0IMP_DRE
 10
203678.98
 20
9400164.00
  0
VERTEX
  8
0IMP_DRE
 10
203592.02
 20
9400202.00
  0
VERTEX
  8
0IMP_DRE
 10
203536.23
 20
9400252.00
  0
VERTEX
  8
0IMP_DRE
 10
203474.22
 20
9400302.00
  0
VERTEX
  8
0IMP_DRE
 10
203412.17
 20
9400346.00
  0
VERTEX
  8
0IMP_DRE
 10
203356.33
 20
9400384.00
  0
VERTEX
  8
0IMP_DRE
 10
203287.97
 20
9400409.00
  0
VERTEX
  8
0IMP_DRE
 10
203225.92
 20
9400453.00
  0
VERTEX
  8
0IMP_DRE
 10
203145.20
 20
9400497.00
  0
VERTEX
  8
0IMP_DRE
 10
203083.11
 20
9400529.00
  0
VERTEX
  8
0IMP_DRE
 10
203027.23
 20
9400560.00
  0
VERTEX
  8
0IMP_DRE
 10
202946.42
 20
9400585.00
  0
VERTEX
  8
0IMP_DRE
 10
202884.27
 20
9400604.00
  0
VERTEX
  8
0IMP_DRE
 10
202797.22
 20
9400623.00
  0
VERTEX
  8
0IMP_DRE
 10
202741.31
 20
9400649.00
  0
VERTEX
  8
0IMP_DRE
 10
202654.25
 20
9400668.00
  0
VERTEX
  8
0IMP_DRE
 10
202554.80
 20
9400699.00
  0
VERTEX
  8
0IMP_DRE
 10
202467.78
 20
9400724.00
  0
VERTEX
  8
0IMP_DRE
 10
202380.75
 20
9400750.00
  0
VERTEX
  8
0IMP_DRE
 10
202299.94
 20
9400775.00
  0
VERTEX
  8
0IMP_DRE
 10
202213.00
 20
9400819.00
  0
VERTEX
  8
0IMP_DRE
 10
202126.00
 20
9400850.00
  0
VERTEX
  8
0IMP_DRE
 10
202032.98
 20
9400926.00
  0
VERTEX
  8
0IMP_DRE
 10
201945.98
 20
9400957.00
  0
VERTEX
  8
0IMP_DRE
 10
201859.16
 20
9401026.00
  0
VERTEX
  8
0IMP_DRE
 10
201772.25
 20
9401077.00
  0
VERTEX
  8
0IMP_DRE
 10
201679.08
 20
9401121.00
  0
VERTEX
  8
0IMP_DRE
 10
201585.83
 20
9401146.00
  0
VERTEX
  8
0IMP_DRE
 10
201480.27
 20
9401203.00
  0
VERTEX
  8
0IMP_DRE
 10
201424.33
 20
9401222.00
  0
VERTEX
  8
0IMP_DRE
 10
201343.56
 20
9401253.00
  0
VERTEX
  8
0IMP_DRE
 10
201287.73
 20
9401297.00
  0
VERTEX
  8
0IMP_DRE
 10
201206.97
 20
9401329.00
  0
VERTEX
  8
0IMP_DRE
 10
201113.80
 20
9401373.00
  0
VERTEX
  8
0IMP_DRE
 10
201051.75
 20
9401417.00
  0
VERTEX
  8
0IMP_DRE
 10
200995.88
 20
9401448.00
  0
VERTEX
  8
0IMP_DRE
 10
200915.11
 20
9401479.00
  0
VERTEX
  8
0IMP_DRE
 10
200859.27
 20
9401517.00
  0
VERTEX
  8
0IMP_DRE
 10
200803.36
 20
9401542.00
  0
VERTEX
  8
0IMP_DRE
 10
200747.42
 20
9401561.00
  0
VERTEX
  8
0IMP_DRE
 10
200691.56
 20
9401599.00
  0
VERTEX
  8
0IMP_DRE
 10
200629.47
 20
9401630.00
  0
VERTEX
  8
0IMP_DRE
 10
200548.70
 20
9401662.00
  0
VERTEX
  8
0IMP_DRE
 10
200455.47
 20
9401693.00
  0
VERTEX
  8
0IMP_DRE
 10
200380.98
 20
9401738.00
  0
VERTEX
  8
0IMP_DRE
 10
200325.11
 20
9401769.00
  0
VERTEX
  8
0IMP_DRE
 10
200269.28
 20
9401813.00
  0
VERTEX
  8
0IMP_DRE
 10
200213.50
 20
9401863.00
  0
VERTEX
  8
0IMP_DRE
 10
200151.39
 20
9401895.00
  0
VERTEX
  8
0IMP_DRE
 10
200089.30
 20
9401926.00
  0
VERTEX
  8
0IMP_DRE
 10
200021.06
 20
9401976.00
  0
VERTEX
  8
0IMP_DRE
 10
199952.84
 20
9402033.00
  0
VERTEX
  8
0IMP_DRE
 10
199915.75
 20
9402089.00
  0
VERTEX
  8
0IMP_DRE
 10
199866.19
 20
9402139.00
  0
VERTEX
  8
0IMP_DRE
 10
199841.53
 20
9402189.00
  0
VERTEX
  8
0IMP_DRE
 10
199779.66
 20
9402271.00
  0
VERTEX
  8
0IMP_DRE
 10
199717.69
 20
9402334.00
  0
VERTEX
  8
0IMP_DRE
 10
199661.80
 20
9402359.00
  0
VERTEX
  8
0IMP_DRE
 10
199587.22
 20
9402384.00
  0
VERTEX
  8
0IMP_DRE
 10
199531.34
 20
9402416.00
  0
VERTEX
  8
0IMP_DRE
 10
199475.42
 20
9402441.00
  0
VERTEX
  8
0IMP_DRE
 10
199388.38
 20
9402460.00
  0
VERTEX
  8
0IMP_DRE
 10
199307.58
 20
9402485.00
  0
VERTEX
  8
0IMP_DRE
 10
199232.97
 20
9402504.00
  0
VERTEX
  8
0IMP_DRE
 10
199158.33
 20
9402517.00
  0
VERTEX
  8
0IMP_DRE
 10
199083.69
 20
9402529.00
  0
VERTEX
  8
0IMP_DRE
 10
198990.38
 20
9402542.00
  0
VERTEX
  8
0IMP_DRE
 10
198897.05
 20
9402549.00
  0
VERTEX
  8
0IMP_DRE
 10
198841.08
 20
9402561.00
  0
VERTEX
  8
0IMP_DRE
 10
198778.89
 20
9402574.00
  0
VERTEX
  8
0IMP_DRE
 10
198685.61
 20
9402593.00
  0
VERTEX
  8
0IMP_DRE
 10
198629.64
 20
9402606.00
  0
VERTEX
  8
0IMP_DRE
 10
198573.70
 20
9402625.00
  0
VERTEX
  8
0IMP_DRE
 10
198517.75
 20
9402637.00
  0
VERTEX
  8
0IMP_DRE
 10
198436.89
 20
9402650.00
  0
VERTEX
  8
0IMP_DRE
 10
198349.86
 20
9402675.00
  0
VERTEX
  8
0IMP_DRE
 10
198287.70
 20
9402694.00
  0
VERTEX
  8
0IMP_DRE
 10
198225.55
 20
9402713.00
  0
VERTEX
  8
0IMP_DRE
 10
198138.56
 20
9402751.00
  0
VERTEX
  8
0IMP_DRE
 10
198082.69
 20
9402783.00
  0
VERTEX
  8
0IMP_DRE
 10
198026.77
 20
9402801.00
  0
VERTEX
  8
0IMP_DRE
 10
197939.77
 20
9402833.00
  0
VERTEX
  8
0IMP_DRE
 10
197852.88
 20
9402890.00
  0
VERTEX
  8
0IMP_DRE
 10
197778.44
 20
9402946.00
  0
VERTEX
  8
0IMP_DRE
 10
197735.09
 20
9402996.00
  0
VERTEX
  8
0IMP_DRE
 10
197679.25
 20
9403034.00
  0
VERTEX
  8
0IMP_DRE
 10
197623.34
 20
9403059.00
  0
VERTEX
  8
0IMP_DRE
 10
197561.22
 20
9403084.00
  0
VERTEX
  8
0IMP_DRE
 10
197505.34
 20
9403116.00
  0
VERTEX
  8
0IMP_DRE
 10
197449.44
 20
9403141.00
  0
VERTEX
  8
0IMP_DRE
 10
197368.64
 20
9403166.00
  0
VERTEX
  8
0IMP_DRE
 10
197306.63
 20
9403216.00
  0
VERTEX
  8
0IMP_DRE
 10
197244.52
 20
9403248.00
  0
VERTEX
  8
0IMP_DRE
 10
197151.47
 20
9403317.00
  0
VERTEX
  8
0IMP_DRE
 10
197083.17
 20
9403355.00
  0
VERTEX
  8
0IMP_DRE
 10
197027.39
 20
9403405.00
  0
VERTEX
  8
0IMP_DRE
 10
196984.13
 20
9403474.00
  0
VERTEX
  8
0IMP_DRE
 10
196903.41
 20
9403518.00
  0
VERTEX
  8
0IMP_DRE
 10
196847.59
 20
9403562.00
  0
VERTEX
  8
0IMP_DRE
 10
196785.61
 20
9403618.00
  0
VERTEX
  8
0IMP_DRE
 10
196729.61
 20
9403625.00
  0
VERTEX
  8
0IMP_DRE
 10
196624.00
 20
9403669.00
  0
VERTEX
  8
0IMP_DRE
 10
196561.95
 20
9403713.00
  0
VERTEX
  8
0IMP_DRE
 10
196499.83
 20
9403738.00
  0
VERTEX
  8
0IMP_DRE
 10
196431.53
 20
9403776.00
  0
VERTEX
  8
0IMP_DRE
 10
196375.63
 20
9403801.00
  0
VERTEX
  8
0IMP_DRE
 10
196319.81
 20
9403845.00
  0
VERTEX
  8
0IMP_DRE
 10
196251.59
 20
9403901.00
  0
VERTEX
  8
0IMP_DRE
 10
196214.48
 20
9403951.00
  0
VERTEX
  8
0IMP_DRE
 10
196127.56
 20
9404002.00
  0
VERTEX
  8
0IMP_DRE
 10
196071.69
 20
9404033.00
  0
VERTEX
  8
0IMP_DRE
 10
196022.16
 20
9404090.00
  0
VERTEX
  8
0IMP_DRE
 10
195972.59
 20
9404140.00
  0
VERTEX
  8
0IMP_DRE
 10
195910.61
 20
9404196.00
  0
VERTEX
  8
0IMP_DRE
 10
195861.06
 20
9404253.00
  0
VERTEX
  8
0IMP_DRE
 10
195798.91
 20
9404272.00
  0
VERTEX
  8
0IMP_DRE
 10
195736.95
 20
9404334.00
  0
VERTEX
  8
0IMP_DRE
 10
195675.06
 20
9404410.00
  0
VERTEX
  8
0IMP_DRE
 10
195588.00
 20
9404429.00
  0
VERTEX
  8
0IMP_DRE
 10
195507.22
 20
9404460.00
  0
VERTEX
  8
0IMP_DRE
 10
195414.03
 20
9404498.00
  0
VERTEX
  8
0IMP_DRE
 10
195326.97
 20
9404517.00
  0
VERTEX
  8
0IMP_DRE
 10
195240.09
 20
9404574.00
  0
VERTEX
  8
0IMP_DRE
 10
195159.17
 20
9404574.00
  0
VERTEX
  8
0IMP_DRE
 10
195078.39
 20
9404605.00
  0
VERTEX
  8
0IMP_DRE
 10
194997.56
 20
9404624.00
  0
VERTEX
  8
0IMP_DRE
 10
194916.70
 20
9404637.00
  0
VERTEX
  8
0IMP_DRE
 10
194835.84
 20
9404650.00
  0
VERTEX
  8
0IMP_DRE
 10
194761.20
 20
9404663.00
  0
VERTEX
  8
0IMP_DRE
 10
194680.31
 20
9404669.00
  0
VERTEX
  8
0IMP_DRE
 10
194605.64
 20
9404675.00
  0
VERTEX
  8
0IMP_DRE
 10
194524.73
 20
9404676.00
  0
VERTEX
  8
0IMP_DRE
 10
194443.84
 20
9404682.00
  0
VERTEX
  8
0IMP_DRE
 10
194356.69
 20
9404682.00
  0
VERTEX
  8
0IMP_DRE
 10
194300.70
 20
9404689.00
  0
VERTEX
  8
0IMP_DRE
 10
194201.17
 20
9404702.00
  0
VERTEX
  8
0IMP_DRE
 10
194114.14
 20
9404727.00
  0
VERTEX
  8
0IMP_DRE
 10
194027.08
 20
9404746.00
  0
VERTEX
  8
0IMP_DRE
 10
193933.83
 20
9404771.00
  0
VERTEX
  8
0IMP_DRE
 10
193846.75
 20
9404784.00
  0
VERTEX
  8
0IMP_DRE
 10
193747.27
 20
9404809.00
  0
VERTEX
  8
0IMP_DRE
 10
193672.72
 20
9404841.00
  0
VERTEX
  8
0IMP_DRE
 10
193616.72
 20
9404847.00
  0
VERTEX
  8
0IMP_DRE
 10
193529.64
 20
9404860.00
  0
VERTEX
  8
0IMP_DRE
 10
193467.42
 20
9404866.00
  0
VERTEX
  8
0IMP_DRE
 10
193386.50
 20
9404867.00
  0
VERTEX
  8
0IMP_DRE
 10
193305.58
 20
9404867.00
  0
VERTEX
  8
0IMP_DRE
 10
193218.44
 20
9404867.00
  0
VERTEX
  8
0IMP_DRE
 10
193131.19
 20
9404842.00
  0
VERTEX
  8
0IMP_DRE
 10
193019.08
 20
9404830.00
  0
VERTEX
  8
0IMP_DRE
 10
192956.78
 20
9404818.00
  0
VERTEX
  8
0IMP_DRE
 10
192838.42
 20
9404799.00
  0
VERTEX
  8
0IMP_DRE
 10
192782.33
 20
9404781.00
  0
VERTEX
  8
0IMP_DRE
 10
192676.33
 20
9404743.00
  0
VERTEX
  8
0IMP_DRE
 10
192620.08
 20
9404693.00
  0
VERTEX
  8
0IMP_DRE
 10
192520.22
 20
9404637.00
  0
VERTEX
  8
0IMP_DRE
 10
192433.00
 20
9404619.00
  0
VERTEX
  8
0IMP_DRE
 10
192339.42
 20
9404575.00
  0
VERTEX
  8
0IMP_DRE
 10
192283.27
 20
9404544.00
  0
VERTEX
  8
0IMP_DRE
 10
192189.66
 20
9404494.00
  0
VERTEX
  8
0IMP_DRE
 10
192114.73
 20
9404445.00
  0
VERTEX
  8
0IMP_DRE
 10
192008.63
 20
9404382.00
  0
VERTEX
  8
0IMP_DRE
 10
191921.28
 20
9404339.00
  0
VERTEX
  8
0IMP_DRE
 10
191790.36
 20
9404295.00
  0
VERTEX
  8
0IMP_DRE
 10
191715.61
 20
9404283.00
  0
VERTEX
  8
0IMP_DRE
 10
191584.70
 20
9404240.00
  0
VERTEX
  8
0IMP_DRE
 10
191522.39
 20
9404227.00
  0
VERTEX
  8
0IMP_DRE
 10
191403.95
 20
9404190.00
  0
VERTEX
  8
0IMP_DRE
 10
191347.84
 20
9404171.00
  0
VERTEX
  8
0IMP_DRE
 10
191241.86
 20
9404134.00
  0
VERTEX
  8
0IMP_DRE
 10
191148.22
 20
9404078.00
  0
VERTEX
  8
0IMP_DRE
 10
191067.25
 20
9404066.00
  0
VERTEX
  8
0IMP_DRE
 10
190986.19
 20
9404035.00
  0
VERTEX
  8
0IMP_DRE
 10
190930.05
 20
9404010.00
  0
VERTEX
  8
0IMP_DRE
 10
190842.80
 20
9403985.00
  0
VERTEX
  8
0IMP_DRE
 10
190786.72
 20
9403973.00
  0
VERTEX
  8
0IMP_DRE
 10
190730.61
 20
9403954.00
  0
VERTEX
  8
0IMP_DRE
 10
190618.48
 20
9403936.00
  0
VERTEX
  8
0IMP_DRE
 10
190512.61
 20
9403923.00
  0
VERTEX
  8
0IMP_DRE
 10
190400.53
 20
9403917.00
  0
VERTEX
  8
0IMP_DRE
 10
190344.48
 20
9403911.00
  0
VERTEX
  8
0IMP_DRE
 10
190244.83
 20
9403899.00
  0
VERTEX
  8
0IMP_DRE
 10
190138.98
 20
9403893.00
  0
VERTEX
  8
0IMP_DRE
 10
190039.33
 20
9403881.00
  0
VERTEX
  8
0IMP_DRE
 10
189933.44
 20
9403862.00
  0
VERTEX
  8
0IMP_DRE
 10
189833.81
 20
9403856.00
  0
VERTEX
  8
0IMP_DRE
 10
189752.80
 20
9403838.00
  0
VERTEX
  8
0IMP_DRE
 10
189678.05
 20
9403826.00
  0
VERTEX
  8
0IMP_DRE
 10
189621.95
 20
9403807.00
  0
VERTEX
  8
0IMP_DRE
 10
189565.88
 20
9403795.00
  0
VERTEX
  8
0IMP_DRE
 10
189509.70
 20
9403764.00
  0
VERTEX
  8
0IMP_DRE
 10
189422.47
 20
9403745.00
  0
VERTEX
  8
0IMP_DRE
 10
189335.22
 20
9403720.00
  0
VERTEX
  8
0IMP_DRE
 10
189241.78
 20
9403708.00
  0
VERTEX
  8
0IMP_DRE
 10
189148.28
 20
9403677.00
  0
VERTEX
  8
0IMP_DRE
 10
189054.67
 20
9403627.00
  0
VERTEX
  8
0IMP_DRE
 10
188954.91
 20
9403590.00
  0
VERTEX
  8
0IMP_DRE
 10
188880.16
 20
9403578.00
  0
VERTEX
  8
0IMP_DRE
 10
188805.27
 20
9403534.00
  0
VERTEX
  8
0IMP_DRE
 10
188730.52
 20
9403522.00
  0
VERTEX
  8
0IMP_DRE
 10
188674.41
 20
9403503.00
  0
VERTEX
  8
0IMP_DRE
 10
188618.30
 20
9403484.00
  0
VERTEX
  8
0IMP_DRE
 10
188524.86
 20
9403472.00
  0
VERTEX
  8
0IMP_DRE
 10
188468.78
 20
9403460.00
  0
VERTEX
  8
0IMP_DRE
 10
188412.73
 20
9403454.00
  0
VERTEX
  8
0IMP_DRE
 10
188338.05
 20
9403454.00
  0
VERTEX
  8
0IMP_DRE
 10
188281.97
 20
9403442.00
  0
VERTEX
  8
0IMP_DRE
 10
188188.55
 20
9403429.00
  0
VERTEX
  8
0IMP_DRE
 10
188113.81
 20
9403423.00
  0
VERTEX
  8
0IMP_DRE
 10
188039.13
 20
9403423.00
  0
VERTEX
  8
0IMP_DRE
 10
187958.20
 20
9403424.00
  0
VERTEX
  8
0IMP_DRE
 10
187877.28
 20
9403424.00
  0
VERTEX
  8
0IMP_DRE
 10
187783.97
 20
9403437.00
  0
VERTEX
  8
0IMP_DRE
 10
187728.19
 20
9403487.00
  0
VERTEX
  8
0IMP_DRE
 10
187634.92
 20
9403512.00
  0
VERTEX
  8
0IMP_DRE
 10
187541.80
 20
9403562.00
  0
VERTEX
  8
0IMP_DRE
 10
187486.00
 20
9403613.00
  0
VERTEX
  8
0IMP_DRE
 10
187424.05
 20
9403675.00
  0
VERTEX
  8
0IMP_DRE
 10
187343.22
 20
9403694.00
  0
VERTEX
  8
0IMP_DRE
 10
187287.41
 20
9403738.00
  0
VERTEX
  8
0IMP_DRE
 10
187225.33
 20
9403776.00
  0
VERTEX
  8
0IMP_DRE
 10
187150.78
 20
9403808.00
  0
VERTEX
  8
0IMP_DRE
 10
187082.50
 20
9403852.00
  0
VERTEX
  8
0IMP_DRE
 10
187020.38
 20
9403877.00
  0
VERTEX
  8
0IMP_DRE
 10
186964.50
 20
9403908.00
  0
VERTEX
  8
0IMP_DRE
 10
186871.28
 20
9403940.00
  0
VERTEX
  8
0IMP_DRE
 10
186796.67
 20
9403959.00
  0
VERTEX
  8
0IMP_DRE
 10
186697.17
 20
9403978.00
  0
VERTEX
  8
0IMP_DRE
 10
186610.17
 20
9404009.00
  0
VERTEX
  8
0IMP_DRE
 10
186529.33
 20
9404028.00
  0
VERTEX
  8
0IMP_DRE
 10
186442.34
 20
9404060.00
  0
VERTEX
  8
0IMP_DRE
 10
186361.50
 20
9404079.00
  0
VERTEX
  8
0IMP_DRE
 10
186280.70
 20
9404104.00
  0
VERTEX
  8
0IMP_DRE
 10
186224.73
 20
9404117.00
  0
VERTEX
  8
0IMP_DRE
 10
186131.48
 20
9404142.00
  0
VERTEX
  8
0IMP_DRE
 10
186075.48
 20
9404148.00
  0
VERTEX
  8
0IMP_DRE
 10
186013.33
 20
9404167.00
  0
VERTEX
  8
0IMP_DRE
 10
185957.36
 20
9404180.00
  0
VERTEX
  8
0IMP_DRE
 10
185901.41
 20
9404193.00
  0
VERTEX
  8
0IMP_DRE
 10
185845.41
 20
9404199.00
  0
VERTEX
  8
0IMP_DRE
 10
185789.48
 20
9404218.00
  0
VERTEX
  8
0IMP_DRE
 10
185689.97
 20
9404237.00
  0
VERTEX
  8
0IMP_DRE
 10
185634.05
 20
9404256.00
  0
VERTEX
  8
0IMP_DRE
 10
185546.95
 20
9404269.00
  0
VERTEX
  8
0IMP_DRE
 10
185472.34
 20
9404288.00
  0
VERTEX
  8
0IMP_DRE
 10
185391.48
 20
9404300.00
  0
VERTEX
  8
0IMP_DRE
 10
185329.36
 20
9404326.00
  0
VERTEX
  8
0IMP_DRE
 10
185273.39
 20
9404338.00
  0
VERTEX
  8
0IMP_DRE
 10
185217.48
 20
9404364.00
  0
VERTEX
  8
0IMP_DRE
 10
185155.36
 20
9404389.00
  0
VERTEX
  8
0IMP_DRE
 10
185093.28
 20
9404426.00
  0
VERTEX
  8
0IMP_DRE
 10
185012.52
 20
9404458.00
  0
VERTEX
  8
0IMP_DRE
 10
184931.81
 20
9404508.00
  0
VERTEX
  8
0IMP_DRE
 10
184913.38
 20
9404558.00
  0
VERTEX
  8
0IMP_DRE
 10
184857.50
 20
9404590.00
  0
VERTEX
  8
0IMP_DRE
 10
184801.72
 20
9404640.00
  0
VERTEX
  8
0IMP_DRE
 10
184745.95
 20
9404696.00
  0
VERTEX
  8
0IMP_DRE
 10
184696.39
 20
9404747.00
  0
VERTEX
  8
0IMP_DRE
 10
184634.47
 20
9404816.00
  0
VERTEX
  8
0IMP_DRE
 10
184584.89
 20
9404866.00
  0
VERTEX
  8
0IMP_DRE
 10
184535.36
 20
9404922.00
  0
VERTEX
  8
0IMP_DRE
 10
184448.56
 20
9404998.00
  0
VERTEX
  8
0IMP_DRE
 10
184392.66
 20
9405023.00
  0
VERTEX
  8
0IMP_DRE
 10
184336.84
 20
9405067.00
  0
VERTEX
  8
0IMP_DRE
 10
184256.16
 20
9405117.00
  0
VERTEX
  8
0IMP_DRE
 10
184206.58
 20
9405167.00
  0
VERTEX
  8
0IMP_DRE
 10
184157.02
 20
9405217.00
  0
VERTEX
  8
0IMP_DRE
 10
184094.89
 20
9405243.00
  0
VERTEX
  8
0IMP_DRE
 10
184076.45
 20
9405293.00
  0
VERTEX
  8
0IMP_DRE
 10
183983.45
 20
9405374.00
  0
VERTEX
  8
0IMP_DRE
 10
183927.78
 20
9405450.00
  0
VERTEX
  8
0IMP_DRE
 10
183878.36
 20
9405531.00
  0
VERTEX
  8
0IMP_DRE
 10
183828.80
 20
9405581.00
  0
VERTEX
  8
0IMP_DRE
 10
183798.02
 20
9405656.00
  0
VERTEX
  8
0IMP_DRE
 10
183748.45
 20
9405707.00
  0
VERTEX
  8
0IMP_DRE
 10
183698.89
 20
9405757.00
  0
VERTEX
  8
0IMP_DRE
 10
183636.91
 20
9405813.00
  0
VERTEX
  8
0IMP_DRE
 10
183587.34
 20
9405863.00
  0
VERTEX
  8
0IMP_DRE
 10
183537.91
 20
9405945.00
  0
VERTEX
  8
0IMP_DRE
 10
183494.58
 20
9405995.00
  0
VERTEX
  8
0IMP_DRE
 10
183432.53
 20
9406039.00
  0
VERTEX
  8
0IMP_DRE
 10
183376.73
 20
9406089.00
  0
VERTEX
  8
0IMP_DRE
 10
183289.92
 20
9406158.00
  0
VERTEX
  8
0IMP_DRE
 10
183196.69
 20
9406190.00
  0
VERTEX
  8
0IMP_DRE
 10
183140.81
 20
9406221.00
  0
VERTEX
  8
0IMP_DRE
 10
183084.91
 20
9406247.00
  0
VERTEX
  8
0IMP_DRE
 10
183022.75
 20
9406265.00
  0
VERTEX
  8
0IMP_DRE
 10
182935.72
 20
9406291.00
  0
VERTEX
  8
0IMP_DRE
 10
182879.88
 20
9406328.00
  0
VERTEX
  8
0IMP_DRE
 10
182792.88
 20
9406360.00
  0
VERTEX
  8
0IMP_DRE
 10
182743.31
 20
9406410.00
  0
VERTEX
  8
0IMP_DRE
 10
182700.00
 20
9406467.00
  0
VERTEX
  8
0IMP_DRE
 10
182675.33
 20
9406517.00
  0
VERTEX
  8
0IMP_DRE
 10
182644.53
 20
9406586.00
  0
VERTEX
  8
0IMP_DRE
 10
182613.66
 20
9406642.00
  0
VERTEX
  8
0IMP_DRE
 10
182601.45
 20
9406692.00
  0
VERTEX
  8
0IMP_DRE
 10
182595.56
 20
9406767.00
  0
VERTEX
  8
0IMP_DRE
 10
182595.86
 20
9406830.00
  0
VERTEX
  8
0IMP_DRE
 10
182533.88
 20
9406886.00
  0
VERTEX
  8
0IMP_DRE
 10
182515.44
 20
9406936.00
  0
VERTEX
  8
0IMP_DRE
 10
182484.53
 20
9406987.00
  0
VERTEX
  8
0IMP_DRE
 10
182459.91
 20
9407043.00
  0
VERTEX
  8
0IMP_DRE
 10
182429.02
 20
9407093.00
  0
VERTEX
  8
0IMP_DRE
 10
182379.70
 20
9407200.00
  0
VERTEX
  8
0IMP_DRE
 10
182361.27
 20
9407250.00
  0
VERTEX
  8
0IMP_DRE
 10
182324.34
 20
9407344.00
  0
VERTEX
  8
0IMP_DRE
 10
182305.95
 20
9407406.00
  0
VERTEX
  8
0IMP_DRE
 10
182256.63
 20
9407506.00
  0
VERTEX
  8
0IMP_DRE
 10
182207.13
 20
9407569.00
  0
VERTEX
  8
0IMP_DRE
 10
182164.02
 20
9407669.00
  0
VERTEX
  8
0IMP_DRE
 10
182114.56
 20
9407745.00
  0
VERTEX
  8
0IMP_DRE
 10
182052.69
 20
9407826.00
  0
VERTEX
  8
0IMP_DRE
 10
182009.44
 20
9407895.00
  0
VERTEX
  8
0IMP_DRE
 10
181960.02
 20
9407977.00
  0
VERTEX
  8
0IMP_DRE
 10
181916.73
 20
9408039.00
  0
VERTEX
  8
0IMP_DRE
 10
181873.50
 20
9408114.00
  0
VERTEX
  8
0IMP_DRE
 10
181817.80
 20
9408183.00
  0
VERTEX
  8
0IMP_DRE
 10
181731.03
 20
9408265.00
  0
VERTEX
  8
0IMP_DRE
 10
181681.50
 20
9408321.00
  0
VERTEX
  8
0IMP_DRE
 10
181669.38
 20
9408390.00
  0
VERTEX
  8
0IMP_DRE
 10
181613.72
 20
9408472.00
  0
VERTEX
  8
0IMP_DRE
 10
181576.69
 20
9408541.00
  0
VERTEX
  8
0IMP_DRE
 10
181533.53
 20
9408628.00
  0
VERTEX
  8
0IMP_DRE
 10
181490.36
 20
9408716.00
  0
VERTEX
  8
0IMP_DRE
 10
181434.72
 20
9408798.00
  0
VERTEX
  8
0IMP_DRE
 10
181397.73
 20
9408879.00
  0
VERTEX
  8
0IMP_DRE
 10
181348.31
 20
9408961.00
  0
VERTEX
  8
0IMP_DRE
 10
181329.94
 20
9409023.00
  0
VERTEX
  8
0IMP_DRE
 10
181292.84
 20
9409080.00
  0
VERTEX
  8
0IMP_DRE
 10
181280.66
 20
9409136.00
  0
VERTEX
  8
0IMP_DRE
 10
181268.56
 20
9409211.00
  0
VERTEX
  8
0IMP_DRE
 10
181262.69
 20
9409286.00
  0
VERTEX
  8
0IMP_DRE
 10
181262.94
 20
9409343.00
  0
VERTEX
  8
0IMP_DRE
 10
181263.28
 20
9409418.00
  0
VERTEX
  8
0IMP_DRE
 10
181263.55
 20
9409474.00
  0
VERTEX
  8
0IMP_DRE
 10
181263.92
 20
9409555.00
  0
VERTEX
  8
0IMP_DRE
 10
181264.36
 20
9409649.00
  0
VERTEX
  8
0IMP_DRE
 10
181264.73
 20
9409730.00
  0
VERTEX
  8
0IMP_DRE
 10
181265.05
 20
9409799.00
  0
VERTEX
  8
0IMP_DRE
 10
181277.81
 20
9409868.00
  0
VERTEX
  8
0IMP_DRE
 10
181303.03
 20
9409937.00
  0
SEQEND
  8
0IMP_DRE
  0
POLYLINE
  8
0IMP_DRE
 66
     1
  0
VERTEX
  8
0IMP_DRE
 10
214646.53
 20
9394722.00
  0
VERTEX
  8
0IMP_DRE
 10
214496.89
 20
9394666.00
  0
VERTEX
  8
0IMP_DRE
 10
214440.88
 20
9394666.00
  0
VERTEX
  8
0IMP_DRE
 10
214384.84
 20
9394666.00
  0
VERTEX
  8
0IMP_DRE
 10
214322.61
 20
9394666.00
  0
VERTEX
  8
0IMP_DRE
 10
214229.27
 20
9394673.00
  0
VERTEX
  8
0IMP_DRE
 10
214173.27
 20
9394679.00
  0
VERTEX
  8
0IMP_DRE
 10
214079.97
 20
9394692.00
  0
VERTEX
  8
0IMP_DRE
 10
214024.00
 20
9394704.00
  0
VERTEX
  8
0IMP_DRE
 10
213968.03
 20
9394717.00
  0
SEQEND
  8
0IMP_DRE
  0
POLYLINE
  8
0IMP_DRE
 66
     1
  0
VERTEX
  8
0IMP_DRE
 10
194782.80
 20
9405294.00
  0
VERTEX
  8
0IMP_DRE
 10
194863.77
 20
9405307.00
  0
VERTEX
  8
0IMP_DRE
 10
194919.88
 20
9405325.00
  0
VERTEX
  8
0IMP_DRE
 10
195000.86
 20
9405338.00
  0
VERTEX
  8
0IMP_DRE
 10
195081.89
 20
9405362.00
  0
VERTEX
  8
0IMP_DRE
 10
195137.97
 20
9405375.00
  0
VERTEX
  8
0IMP_DRE
 10
195194.16
 20
9405412.00
  0
VERTEX
  8
0IMP_DRE
 10
195262.75
 20
9405437.00
  0
VERTEX
  8
0IMP_DRE
 10
195318.94
 20
9405474.00
  0
VERTEX
  8
0IMP_DRE
 10
195412.42
 20
9405499.00
  0
VERTEX
  8
0IMP_DRE
 10
195505.88
 20
9405518.00
  0
VERTEX
  8
0IMP_DRE
 10
195561.92
 20
9405524.00
  0
VERTEX
  8
0IMP_DRE
 10
195630.42
 20
9405530.00
  0
VERTEX
  8
0IMP_DRE
 10
195686.45
 20
9405530.00
  0
VERTEX
  8
0IMP_DRE
 10
195767.34
 20
9405523.00
  0
VERTEX
  8
0IMP_DRE
 10
195841.89
 20
9405492.00
  0
VERTEX
  8
0IMP_DRE
 10
195897.73
 20
9405454.00
  0
VERTEX
  8
0IMP_DRE
 10
195972.23
 20
9405410.00
  0
VERTEX
  8
0IMP_DRE
 10
196015.56
 20
9405360.00
  0
VERTEX
  8
0IMP_DRE
 10
196065.13
 20
9405310.00
  0
VERTEX
  8
0IMP_DRE
 10
196127.20
 20
9405272.00
  0
VERTEX
  8
0IMP_DRE
 10
196183.05
 20
9405234.00
  0
VERTEX
  8
0IMP_DRE
 10
196257.61
 20
9405203.00
  0
VERTEX
  8
0IMP_DRE
 10
196332.09
 20
9405159.00
  0
VERTEX
  8
0IMP_DRE
 10
196406.64
 20
9405127.00
  0
VERTEX
  8
0IMP_DRE
 10
196474.97
 20
9405096.00
  0
VERTEX
  8
0IMP_DRE
 10
196543.36
 20
9405077.00
  0
VERTEX
  8
0IMP_DRE
 10
196617.94
 20
9405052.00
  0
VERTEX
  8
0IMP_DRE
 10
196698.77
 20
9405033.00
  0
VERTEX
  8
0IMP_DRE
 10
196773.31
 20
9405001.00
  0
VERTEX
  8
0IMP_DRE
 10
196847.86
 20
9404970.00
  0
VERTEX
  8
0IMP_DRE
 10
196916.16
 20
9404932.00
  0
VERTEX
  8
0IMP_DRE
 10
196965.72
 20
9404882.00
  0
VERTEX
  8
0IMP_DRE
 10
197021.48
 20
9404825.00
  0
VERTEX
  8
0IMP_DRE
 10
197089.67
 20
9404762.00
  0
VERTEX
  8
0IMP_DRE
 10
197139.23
 20
9404712.00
  0
VERTEX
  8
0IMP_DRE
 10
197195.08
 20
9404675.00
  0
VERTEX
  8
0IMP_DRE
 10
197257.19
 20
9404643.00
  0
VERTEX
  8
0IMP_DRE
 10
197313.13
 20
9404624.00
  0
VERTEX
  8
0IMP_DRE
 10
197369.05
 20
9404605.00
  0
VERTEX
  8
0IMP_DRE
 10
197437.47
 20
9404593.00
  0
VERTEX
  8
0IMP_DRE
 10
197499.56
 20
9404561.00
  0
VERTEX
  8
0IMP_DRE
 10
197561.70
 20
9404536.00
  0
VERTEX
  8
0IMP_DRE
 10
197623.63
 20
9404467.00
  0
VERTEX
  8
0IMP_DRE
 10
197692.03
 20
9404454.00
  0
VERTEX
  8
0IMP_DRE
 10
197760.30
 20
9404410.00
  0
VERTEX
  8
0IMP_DRE
 10
197803.64
 20
9404360.00
  0
VERTEX
  8
0IMP_DRE
 10
197890.39
 20
9404272.00
  0
VERTEX
  8
0IMP_DRE
 10
197983.52
 20
9404222.00
  0
VERTEX
  8
0IMP_DRE
 10
198045.56
 20
9404178.00
  0
VERTEX
  8
0IMP_DRE
 10
198088.88
 20
9404121.00
  0
VERTEX
  8
0IMP_DRE
 10
198144.72
 20
9404084.00
  0
VERTEX
  8
0IMP_DRE
 10
198206.77
 20
9404040.00
  0
VERTEX
  8
0IMP_DRE
 10
198287.48
 20
9403996.00
  0
VERTEX
  8
0IMP_DRE
 10
198349.53
 20
9403952.00
  0
VERTEX
  8
0IMP_DRE
 10
198436.50
 20
9403914.00
  0
VERTEX
  8
0IMP_DRE
 10
198492.34
 20
9403876.00
  0
VERTEX
  8
0IMP_DRE
 10
198573.13
 20
9403845.00
  0
VERTEX
  8
0IMP_DRE
 10
198653.92
 20
9403820.00
  0
VERTEX
  8
0IMP_DRE
 10
198722.25
 20
9403788.00
  0
VERTEX
  8
0IMP_DRE
 10
198796.83
 20
9403763.00
  0
VERTEX
  8
0IMP_DRE
 10
198865.20
 20
9403744.00
  0
VERTEX
  8
0IMP_DRE
 10
198927.34
 20
9403719.00
  0
VERTEX
  8
0IMP_DRE
 10
198995.72
 20
9403700.00
  0
VERTEX
  8
0IMP_DRE
 10
199051.63
 20
9403675.00
  0
VERTEX
  8
0IMP_DRE
 10
199120.02
 20
9403656.00
  0
VERTEX
  8
0IMP_DRE
 10
199200.88
 20
9403643.00
  0
VERTEX
  8
0IMP_DRE
 10
199294.09
 20
9403611.00
  0
VERTEX
  8
0IMP_DRE
 10
199356.25
 20
9403592.00
  0
VERTEX
  8
0IMP_DRE
 10
199436.97
 20
9403548.00
  0
VERTEX
  8
0IMP_DRE
 10
199517.69
 20
9403504.00
  0
VERTEX
  8
0IMP_DRE
 10
199579.70
 20
9403454.00
  0
VERTEX
  8
0IMP_DRE
 10
199654.23
 20
9403416.00
  0
VERTEX
  8
0IMP_DRE
 10
199716.27
 20
9403372.00
  0
VERTEX
  8
0IMP_DRE
 10
199790.72
 20
9403322.00
  0
VERTEX
  8
0IMP_DRE
 10
199877.70
 20
9403284.00
  0
VERTEX
  8
0IMP_DRE
 10
199933.52
 20
9403240.00
  0
VERTEX
  8
0IMP_DRE
 10
200008.06
 20
9403209.00
  0
VERTEX
  8
0IMP_DRE
 10
200063.92
 20
9403171.00
  0
VERTEX
  8
0IMP_DRE
 10
200150.86
 20
9403127.00
  0
VERTEX
  8
0IMP_DRE
 10
200194.17
 20
9403071.00
  0
VERTEX
  8
0IMP_DRE
 10
200262.58
 20
9403058.00
  0
VERTEX
  8
0IMP_DRE
 10
200337.05
 20
9403008.00
  0
VERTEX
  8
0IMP_DRE
 10
200417.73
 20
9402958.00
  0
VERTEX
  8
0IMP_DRE
 10
200492.17
 20
9402901.00
  0
VERTEX
  8
0IMP_DRE
 10
200548.08
 20
9402876.00
  0
VERTEX
  8
0IMP_DRE
 10
200597.61
 20
9402819.00
  0
VERTEX
  8
0IMP_DRE
 10
200678.22
 20
9402750.00
  0
VERTEX
  8
0IMP_DRE
 10
200721.52
 20
9402694.00
  0
VERTEX
  8
0IMP_DRE
 10
200764.86
 20
9402644.00
  0
VERTEX
  8
0IMP_DRE
 10
200814.31
 20
9402568.00
  0
VERTEX
  8
0IMP_DRE
 10
200870.16
 20
9402531.00
  0
VERTEX
  8
0IMP_DRE
 10
200925.92
 20
9402474.00
  0
VERTEX
  8
0IMP_DRE
 10
201006.58
 20
9402418.00
  0
VERTEX
  8
0IMP_DRE
 10
201012.58
 20
9402368.00
  0
VERTEX
  8
0IMP_DRE
 10
201068.53
 20
9402355.00
  0
VERTEX
  8
0IMP_DRE
 10
201093.06
 20
9402274.00
  0
VERTEX
  8
0IMP_DRE
 10
201148.84
 20
9402223.00
  0
VERTEX
  8
0IMP_DRE
 10
201204.50
 20
9402142.00
  0
VERTEX
  8
0IMP_DRE
 10
201285.09
 20
9402073.00
  0
VERTEX
  8
0IMP_DRE
 10
201353.33
 20
9402023.00
  0
VERTEX
  8
0IMP_DRE
 10
201421.75
 20
9402010.00
  0
VERTEX
  8
0IMP_DRE
 10
201502.47
 20
9401966.00
  0
VERTEX
  8
0IMP_DRE
 10
201589.44
 20
9401928.00
  0
VERTEX
  8
0IMP_DRE
 10
201670.22
 20
9401897.00
  0
VERTEX
  8
0IMP_DRE
 10
201775.88
 20
9401865.00
  0
VERTEX
  8
0IMP_DRE
 10
201850.45
 20
9401840.00
  0
VERTEX
  8
0IMP_DRE
 10
201906.42
 20
9401827.00
  0
VERTEX
  8
0IMP_DRE
 10
201968.59
 20
9401808.00
  0
VERTEX
  8
0IMP_DRE
 10
202055.61
 20
9401783.00
  0
VERTEX
  8
0IMP_DRE
 10
202117.77
 20
9401764.00
  0
VERTEX
  8
0IMP_DRE
 10
202173.73
 20
9401751.00
  0
VERTEX
  8
0IMP_DRE
 10
202260.88
 20
9401751.00
  0
VERTEX
  8
0IMP_DRE
 10
202335.56
 20
9401751.00
  0
VERTEX
  8
0IMP_DRE
 10
202416.48
 20
9401751.00
  0
VERTEX
  8
0IMP_DRE
 10
202503.64
 20
9401750.00
  0
VERTEX
  8
0IMP_DRE
 10
202590.78
 20
9401750.00
  0
VERTEX
  8
0IMP_DRE
 10
202665.42
 20
9401737.00
  0
VERTEX
  8
0IMP_DRE
 10
202740.08
 20
9401731.00
  0
VERTEX
  8
0IMP_DRE
 10
202827.14
 20
9401712.00
  0
VERTEX
  8
0IMP_DRE
 10
202914.22
 20
9401699.00
  0
VERTEX
  8
0IMP_DRE
 10
203007.47
 20
9401674.00
  0
VERTEX
  8
0IMP_DRE
 10
203082.11
 20
9401661.00
  0
VERTEX
  8
0IMP_DRE
 10
203144.23
 20
9401636.00
  0
VERTEX
  8
0IMP_DRE
 10
203237.34
 20
9401579.00
  0
VERTEX
  8
0IMP_DRE
 10
203324.41
 20
9401560.00
  0
VERTEX
  8
0IMP_DRE
 10
203405.09
 20
9401510.00
  0
VERTEX
  8
0IMP_DRE
 10
203473.48
 20
9401491.00
  0
VERTEX
  8
0IMP_DRE
 10
203560.42
 20
9401447.00
  0
VERTEX
  8
0IMP_DRE
 10
203616.27
 20
9401409.00
  0
VERTEX
  8
0IMP_DRE
 10
203672.11
 20
9401372.00
  0
VERTEX
  8
0IMP_DRE
 10
203734.16
 20
9401328.00
  0
VERTEX
  8
0IMP_DRE
 10
203790.00
 20
9401290.00
  0
VERTEX
  8
0IMP_DRE
 10
203852.20
 20
9401277.00
  0
VERTEX
  8
0IMP_DRE
 10
203908.16
 20
9401265.00
  0
VERTEX
  8
0IMP_DRE
 10
203970.25
 20
9401233.00
  0
VERTEX
  8
0IMP_DRE
 10
204038.64
 20
9401214.00
  0
VERTEX
  8
0IMP_DRE
 10
204100.80
 20
9401195.00
  0
VERTEX
  8
0IMP_DRE
 10
204156.73
 20
9401176.00
  0
VERTEX
  8
0IMP_DRE
 10
204231.34
 20
9401157.00
  0
VERTEX
  8
0IMP_DRE
 10
204305.89
 20
9401126.00
  0
VERTEX
  8
0IMP_DRE
 10
204361.83
 20
9401107.00
  0
VERTEX
  8
0IMP_DRE
 10
204417.64
 20
9401063.00
  0
VERTEX
  8
0IMP_DRE
 10
204479.69
 20
9401019.00
  0
VERTEX
  8
0IMP_DRE
 10
204535.50
 20
9400975.00
  0
VERTEX
  8
0IMP_DRE
 10
204560.00
 20
9400888.00
  0
VERTEX
  8
0IMP_DRE
 10
204615.78
 20
9400837.00
  0
VERTEX
  8
0IMP_DRE
 10
204659.09
 20
9400781.00
  0
VERTEX
  8
0IMP_DRE
 10
204714.89
 20
9400731.00
  0
VERTEX
  8
0IMP_DRE
 10
204733.33
 20
9400681.00
  0
VERTEX
  8
0IMP_DRE
 10
204782.89
 20
9400630.00
  0
VERTEX
  8
0IMP_DRE
 10
204801.33
 20
9400580.00
  0
VERTEX
  8
0IMP_DRE
 10
204881.88
 20
9400499.00
  0
VERTEX
  8
0IMP_DRE
 10
204949.95
 20
9400411.00
  0
VERTEX
  8
0IMP_DRE
 10
205030.64
 20
9400361.00
  0
VERTEX
  8
0IMP_DRE
 10
205080.20
 20
9400310.00
  0
VERTEX
  8
0IMP_DRE
 10
205142.36
 20
9400291.00
  0
VERTEX
  8
0IMP_DRE
 10
205216.83
 20
9400241.00
  0
VERTEX
  8
0IMP_DRE
 10
205297.52
 20
9400191.00
  0
VERTEX
  8
0IMP_DRE
 10
205365.75
 20
9400141.00
  0
VERTEX
  8
0IMP_DRE
 10
205409.09
 20
9400091.00
  0
VERTEX
  8
0IMP_DRE
 10
205483.70
 20
9400072.00
  0
VERTEX
  8
0IMP_DRE
 10
205558.25
 20
9400040.00
  0
VERTEX
  8
0IMP_DRE
 10
205570.47
 20
9399990.00
  0
VERTEX
  8
0IMP_DRE
 10
205638.84
 20
9399971.00
  0
VERTEX
  8
0IMP_DRE
 10
205694.61
 20
9399915.00
  0
VERTEX
  8
0IMP_DRE
 10
205744.16
 20
9399858.00
  0
VERTEX
  8
0IMP_DRE
 10
205818.75
 20
9399839.00
  0
VERTEX
  8
0IMP_DRE
 10
205868.30
 20
9399783.00
  0
VERTEX
  8
0IMP_DRE
 10
205911.48
 20
9399701.00
  0
VERTEX
  8
0IMP_DRE
 10
205998.38
 20
9399645.00
  0
VERTEX
  8
0IMP_DRE
 10
206054.22
 20
9399607.00
  0
VERTEX
  8
0IMP_DRE
 10
206141.14
 20
9399557.00
  0
VERTEX
  8
0IMP_DRE
 10
206184.42
 20
9399494.00
  0
VERTEX
  8
0IMP_DRE
 10
206259.05
 20
9399481.00
  0
VERTEX
  8
0IMP_DRE
 10
206339.70
 20
9399425.00
  0
VERTEX
  8
0IMP_DRE
 10
206407.92
 20
9399368.00
  0
VERTEX
  8
0IMP_DRE
 10
206494.98
 20
9399349.00
  0
VERTEX
  8
0IMP_DRE
 10
206557.08
 20
9399318.00
  0
VERTEX
  8
0IMP_DRE
 10
206631.63
 20
9399286.00
  0
VERTEX
  8
0IMP_DRE
 10
206712.41
 20
9399255.00
  0
VERTEX
  8
0IMP_DRE
 10
206793.19
 20
9399223.00
  0
VERTEX
  8
0IMP_DRE
 10
206873.88
 20
9399173.00
  0
VERTEX
  8
0IMP_DRE
 10
206935.80
 20
9399104.00
  0
VERTEX
  8
0IMP_DRE
 10
207016.55
 20
9399066.00
  0
VERTEX
  8
0IMP_DRE
 10
207078.58
 20
9399022.00
  0
VERTEX
  8
0IMP_DRE
 10
207146.84
 20
9398978.00
  0
VERTEX
  8
0IMP_DRE
 10
207202.61
 20
9398922.00
  0
VERTEX
  8
0IMP_DRE
 10
207270.91
 20
9398884.00
  0
VERTEX
  8
0IMP_DRE
 10
207357.80
 20
9398827.00
  0
VERTEX
  8
0IMP_DRE
 10
207413.50
 20
9398759.00
  0
VERTEX
  8
0IMP_DRE
 10
207494.27
 20
9398727.00
  0
VERTEX
  8
0IMP_DRE
 10
207556.31
 20
9398683.00
  0
VERTEX
  8
0IMP_DRE
 10
207636.89
 20
9398608.00
  0
VERTEX
  8
0IMP_DRE
 10
207723.80
 20
9398557.00
  0
VERTEX
  8
0IMP_DRE
 10
207798.23
 20
9398501.00
  0
VERTEX
  8
0IMP_DRE
 10
207847.77
 20
9398444.00
  0
VERTEX
  8
0IMP_DRE
 10
207922.23
 20
9398394.00
  0
VERTEX
  8
0IMP_DRE
 10
207990.50
 20
9398350.00
  0
VERTEX
  8
0IMP_DRE
 10
208033.81
 20
9398294.00
  0
VERTEX
  8
0IMP_DRE
 10
208077.09
 20
9398231.00
  0
VERTEX
  8
0IMP_DRE
 10
208132.88
 20
9398181.00
  0
VERTEX
  8
0IMP_DRE
 10
208201.06
 20
9398118.00
  0
VERTEX
  8
0IMP_DRE
 10
208256.69
 20
9398030.00
  0
VERTEX
  8
0IMP_DRE
 10
208331.09
 20
9397968.00
  0
VERTEX
  8
0IMP_DRE
 10
208374.44
 20
9397917.00
  0
VERTEX
  8
0IMP_DRE
 10
208430.19
 20
9397861.00
  0
VERTEX
  8
0IMP_DRE
 10
208485.89
 20
9397792.00
  0
VERTEX
  8
0IMP_DRE
 10
208547.84
 20
9397729.00
  0
VERTEX
  8
0IMP_DRE
 10
208597.42
 20
9397679.00
  0
VERTEX
  8
0IMP_DRE
 10
208684.27
 20
9397616.00
  0
VERTEX
  8
0IMP_DRE
 10
208733.83
 20
9397566.00
  0
VERTEX
  8
0IMP_DRE
 10
208783.38
 20
9397510.00
  0
VERTEX
  8
0IMP_DRE
 10
208845.30
 20
9397441.00
  0
VERTEX
  8
0IMP_DRE
 10
208919.77
 20
9397390.00
  0
VERTEX
  8
0IMP_DRE
 10
208963.11
 20
9397340.00
  0
VERTEX
  8
0IMP_DRE
 10
209006.45
 20
9397290.00
  0
VERTEX
  8
0IMP_DRE
 10
209049.67
 20
9397215.00
  0
VERTEX
  8
0IMP_DRE
 10
209117.91
 20
9397165.00
  0
VERTEX
  8
0IMP_DRE
 10
209155.03
 20
9397114.00
  0
VERTEX
  8
0IMP_DRE
 10
209229.48
 20
9397064.00
  0
VERTEX
  8
0IMP_DRE
 10
209266.58
 20
9397008.00
  0
VERTEX
  8
0IMP_DRE
 10
209309.92
 20
9396958.00
  0
VERTEX
  8
0IMP_DRE
 10
209353.25
 20
9396907.00
  0
VERTEX
  8
0IMP_DRE
 10
209396.59
 20
9396857.00
  0
VERTEX
  8
0IMP_DRE
 10
209446.02
 20
9396776.00
  0
VERTEX
  8
0IMP_DRE
 10
209526.64
 20
9396713.00
  0
VERTEX
  8
0IMP_DRE
 10
209588.66
 20
9396663.00
  0
VERTEX
  8
0IMP_DRE
 10
209644.48
 20
9396619.00
  0
VERTEX
  8
0IMP_DRE
 10
209662.92
 20
9396569.00
  0
VERTEX
  8
0IMP_DRE
 10
209725.05
 20
9396543.00
  0
VERTEX
  8
0IMP_DRE
 10
209805.80
 20
9396506.00
  0
VERTEX
  8
0IMP_DRE
 10
209892.77
 20
9396468.00
  0
VERTEX
  8
0IMP_DRE
 10
209973.55
 20
9396436.00
  0
VERTEX
  8
0IMP_DRE
 10
210048.16
 20
9396417.00
  0
VERTEX
  8
0IMP_DRE
 10
210116.53
 20
9396398.00
  0
VERTEX
  8
0IMP_DRE
 10
210184.94
 20
9396386.00
  0
VERTEX
  8
0IMP_DRE
 10
210265.81
 20
9396373.00
  0
VERTEX
  8
0IMP_DRE
 10
210334.25
 20
9396367.00
  0
VERTEX
  8
0IMP_DRE
 10
210427.50
 20
9396341.00
  0
VERTEX
  8
0IMP_DRE
 10
210508.36
 20
9396328.00
  0
VERTEX
  8
0IMP_DRE
 10
210589.19
 20
9396309.00
  0
VERTEX
  8
0IMP_DRE
 10
210676.22
 20
9396284.00
  0
VERTEX
  8
0IMP_DRE
 10
210744.66
 20
9396278.00
  0
VERTEX
  8
0IMP_DRE
 10
210819.33
 20
9396271.00
  0
VERTEX
  8
0IMP_DRE
 10
210900.22
 20
9396265.00
  0
VERTEX
  8
0IMP_DRE
 10
210981.14
 20
9396265.00
  0
VERTEX
  8
0IMP_DRE
 10
211049.55
 20
9396252.00
  0
VERTEX
  8
0IMP_DRE
 10
211130.41
 20
9396239.00
  0
VERTEX
  8
0IMP_DRE
 10
211192.56
 20
9396220.00
  0
VERTEX
  8
0IMP_DRE
 10
211267.17
 20
9396201.00
  0
VERTEX
  8
0IMP_DRE
 10
211329.36
 20
9396189.00
  0
VERTEX
  8
0IMP_DRE
 10
211422.61
 20
9396163.00
  0
VERTEX
  8
0IMP_DRE
 10
211509.64
 20
9396138.00
  0
VERTEX
  8
0IMP_DRE
 10
211596.70
 20
9396119.00
  0
VERTEX
  8
0IMP_DRE
 10
211671.20
 20
9396075.00
  0
VERTEX
  8
0IMP_DRE
 10
211727.16
 20
9396062.00
  0
VERTEX
  8
0IMP_DRE
 10
211795.39
 20
9396012.00
  0
VERTEX
  8
0IMP_DRE
 10
211851.33
 20
9395993.00
  0
VERTEX
  8
0IMP_DRE
 10
211913.41
 20
9395955.00
  0
VERTEX
  8
0IMP_DRE
 10
211975.36
 20
9395893.00
  0
VERTEX
  8
0IMP_DRE
 10
212043.75
 20
9395874.00
  0
VERTEX
  8
0IMP_DRE
 10
212130.63
 20
9395817.00
  0
VERTEX
  8
0IMP_DRE
 10
212211.28
 20
9395761.00
  0
VERTEX
  8
0IMP_DRE
 10
212267.13
 20
9395723.00
  0
VERTEX
  8
0IMP_DRE
 10
212329.20
 20
9395685.00
  0
VERTEX
  8
0IMP_DRE
 10
212403.81
 20
9395666.00
  0
VERTEX
  8
0IMP_DRE
 10
212478.36
 20
9395635.00
  0
VERTEX
  8
0IMP_DRE
 10
212552.97
 20
9395616.00
  0
VERTEX
  8
0IMP_DRE
 10
212633.80
 20
9395597.00
  0
VERTEX
  8
0IMP_DRE
 10
212702.19
 20
9395578.00
  0
VERTEX
  8
0IMP_DRE
 10
212764.38
 20
9395565.00
  0
VERTEX
  8
0IMP_DRE
 10
212832.78
 20
9395552.00
  0
VERTEX
  8
0IMP_DRE
 10
212907.45
 20
9395546.00
  0
VERTEX
  8
0IMP_DRE
 10
212982.09
 20
9395533.00
  0
VERTEX
  8
0IMP_DRE
 10
213044.28
 20
9395521.00
  0
VERTEX
  8
0IMP_DRE
 10
213118.83
 20
9395489.00
  0
VERTEX
  8
0IMP_DRE
 10
213199.61
 20
9395458.00
  0
VERTEX
  8
0IMP_DRE
 10
213280.38
 20
9395426.00
  0
VERTEX
  8
0IMP_DRE
 10
213361.13
 20
9395388.00
  0
VERTEX
  8
0IMP_DRE
 10
213417.03
 20
9395363.00
  0
VERTEX
  8
0IMP_DRE
 10
213497.83
 20
9395338.00
  0
VERTEX
  8
0IMP_DRE
 10
213553.69
 20
9395300.00
  0
VERTEX
  8
0IMP_DRE
 10
213609.61
 20
9395281.00
  0
VERTEX
  8
0IMP_DRE
 10
213696.64
 20
9395256.00
  0
VERTEX
  8
0IMP_DRE
 10
213752.55
 20
9395231.00
  0
VERTEX
  8
0IMP_DRE
 10
213820.92
 20
9395212.00
  0
VERTEX
  8
0IMP_DRE
 10
213901.83
 20
9395205.00
  0
VERTEX
  8
0IMP_DRE
 10
213957.81
 20
9395199.00
  0
VERTEX
  8
0IMP_DRE
 10
214032.50
 20
9395199.00
  0
VERTEX
  8
0IMP_DRE
 10
214107.20
 20
9395199.00
  0
VERTEX
  8
0IMP_DRE
 10
214175.67
 20
9395198.00
  0
VERTEX
  8
0IMP_DRE
 10
214262.81
 20
9395198.00
  0
VERTEX
  8
0IMP_DRE
 10
214337.59
 20
9395217.00
  0
VERTEX
  8
0IMP_DRE
 10
214412.38
 20
9395235.00
  0
VERTEX
  8
0IMP_DRE
 10
214480.98
 20
9395266.00
  0
VERTEX
  8
0IMP_DRE
 10
214555.95
 20
9395322.00
  0
VERTEX
  8
0IMP_DRE
 10
214643.38
 20
9395385.00
  0
VERTEX
  8
0IMP_DRE
 10
214705.80
 20
9395422.00
  0
VERTEX
  8
0IMP_DRE
 10
214774.56
 20
9395485.00
  0
VERTEX
  8
0IMP_DRE
 10
214830.72
 20
9395516.00
  0
VERTEX
  8
0IMP_DRE
 10
214911.81
 20
9395553.00
  0
VERTEX
  8
0IMP_DRE
 10
214968.00
 20
9395590.00
  0
VERTEX
  8
0IMP_DRE
 10
215024.14
 20
9395615.00
  0
VERTEX
  8
0IMP_DRE
 10
215111.38
 20
9395634.00
  0
VERTEX
  8
0IMP_DRE
 10
215167.53
 20
9395665.00
  0
VERTEX
  8
0IMP_DRE
 10
215229.86
 20
9395683.00
  0
VERTEX
  8
0IMP_DRE
 10
215310.94
 20
9395715.00
  0
VERTEX
  8
0IMP_DRE
 10
215391.94
 20
9395733.00
  0
VERTEX
  8
0IMP_DRE
 10
215473.00
 20
9395764.00
  0
VERTEX
  8
0IMP_DRE
 10
215529.14
 20
9395789.00
  0
VERTEX
  8
0IMP_DRE
 10
215585.22
 20
9395801.00
  0
VERTEX
  8
0IMP_DRE
 10
215641.44
 20
9395845.00
  0
VERTEX
  8
0IMP_DRE
 10
215703.77
 20
9395864.00
  0
VERTEX
  8
0IMP_DRE
 10
215759.88
 20
9395882.00
  0
VERTEX
  8
0IMP_DRE
 10
215816.02
 20
9395907.00
  0
VERTEX
  8
0IMP_DRE
 10
215859.84
 20
9395963.00
  0
VERTEX
  8
0IMP_DRE
 10
215915.98
 20
9395988.00
  0
VERTEX
  8
0IMP_DRE
 10
215972.17
 20
9396026.00
  0
VERTEX
  8
0IMP_DRE
 10
216046.95
 20
9396044.00
  0
VERTEX
  8
0IMP_DRE
 10
216103.02
 20
9396050.00
  0
VERTEX
  8
0IMP_DRE
 10
216190.16
 20
9396050.00
  0
VERTEX
  8
0IMP_DRE
 10
216246.17
 20
9396050.00
  0
VERTEX
  8
0IMP_DRE
 10
216320.78
 20
9396031.00
  0
VERTEX
  8
0IMP_DRE
 10
216376.63
 20
9395993.00
  0
VERTEX
  8
0IMP_DRE
 10
216457.41
 20
9395962.00
  0
VERTEX
  8
0IMP_DRE
 10
216519.50
 20
9395930.00
  0
VERTEX
  8
0IMP_DRE
 10
216587.92
 20
9395918.00
  0
VERTEX
  8
0IMP_DRE
 10
216662.53
 20
9395899.00
  0
VERTEX
  8
0IMP_DRE
 10
216737.16
 20
9395886.00
  0
VERTEX
  8
0IMP_DRE
 10
216811.77
 20
9395867.00
  0
VERTEX
  8
0IMP_DRE
 10
216892.63
 20
9395854.00
  0
VERTEX
  8
0IMP_DRE
 10
216973.42
 20
9395829.00
  0
VERTEX
  8
0IMP_DRE
 10
217048.02
 20
9395804.00
  0
VERTEX
  8
0IMP_DRE
 10
217103.92
 20
9395778.00
  0
VERTEX
  8
0IMP_DRE
 10
217178.48
 20
9395753.00
  0
VERTEX
  8
0IMP_DRE
 10
217240.53
 20
9395709.00
  0
VERTEX
  8
0IMP_DRE
 10
217296.39
 20
9395672.00
  0
VERTEX
  8
0IMP_DRE
 10
217352.17
 20
9395621.00
  0
VERTEX
  8
0IMP_DRE
 10
217407.94
 20
9395565.00
  0
VERTEX
  8
0IMP_DRE
 10
217488.59
 20
9395508.00
  0
VERTEX
  8
0IMP_DRE
 10
217507.05
 20
9395458.00
  0
VERTEX
  8
0IMP_DRE
 10
217550.30
 20
9395389.00
  0
VERTEX
  8
0IMP_DRE
 10
217587.34
 20
9395327.00
  0
VERTEX
  8
0IMP_DRE
 10
217624.38
 20
9395258.00
  0
VERTEX
  8
0IMP_DRE
 10
217667.69
 20
9395201.00
  0
VERTEX
  8
0IMP_DRE
 10
217710.86
 20
9395114.00
  0
VERTEX
  8
0IMP_DRE
 10
217747.98
 20
9395063.00
  0
VERTEX
  8
0IMP_DRE
 10
217797.42
 20
9394988.00
  0
VERTEX
  8
0IMP_DRE
 10
217840.73
 20
9394932.00
  0
VERTEX
  8
0IMP_DRE
 10
217871.45
 20
9394844.00
  0
VERTEX
  8
0IMP_DRE
 10
217914.80
 20
9394794.00
  0
VERTEX
  8
0IMP_DRE
 10
217970.58
 20
9394744.00
  0
VERTEX
  8
0IMP_DRE
 10
218019.95
 20
9394650.00
  0
VERTEX
  8
0IMP_DRE
 10
218044.59
 20
9394593.00
  0
VERTEX
  8
0IMP_DRE
 10
218100.44
 20
9394556.00
  0
VERTEX
  8
0IMP_DRE
 10
218156.22
 20
9394505.00
  0
VERTEX
  8
0IMP_DRE
 10
218211.98
 20
9394449.00
  0
VERTEX
  8
0IMP_DRE
 10
218267.75
 20
9394392.00
  0
VERTEX
  8
0IMP_DRE
 10
218292.39
 20
9394336.00
  0
VERTEX
  8
0IMP_DRE
 10
218317.05
 20
9394286.00
  0
VERTEX
  8
0IMP_DRE
 10
218347.92
 20
9394230.00
  0
VERTEX
  8
0IMP_DRE
 10
218366.36
 20
9394179.00
  0
VERTEX
  8
0IMP_DRE
 10
218403.44
 20
9394123.00
  0
VERTEX
  8
0IMP_DRE
 10
218428.11
 20
9394073.00
  0
VERTEX
  8
0IMP_DRE
 10
218477.50
 20
9393985.00
  0
VERTEX
  8
0IMP_DRE
 10
218520.78
 20
9393922.00
  0
VERTEX
  8
0IMP_DRE
 10
218582.83
 20
9393878.00
  0
VERTEX
  8
0IMP_DRE
 10
218644.88
 20
9393835.00
  0
VERTEX
  8
0IMP_DRE
 10
218700.75
 20
9393803.00
  0
VERTEX
  8
0IMP_DRE
 10
218775.22
 20
9393753.00
  0
VERTEX
  8
0IMP_DRE
 10
218831.09
 20
9393721.00
  0
VERTEX
  8
0IMP_DRE
 10
218893.19
 20
9393690.00
  0
VERTEX
  8
0IMP_DRE
 10
218961.55
 20
9393665.00
  0
VERTEX
  8
0IMP_DRE
 10
219023.70
 20
9393646.00
  0
VERTEX
  8
0IMP_DRE
 10
219079.52
 20
9393602.00
  0
VERTEX
  8
0IMP_DRE
 10
219135.39
 20
9393570.00
  0
VERTEX
  8
0IMP_DRE
 10
219178.70
 20
9393514.00
  0
VERTEX
  8
0IMP_DRE
 10
219215.83
 20
9393464.00
  0
VERTEX
  8
0IMP_DRE
 10
219271.59
 20
9393407.00
  0
VERTEX
  8
0IMP_DRE
 10
219296.25
 20
9393357.00
  0
VERTEX
  8
0IMP_DRE
 10
219339.56
 20
9393301.00
  0
VERTEX
  8
0IMP_DRE
 10
219370.44
 20
9393244.00
  0
VERTEX
  8
0IMP_DRE
 10
219401.33
 20
9393194.00
  0
VERTEX
  8
0IMP_DRE
 10
219450.86
 20
9393138.00
  0
VERTEX
  8
0IMP_DRE
 10
219475.52
 20
9393088.00
  0
VERTEX
  8
0IMP_DRE
 10
219512.61
 20
9393031.00
  0
VERTEX
  8
0IMP_DRE
 10
219543.47
 20
9392975.00
  0
VERTEX
  8
0IMP_DRE
 10
219686.38
 20
9392918.00
  0
SEQEND
  8
0IMP_DRE
  0
POLYLINE
  8
0IMP_DRE
 66
     1
  0
VERTEX
  8
0IMP_DRE
 10
223984.09
 20
9371933.00
  0
VERTEX
  8
0IMP_DRE
 10
223959.44
 20
9371983.00
  0
VERTEX
  8
0IMP_DRE
 10
223941.05
 20
9372046.00
  0
VERTEX
  8
0IMP_DRE
 10
223897.84
 20
9372127.00
  0
VERTEX
  8
0IMP_DRE
 10
223879.44
 20
9372183.00
  0
VERTEX
  8
0IMP_DRE
 10
223861.19
 20
9372277.00
  0
VERTEX
  8
0IMP_DRE
 10
223861.42
 20
9372327.00
  0
VERTEX
  8
0IMP_DRE
 10
223861.69
 20
9372384.00
  0
VERTEX
  8
0IMP_DRE
 10
223868.14
 20
9372434.00
  0
VERTEX
  8
0IMP_DRE
 10
223905.81
 20
9372502.00
  0
VERTEX
  8
0IMP_DRE
 10
223999.44
 20
9372558.00
  0
VERTEX
  8
0IMP_DRE
 10
224055.72
 20
9372615.00
  0
VERTEX
  8
0IMP_DRE
 10
224105.75
 20
9372665.00
  0
VERTEX
  8
0IMP_DRE
 10
224186.89
 20
9372714.00
  0
VERTEX
  8
0IMP_DRE
 10
224230.78
 20
9372783.00
  0
VERTEX
  8
0IMP_DRE
 10
224286.98
 20
9372820.00
  0
VERTEX
  8
0IMP_DRE
 10
224361.98
 20
9372889.00
  0
VERTEX
  8
0IMP_DRE
 10
224430.75
 20
9372951.00
  0
VERTEX
  8
0IMP_DRE
 10
224511.89
 20
9373001.00
  0
VERTEX
  8
0IMP_DRE
 10
224568.19
 20
9373057.00
  0
VERTEX
  8
0IMP_DRE
 10
224655.64
 20
9373126.00
  0
VERTEX
  8
0IMP_DRE
 10
224730.53
 20
9373170.00
  0
VERTEX
  8
0IMP_DRE
 10
224805.58
 20
9373244.00
  0
VERTEX
  8
0IMP_DRE
 10
224893.03
 20
9373313.00
  0
VERTEX
  8
0IMP_DRE
 10
224967.97
 20
9373363.00
  0
VERTEX
  8
0IMP_DRE
 10
225030.44
 20
9373413.00
  0
VERTEX
  8
0IMP_DRE
 10
225105.36
 20
9373463.00
  0
VERTEX
  8
0IMP_DRE
 10
225186.48
 20
9373506.00
  0
VERTEX
  8
0IMP_DRE
 10
225261.27
 20
9373525.00
  0
VERTEX
  8
0IMP_DRE
 10
225342.33
 20
9373556.00
  0
VERTEX
  8
0IMP_DRE
 10
225417.11
 20
9373574.00
  0
VERTEX
  8
0IMP_DRE
 10
225485.72
 20
9373606.00
  0
VERTEX
  8
0IMP_DRE
 10
225566.94
 20
9373668.00
  0
VERTEX
  8
0IMP_DRE
 10
225629.33
 20
9373699.00
  0
VERTEX
  8
0IMP_DRE
 10
225660.77
 20
9373768.00
  0
VERTEX
  8
0IMP_DRE
 10
225704.70
 20
9373849.00
  0
VERTEX
  8
0IMP_DRE
 10
225729.92
 20
9373918.00
  0
VERTEX
  8
0IMP_DRE
 10
225736.41
 20
9373974.00
  0
VERTEX
  8
0IMP_DRE
 10
225736.77
 20
9374049.00
  0
VERTEX
  8
0IMP_DRE
 10
225737.02
 20
9374105.00
  0
VERTEX
  8
0IMP_DRE
 10
225737.33
 20
9374174.00
  0
VERTEX
  8
0IMP_DRE
 10
225731.38
 20
9374231.00
  0
VERTEX
  8
0IMP_DRE
 10
225725.53
 20
9374312.00
  0
VERTEX
  8
0IMP_DRE
 10
225719.64
 20
9374387.00
  0
VERTEX
  8
0IMP_DRE
 10
225719.88
 20
9374437.00
  0
VERTEX
  8
0IMP_DRE
 10
225720.22
 20
9374512.00
  0
VERTEX
  8
0IMP_DRE
 10
225720.55
 20
9374581.00
  0
VERTEX
  8
0IMP_DRE
 10
225720.89
 20
9374656.00
  0
VERTEX
  8
0IMP_DRE
 10
225733.59
 20
9374712.00
  0
VERTEX
  8
0IMP_DRE
 10
225795.95
 20
9374737.00
  0
VERTEX
  8
0IMP_DRE
 10
225851.98
 20
9374737.00
  0
VERTEX
  8
0IMP_DRE
 10
225870.36
 20
9374674.00
  0
VERTEX
  8
0IMP_DRE
 10
225888.80
 20
9374624.00
  0
VERTEX
  8
0IMP_DRE
 10
225907.22
 20
9374568.00
  0
VERTEX
  8
0IMP_DRE
 10
225925.48
 20
9374480.00
  0
VERTEX
  8
0IMP_DRE
 10
225950.00
 20
9374399.00
  0
VERTEX
  8
0IMP_DRE
 10
225987.09
 20
9374342.00
  0
VERTEX
  8
0IMP_DRE
 10
226030.44
 20
9374292.00
  0
VERTEX
  8
0IMP_DRE
 10
226073.64
 20
9374211.00
  0
VERTEX
  8
0IMP_DRE
 10
226135.83
 20
9374198.00
  0
VERTEX
  8
0IMP_DRE
 10
226191.67
 20
9374160.00
  0
VERTEX
  8
0IMP_DRE
 10
226247.55
 20
9374129.00
  0
VERTEX
  8
0IMP_DRE
 10
226303.30
 20
9374073.00
  0
VERTEX
  8
0IMP_DRE
 10
226334.20
 20
9374022.00
  0
VERTEX
  8
0IMP_DRE
 10
226377.34
 20
9373928.00
  0
VERTEX
  8
0IMP_DRE
 10
226395.78
 20
9373878.00
  0
VERTEX
  8
0IMP_DRE
 10
226408.00
 20
9373828.00
  0
VERTEX
  8
0IMP_DRE
 10
226420.05
 20
9373741.00
  0
VERTEX
  8
0IMP_DRE
 10
226425.89
 20
9373659.00
  0
VERTEX
  8
0IMP_DRE
 10
226425.66
 20
9373609.00
  0
VERTEX
  8
0IMP_DRE
 10
226437.67
 20
9373515.00
  0
VERTEX
  8
0IMP_DRE
 10
226437.42
 20
9373459.00
  0
VERTEX
  8
0IMP_DRE
 10
226436.95
 20
9373359.00
  0
VERTEX
  8
0IMP_DRE
 10
226436.61
 20
9373284.00
  0
VERTEX
  8
0IMP_DRE
 10
226442.59
 20
9373234.00
  0
VERTEX
  8
0IMP_DRE
 10
226442.38
 20
9373184.00
  0
VERTEX
  8
0IMP_DRE
 10
226441.97
 20
9373096.00
  0
VERTEX
  8
0IMP_DRE
 10
226441.56
 20
9373008.00
  0
VERTEX
  8
0IMP_DRE
 10
226434.94
 20
9372921.00
  0
VERTEX
  8
0IMP_DRE
 10
226409.66
 20
9372840.00
  0
VERTEX
  8
0IMP_DRE
 10
226396.95
 20
9372783.00
  0
VERTEX
  8
0IMP_DRE
 10
226328.08
 20
9372696.00
  0
VERTEX
  8
0IMP_DRE
 10
226277.84
 20
9372602.00
  0
VERTEX
  8
0IMP_DRE
 10
226227.78
 20
9372546.00
  0
VERTEX
  8
0IMP_DRE
 10
226177.53
 20
9372446.00
  0
VERTEX
  8
0IMP_DRE
 10
226164.84
 20
9372396.00
  0
VERTEX
  8
0IMP_DRE
 10
226114.56
 20
9372290.00
  0
VERTEX
  8
0IMP_DRE
 10
226064.39
 20
9372209.00
  0
VERTEX
  8
0IMP_DRE
 10
226013.67
 20
9372008.00
  0
VERTEX
  8
0IMP_DRE
 10
226000.91
 20
9371940.00
  0
VERTEX
  8
0IMP_DRE
 10
225981.80
 20
9371846.00
  0
VERTEX
  8
0IMP_DRE
 10
225925.52
 20
9371790.00
  0
VERTEX
  8
0IMP_DRE
 10
225919.06
 20
9371740.00
  0
VERTEX
  8
0IMP_DRE
 10
225875.23
 20
9371684.00
  0
VERTEX
  8
0IMP_DRE
 10
225837.53
 20
9371609.00
  0
VERTEX
  8
0IMP_DRE
 10
225824.83
 20
9371552.00
  0
VERTEX
  8
0IMP_DRE
 10
225768.34
 20
9371452.00
  0
VERTEX
  8
0IMP_DRE
 10
225718.34
 20
9371409.00
  0
VERTEX
  8
0IMP_DRE
 10
225674.34
 20
9371315.00
  0
VERTEX
  8
0IMP_DRE
 10
225655.44
 20
9371265.00
  0
VERTEX
  8
0IMP_DRE
 10
225611.50
 20
9371184.00
  0
VERTEX
  8
0IMP_DRE
 10
225592.58
 20
9371134.00
  0
VERTEX
  8
0IMP_DRE
 10
225573.47
 20
9371040.00
  0
VERTEX
  8
0IMP_DRE
 10
225554.45
 20
9370965.00
  0
VERTEX
  8
0IMP_DRE
 10
225541.69
 20
9370896.00
  0
VERTEX
  8
0IMP_DRE
 10
225522.70
 20
9370827.00
  0
VERTEX
  8
0IMP_DRE
 10
225472.64
 20
9370771.00
  0
VERTEX
  8
0IMP_DRE
 10
225416.42
 20
9370727.00
  0
VERTEX
  8
0IMP_DRE
 10
225329.05
 20
9370678.00
  0
VERTEX
  8
0IMP_DRE
 10
225272.89
 20
9370647.00
  0
VERTEX
  8
0IMP_DRE
 10
225166.80
 20
9370591.00
  0
VERTEX
  8
0IMP_DRE
 10
225073.17
 20
9370534.00
  0
VERTEX
  8
0IMP_DRE
 10
224985.78
 20
9370478.00
  0
VERTEX
  8
0IMP_DRE
 10
224910.81
 20
9370422.00
  0
VERTEX
  8
0IMP_DRE
 10
224829.47
 20
9370329.00
  0
VERTEX
  8
0IMP_DRE
 10
224766.88
 20
9370254.00
  0
VERTEX
  8
0IMP_DRE
 10
224716.88
 20
9370210.00
  0
VERTEX
  8
0IMP_DRE
 10
224710.42
 20
9370160.00
  0
VERTEX
  8
0IMP_DRE
 10
224666.56
 20
9370098.00
  0
VERTEX
  8
0IMP_DRE
 10
224616.53
 20
9370048.00
  0
VERTEX
  8
0IMP_DRE
 10
224566.50
 20
9369998.00
  0
VERTEX
  8
0IMP_DRE
 10
224535.13
 20
9369942.00
  0
VERTEX
  8
0IMP_DRE
 10
224454.00
 20
9369898.00
  0
VERTEX
  8
0IMP_DRE
 10
224397.84
 20
9369867.00
  0
VERTEX
  8
0IMP_DRE
 10
224341.73
 20
9369848.00
  0
VERTEX
  8
0IMP_DRE
 10
224292.19
 20
9369905.00
  0
VERTEX
  8
0IMP_DRE
 10
224255.22
 20
9369986.00
  0
VERTEX
  8
0IMP_DRE
 10
224236.81
 20
9370042.00
  0
VERTEX
  8
0IMP_DRE
 10
224230.88
 20
9370105.00
  0
VERTEX
  8
0IMP_DRE
 10
224231.09
 20
9370155.00
  0
VERTEX
  8
0IMP_DRE
 10
224225.25
 20
9370236.00
  0
VERTEX
  8
0IMP_DRE
 10
224225.48
 20
9370287.00
  0
VERTEX
  8
0IMP_DRE
 10
224225.83
 20
9370362.00
  0
VERTEX
  8
0IMP_DRE
 10
224226.17
 20
9370437.00
  0
VERTEX
  8
0IMP_DRE
 10
224226.58
 20
9370524.00
  0
VERTEX
  8
0IMP_DRE
 10
224226.95
 20
9370606.00
  0
VERTEX
  8
0IMP_DRE
 10
224227.30
 20
9370681.00
  0
VERTEX
  8
0IMP_DRE
 10
224227.53
 20
9370731.00
  0
VERTEX
  8
0IMP_DRE
 10
224227.84
 20
9370800.00
  0
VERTEX
  8
0IMP_DRE
 10
224228.11
 20
9370856.00
  0
VERTEX
  8
0IMP_DRE
 10
224228.42
 20
9370925.00
  0
VERTEX
  8
0IMP_DRE
 10
224228.66
 20
9370975.00
  0
VERTEX
  8
0IMP_DRE
 10
224222.75
 20
9371044.00
  0
VERTEX
  8
0IMP_DRE
 10
224204.45
 20
9371125.00
  0
VERTEX
  8
0IMP_DRE
 10
224192.30
 20
9371188.00
  0
VERTEX
  8
0IMP_DRE
 10
224180.08
 20
9371238.00
  0
VERTEX
  8
0IMP_DRE
 10
224167.86
 20
9371288.00
  0
VERTEX
  8
0IMP_DRE
 10
224155.64
 20
9371338.00
  0
VERTEX
  8
0IMP_DRE
 10
224137.20
 20
9371388.00
  0
VERTEX
  8
0IMP_DRE
 10
224125.06
 20
9371457.00
  0
VERTEX
  8
0IMP_DRE
 10
224100.52
 20
9371532.00
  0
VERTEX
  8
0IMP_DRE
 10
224082.08
 20
9371582.00
  0
VERTEX
  8
0IMP_DRE
 10
224063.63
 20
9371632.00
  0
VERTEX
  8
0IMP_DRE
 10
224057.64
 20
9371682.00
  0
VERTEX
  8
0IMP_DRE
 10
224033.14
 20
9371770.00
  0
VERTEX
  8
0IMP_DRE
 10
224002.39
 20
9371851.00
  0
VERTEX
  8
0IMP_DRE
 10
223990.20
 20
9371908.00
  0
VERTEX
  8
0IMP_DRE
 10
223984.09
 20
9371933.00
  0
SEQEND
  8
0IMP_DRE
  0
POLYLINE
  8
0IMP_DRE
 66
     1
  0
VERTEX
  8
0IMP_DRE
 10
223557.16
 20
9368443.00
  0
VERTEX
  8
0IMP_DRE
 10
223563.73
 20
9368518.00
  0
VERTEX
  8
0IMP_DRE
 10
223576.56
 20
9368599.00
  0
VERTEX
  8
0IMP_DRE
 10
223583.02
 20
9368649.00
  0
VERTEX
  8
0IMP_DRE
 10
223583.25
 20
9368699.00
  0
VERTEX
  8
0IMP_DRE
 10
223589.78
 20
9368768.00
  0
VERTEX
  8
0IMP_DRE
 10
223608.88
 20
9368855.00
  0
VERTEX
  8
0IMP_DRE
 10
223627.89
 20
9368930.00
  0
VERTEX
  8
0IMP_DRE
 10
223646.97
 20
9369018.00
  0
VERTEX
  8
0IMP_DRE
 10
223665.98
 20
9369093.00
  0
VERTEX
  8
0IMP_DRE
 10
223678.84
 20
9369181.00
  0
VERTEX
  8
0IMP_DRE
 10
223691.61
 20
9369249.00
  0
VERTEX
  8
0IMP_DRE
 10
223698.06
 20
9369299.00
  0
VERTEX
  8
0IMP_DRE
 10
223704.61
 20
9369368.00
  0
VERTEX
  8
0IMP_DRE
 10
223711.14
 20
9369437.00
  0
VERTEX
  8
0IMP_DRE
 10
223717.66
 20
9369500.00
  0
VERTEX
  8
0IMP_DRE
 10
223724.28
 20
9369587.00
  0
VERTEX
  8
0IMP_DRE
 10
223724.63
 20
9369662.00
  0
VERTEX
  8
0IMP_DRE
 10
223724.89
 20
9369719.00
  0
VERTEX
  8
0IMP_DRE
 10
223725.19
 20
9369781.00
  0
VERTEX
  8
0IMP_DRE
 10
223725.56
 20
9369862.00
  0
VERTEX
  8
0IMP_DRE
 10
223725.88
 20
9369931.00
  0
VERTEX
  8
0IMP_DRE
 10
223726.22
 20
9370006.00
  0
VERTEX
  8
0IMP_DRE
 10
223714.09
 20
9370075.00
  0
VERTEX
  8
0IMP_DRE
 10
223695.77
 20
9370150.00
  0
VERTEX
  8
0IMP_DRE
 10
223683.64
 20
9370219.00
  0
VERTEX
  8
0IMP_DRE
 10
223671.42
 20
9370269.00
  0
VERTEX
  8
0IMP_DRE
 10
223659.22
 20
9370326.00
  0
VERTEX
  8
0IMP_DRE
 10
223640.78
 20
9370376.00
  0
VERTEX
  8
0IMP_DRE
 10
223622.38
 20
9370432.00
  0
VERTEX
  8
0IMP_DRE
 10
223597.81
 20
9370507.00
  0
VERTEX
  8
0IMP_DRE
 10
223560.70
 20
9370557.00
  0
VERTEX
  8
0IMP_DRE
 10
223536.06
 20
9370614.00
  0
VERTEX
  8
0IMP_DRE
 10
223492.72
 20
9370664.00
  0
VERTEX
  8
0IMP_DRE
 10
223461.83
 20
9370714.00
  0
VERTEX
  8
0IMP_DRE
 10
223431.03
 20
9370783.00
  0
VERTEX
  8
0IMP_DRE
 10
223406.53
 20
9370871.00
  0
VERTEX
  8
0IMP_DRE
 10
223381.98
 20
9370946.00
  0
VERTEX
  8
0IMP_DRE
 10
223363.53
 20
9370996.00
  0
VERTEX
  8
0IMP_DRE
 10
223351.31
 20
9371046.00
  0
VERTEX
  8
0IMP_DRE
 10
223332.88
 20
9371096.00
  0
VERTEX
  8
0IMP_DRE
 10
223320.69
 20
9371152.00
  0
VERTEX
  8
0IMP_DRE
 10
223308.61
 20
9371234.00
  0
VERTEX
  8
0IMP_DRE
 10
223302.63
 20
9371284.00
  0
VERTEX
  8
0IMP_DRE
 10
223296.78
 20
9371365.00
  0
VERTEX
  8
0IMP_DRE
 10
223297.00
 20
9371415.00
  0
VERTEX
  8
0IMP_DRE
 10
223291.02
 20
9371465.00
  0
VERTEX
  8
0IMP_DRE
 10
223291.27
 20
9371522.00
  0
VERTEX
  8
0IMP_DRE
 10
223291.53
 20
9371578.00
  0
VERTEX
  8
0IMP_DRE
 10
223291.91
 20
9371659.00
  0
VERTEX
  8
0IMP_DRE
 10
223292.22
 20
9371728.00
  0
VERTEX
  8
0IMP_DRE
 10
223292.53
 20
9371797.00
  0
VERTEX
  8
0IMP_DRE
 10
223292.89
 20
9371872.00
  0
VERTEX
  8
0IMP_DRE
 10
223293.17
 20
9371935.00
  0
VERTEX
  8
0IMP_DRE
 10
223299.73
 20
9372010.00
  0
VERTEX
  8
0IMP_DRE
 10
223306.31
 20
9372085.00
  0
VERTEX
  8
0IMP_DRE
 10
223312.86
 20
9372154.00
  0
VERTEX
  8
0IMP_DRE
 10
223319.41
 20
9372222.00
  0
VERTEX
  8
0IMP_DRE
 10
223325.94
 20
9372291.00
  0
VERTEX
  8
0IMP_DRE
 10
223345.03
 20
9372379.00
  0
VERTEX
  8
0IMP_DRE
 10
223363.92
 20
9372429.00
  0
VERTEX
  8
0IMP_DRE
 10
223382.86
 20
9372485.00
  0
VERTEX
  8
0IMP_DRE
 10
223401.83
 20
9372548.00
  0
VERTEX
  8
0IMP_DRE
 10
223433.23
 20
9372610.00
  0
VERTEX
  8
0IMP_DRE
 10
223452.14
 20
9372660.00
  0
VERTEX
  8
0IMP_DRE
 10
223495.97
 20
9372716.00
  0
VERTEX
  8
0IMP_DRE
 10
223546.17
 20
9372804.00
  0
VERTEX
  8
0IMP_DRE
 10
223596.22
 20
9372860.00
  0
VERTEX
  8
0IMP_DRE
 10
223652.47
 20
9372910.00
  0
VERTEX
  8
0IMP_DRE
 10
223702.50
 20
9372960.00
  0
VERTEX
  8
0IMP_DRE
 10
223764.98
 20
9373010.00
  0
VERTEX
  8
0IMP_DRE
 10
223839.83
 20
9373041.00
  0
VERTEX
  8
0IMP_DRE
 10
223920.89
 20
9373072.00
  0
VERTEX
  8
0IMP_DRE
 10
223995.81
 20
9373122.00
  0
VERTEX
  8
0IMP_DRE
 10
224058.14
 20
9373140.00
  0
VERTEX
  8
0IMP_DRE
 10
224114.25
 20
9373159.00
  0
VERTEX
  8
0IMP_DRE
 10
224201.56
 20
9373196.00
  0
VERTEX
  8
0IMP_DRE
 10
224282.72
 20
9373246.00
  0
VERTEX
  8
0IMP_DRE
 10
224363.80
 20
9373283.00
  0
VERTEX
  8
0IMP_DRE
 10
224413.84
 20
9373333.00
  0
VERTEX
  8
0IMP_DRE
 10
224469.97
 20
9373358.00
  0
VERTEX
  8
0IMP_DRE
 10
224526.22
 20
9373408.00
  0
VERTEX
  8
0IMP_DRE
 10
224576.25
 20
9373458.00
  0
VERTEX
  8
0IMP_DRE
 10
224651.20
 20
9373514.00
  0
VERTEX
  8
0IMP_DRE
 10
224707.38
 20
9373545.00
  0
VERTEX
  8
0IMP_DRE
 10
224757.41
 20
9373595.00
  0
VERTEX
  8
0IMP_DRE
 10
224825.95
 20
9373614.00
  0
VERTEX
  8
0IMP_DRE
 10
224888.41
 20
9373657.00
  0
VERTEX
  8
0IMP_DRE
 10
224975.69
 20
9373688.00
  0
VERTEX
  8
0IMP_DRE
 10
225044.39
 20
9373738.00
  0
VERTEX
  8
0IMP_DRE
 10
225125.55
 20
9373788.00
  0
VERTEX
  8
0IMP_DRE
 10
225225.48
 20
9373863.00
  0
VERTEX
  8
0IMP_DRE
 10
225306.66
 20
9373919.00
  0
VERTEX
  8
0IMP_DRE
 10
225369.19
 20
9373981.00
  0
VERTEX
  8
0IMP_DRE
 10
225388.25
 20
9374063.00
  0
VERTEX
  8
0IMP_DRE
 10
225450.89
 20
9374150.00
  0
VERTEX
  8
0IMP_DRE
 10
225463.69
 20
9374225.00
  0
VERTEX
  8
0IMP_DRE
 10
225482.73
 20
9374306.00
  0
VERTEX
  8
0IMP_DRE
 10
225489.19
 20
9374356.00
  0
VERTEX
  8
0IMP_DRE
 10
225489.45
 20
9374413.00
  0
VERTEX
  8
0IMP_DRE
 10
225489.83
 20
9374494.00
  0
VERTEX
  8
0IMP_DRE
 10
225490.20
 20
9374575.00
  0
VERTEX
  8
0IMP_DRE
 10
225490.50
 20
9374638.00
  0
VERTEX
  8
0IMP_DRE
 10
225490.86
 20
9374719.00
  0
VERTEX
  8
0IMP_DRE
 10
225491.09
 20
9374769.00
  0
VERTEX
  8
0IMP_DRE
 10
225491.44
 20
9374844.00
  0
VERTEX
  8
0IMP_DRE
 10
225491.70
 20
9374901.00
  0
VERTEX
  8
0IMP_DRE
 10
225491.94
 20
9374951.00
  0
VERTEX
  8
0IMP_DRE
 10
225492.16
 20
9375001.00
  0
VERTEX
  8
0IMP_DRE
 10
225492.42
 20
9375057.00
  0
VERTEX
  8
0IMP_DRE
 10
225492.75
 20
9375126.00
  0
VERTEX
  8
0IMP_DRE
 10
225493.00
 20
9375182.00
  0
VERTEX
  8
0IMP_DRE
 10
225493.23
 20
9375232.00
  0
VERTEX
  8
0IMP_DRE
 10
225487.28
 20
9375289.00
  0
VERTEX
  8
0IMP_DRE
 10
225475.09
 20
9375345.00
  0
VERTEX
  8
0IMP_DRE
 10
225462.95
 20
9375414.00
  0
VERTEX
  8
0IMP_DRE
 10
225425.95
 20
9375489.00
  0
VERTEX
  8
0IMP_DRE
 10
225407.50
 20
9375539.00
  0
VERTEX
  8
0IMP_DRE
 10
225389.06
 20
9375589.00
  0
VERTEX
  8
0IMP_DRE
 10
225383.19
 20
9375664.00
  0
VERTEX
  8
0IMP_DRE
 10
225377.33
 20
9375746.00
  0
VERTEX
  8
0IMP_DRE
 10
225377.80
 20
9375846.00
  0
VERTEX
  8
0IMP_DRE
 10
225378.27
 20
9375946.00
  0
VERTEX
  8
0IMP_DRE
 10
225378.52
 20
9376002.00
  0
VERTEX
  8
0IMP_DRE
 10
225378.86
 20
9376077.00
  0
VERTEX
  8
0IMP_DRE
 10
225379.09
 20
9376127.00
  0
VERTEX
  8
0IMP_DRE
 10
225379.47
 20
9376209.00
  0
VERTEX
  8
0IMP_DRE
 10
225379.70
 20
9376259.00
  0
VERTEX
  8
0IMP_DRE
 10
225367.52
 20
9376315.00
  0
VERTEX
  8
0IMP_DRE
 10
225349.09
 20
9376371.00
  0
VERTEX
  8
0IMP_DRE
 10
225324.44
 20
9376422.00
  0
VERTEX
  8
0IMP_DRE
 10
225299.77
 20
9376472.00
  0
VERTEX
  8
0IMP_DRE
 10
225262.69
 20
9376528.00
  0
VERTEX
  8
0IMP_DRE
 10
225238.05
 20
9376585.00
  0
VERTEX
  8
0IMP_DRE
 10
225207.16
 20
9376635.00
  0
VERTEX
  8
0IMP_DRE
 10
225176.25
 20
9376685.00
  0
VERTEX
  8
0IMP_DRE
 10
225139.27
 20
9376760.00
  0
VERTEX
  8
0IMP_DRE
 10
225120.95
 20
9376841.00
  0
VERTEX
  8
0IMP_DRE
 10
225096.44
 20
9376923.00
  0
VERTEX
  8
0IMP_DRE
 10
225090.44
 20
9376973.00
  0
VERTEX
  8
0IMP_DRE
 10
225078.23
 20
9377023.00
  0
VERTEX
  8
0IMP_DRE
 10
225072.22
 20
9377073.00
  0
VERTEX
  8
0IMP_DRE
 10
225060.16
 20
9377154.00
  0
VERTEX
  8
0IMP_DRE
 10
225060.39
 20
9377204.00
  0
VERTEX
  8
0IMP_DRE
 10
225054.52
 20
9377280.00
  0
VERTEX
  8
0IMP_DRE
 10
225048.64
 20
9377355.00
  0
VERTEX
  8
0IMP_DRE
 10
225048.86
 20
9377405.00
  0
VERTEX
  8
0IMP_DRE
 10
225049.11
 20
9377455.00
  0
VERTEX
  8
0IMP_DRE
 10
225049.47
 20
9377536.00
  0
VERTEX
  8
0IMP_DRE
 10
225049.83
 20
9377611.00
  0
VERTEX
  8
0IMP_DRE
 10
225050.05
 20
9377661.00
  0
VERTEX
  8
0IMP_DRE
 10
225050.28
 20
9377711.00
  0
VERTEX
  8
0IMP_DRE
 10
225050.63
 20
9377786.00
  0
VERTEX
  8
0IMP_DRE
 10
225032.23
 20
9377849.00
  0
VERTEX
  8
0IMP_DRE
 10
224995.25
 20
9377924.00
  0
VERTEX
  8
0IMP_DRE
 10
224964.50
 20
9378006.00
  0
VERTEX
  8
0IMP_DRE
 10
224927.44
 20
9378068.00
  0
VERTEX
  8
0IMP_DRE
 10
224902.88
 20
9378143.00
  0
VERTEX
  8
0IMP_DRE
 10
224878.36
 20
9378225.00
  0
VERTEX
  8
0IMP_DRE
 10
224841.33
 20
9378294.00
  0
VERTEX
  8
0IMP_DRE
 10
224835.34
 20
9378344.00
  0
VERTEX
  8
0IMP_DRE
 10
224823.33
 20
9378438.00
  0
VERTEX
  8
0IMP_DRE
 10
224804.97
 20
9378507.00
  0
VERTEX
  8
0IMP_DRE
 10
224786.67
 20
9378588.00
  0
VERTEX
  8
0IMP_DRE
 10
224768.33
 20
9378663.00
  0
VERTEX
  8
0IMP_DRE
 10
224750.02
 20
9378738.00
  0
VERTEX
  8
0IMP_DRE
 10
224737.80
 20
9378788.00
  0
VERTEX
  8
0IMP_DRE
 10
224725.58
 20
9378838.00
  0
VERTEX
  8
0IMP_DRE
 10
224719.59
 20
9378889.00
  0
VERTEX
  8
0IMP_DRE
 10
224707.45
 20
9378957.00
  0
VERTEX
  8
0IMP_DRE
 10
224689.16
 20
9379039.00
  0
VERTEX
  8
0IMP_DRE
 10
224683.22
 20
9379101.00
  0
VERTEX
  8
0IMP_DRE
 10
224677.38
 20
9379183.00
  0
VERTEX
  8
0IMP_DRE
 10
224665.16
 20
9379233.00
  0
VERTEX
  8
0IMP_DRE
 10
224659.19
 20
9379289.00
  0
VERTEX
  8
0IMP_DRE
 10
224647.23
 20
9379396.00
  0
VERTEX
  8
0IMP_DRE
 10
224641.33
 20
9379464.00
  0
VERTEX
  8
0IMP_DRE
 10
224635.47
 20
9379546.00
  0
VERTEX
  8
0IMP_DRE
 10
224623.27
 20
9379596.00
  0
VERTEX
  8
0IMP_DRE
 10
224623.48
 20
9379646.00
  0
VERTEX
  8
0IMP_DRE
 10
224611.41
 20
9379727.00
  0
VERTEX
  8
0IMP_DRE
 10
224599.34
 20
9379809.00
  0
VERTEX
  8
0IMP_DRE
 10
224587.27
 20
9379890.00
  0
VERTEX
  8
0IMP_DRE
 10
224581.39
 20
9379965.00
  0
VERTEX
  8
0IMP_DRE
 10
224575.39
 20
9380015.00
  0
VERTEX
  8
0IMP_DRE
 10
224569.44
 20
9380072.00
  0
VERTEX
  8
0IMP_DRE
 10
224563.61
 20
9380159.00
  0
VERTEX
  8
0IMP_DRE
 10
224545.31
 20
9380241.00
  0
VERTEX
  8
0IMP_DRE
 10
224539.38
 20
9380303.00
  0
VERTEX
  8
0IMP_DRE
 10
224533.47
 20
9380372.00
  0
VERTEX
  8
0IMP_DRE
 10
224521.42
 20
9380460.00
  0
VERTEX
  8
0IMP_DRE
 10
224509.30
 20
9380528.00
  0
VERTEX
  8
0IMP_DRE
 10
224497.19
 20
9380604.00
  0
VERTEX
  8
0IMP_DRE
 10
224491.19
 20
9380654.00
  0
VERTEX
  8
0IMP_DRE
 10
224479.06
 20
9380722.00
  0
VERTEX
  8
0IMP_DRE
 10
224473.08
 20
9380773.00
  0
VERTEX
  8
0IMP_DRE
 10
224473.39
 20
9380841.00
  0
VERTEX
  8
0IMP_DRE
 10
224467.50
 20
9380916.00
  0
VERTEX
  8
0IMP_DRE
 10
224461.61
 20
9380985.00
  0
VERTEX
  8
0IMP_DRE
 10
224455.72
 20
9381060.00
  0
VERTEX
  8
0IMP_DRE
 10
224437.31
 20
9381117.00
  0
VERTEX
  8
0IMP_DRE
 10
224425.20
 20
9381192.00
  0
VERTEX
  8
0IMP_DRE
 10
224419.22
 20
9381242.00
  0
VERTEX
  8
0IMP_DRE
 10
224400.77
 20
9381292.00
  0
VERTEX
  8
0IMP_DRE
 10
224394.78
 20
9381342.00
  0
VERTEX
  8
0IMP_DRE
 10
224382.56
 20
9381392.00
  0
VERTEX
  8
0IMP_DRE
 10
224376.66
 20
9381461.00
  0
VERTEX
  8
0IMP_DRE
 10
224376.89
 20
9381511.00
  0
VERTEX
  8
0IMP_DRE
 10
224370.89
 20
9381561.00
  0
VERTEX
  8
0IMP_DRE
 10
224371.13
 20
9381611.00
  0
VERTEX
  8
0IMP_DRE
 10
224365.16
 20
9381668.00
  0
VERTEX
  8
0IMP_DRE
 10
224365.45
 20
9381730.00
  0
VERTEX
  8
0IMP_DRE
 10
224365.83
 20
9381812.00
  0
VERTEX
  8
0IMP_DRE
 10
224366.06
 20
9381862.00
  0
VERTEX
  8
0IMP_DRE
 10
224366.38
 20
9381930.00
  0
VERTEX
  8
0IMP_DRE
 10
224366.61
 20
9381980.00
  0
VERTEX
  8
0IMP_DRE
 10
224366.95
 20
9382056.00
  0
VERTEX
  8
0IMP_DRE
 10
224367.33
 20
9382137.00
  0
VERTEX
  8
0IMP_DRE
 10
224367.70
 20
9382218.00
  0
VERTEX
  8
0IMP_DRE
 10
224380.52
 20
9382300.00
  0
VERTEX
  8
0IMP_DRE
 10
224393.34
 20
9382381.00
  0
VERTEX
  8
0IMP_DRE
 10
224418.63
 20
9382462.00
  0
VERTEX
  8
0IMP_DRE
 10
224437.67
 20
9382543.00
  0
VERTEX
  8
0IMP_DRE
 10
224462.92
 20
9382618.00
  0
VERTEX
  8
0IMP_DRE
 10
224481.97
 20
9382700.00
  0
VERTEX
  8
0IMP_DRE
 10
224500.98
 20
9382775.00
  0
VERTEX
  8
0IMP_DRE
 10
224526.27
 20
9382856.00
  0
VERTEX
  8
0IMP_DRE
 10
224551.53
 20
9382937.00
  0
VERTEX
  8
0IMP_DRE
 10
224570.48
 20
9383000.00
  0
VERTEX
  8
0IMP_DRE
 10
224583.17
 20
9383050.00
  0
VERTEX
  8
0IMP_DRE
 10
224602.16
 20
9383119.00
  0
VERTEX
  8
0IMP_DRE
 10
224614.86
 20
9383169.00
  0
VERTEX
  8
0IMP_DRE
 10
224633.89
 20
9383250.00
  0
VERTEX
  8
0IMP_DRE
 10
224646.64
 20
9383312.00
  0
VERTEX
  8
0IMP_DRE
 10
224665.73
 20
9383406.00
  0
VERTEX
  8
0IMP_DRE
 10
224678.58
 20
9383488.00
  0
VERTEX
  8
0IMP_DRE
 10
224691.36
 20
9383563.00
  0
VERTEX
  8
0IMP_DRE
 10
224704.08
 20
9383619.00
  0
VERTEX
  8
0IMP_DRE
 10
224716.75
 20
9383669.00
  0
VERTEX
  8
0IMP_DRE
 10
224729.42
 20
9383719.00
  0
VERTEX
  8
0IMP_DRE
 10
224735.89
 20
9383769.00
  0
VERTEX
  8
0IMP_DRE
 10
224736.14
 20
9383825.00
  0
VERTEX
  8
0IMP_DRE
 10
224748.86
 20
9383882.00
  0
VERTEX
  8
0IMP_DRE
 10
224755.36
 20
9383944.00
  0
VERTEX
  8
0IMP_DRE
 10
224755.61
 20
9383994.00
  0
VERTEX
  8
0IMP_DRE
 10
224762.08
 20
9384050.00
  0
VERTEX
  8
0IMP_DRE
 10
224762.42
 20
9384126.00
  0
VERTEX
  8
0IMP_DRE
 10
224762.66
 20
9384176.00
  0
VERTEX
  8
0IMP_DRE
 10
224763.00
 20
9384251.00
  0
VERTEX
  8
0IMP_DRE
 10
224763.34
 20
9384326.00
  0
VERTEX
  8
0IMP_DRE
 10
224763.70
 20
9384401.00
  0
VERTEX
  8
0IMP_DRE
 10
224763.98
 20
9384463.00
  0
VERTEX
  8
0IMP_DRE
 10
224739.47
 20
9384545.00
  0
VERTEX
  8
0IMP_DRE
 10
224727.36
 20
9384620.00
  0
VERTEX
  8
0IMP_DRE
 10
224721.38
 20
9384670.00
  0
VERTEX
  8
0IMP_DRE
 10
224709.27
 20
9384745.00
  0
VERTEX
  8
0IMP_DRE
 10
224690.86
 20
9384801.00
  0
VERTEX
  8
0IMP_DRE
 10
224672.47
 20
9384864.00
  0
VERTEX
  8
0IMP_DRE
 10
224635.38
 20
9384920.00
  0
VERTEX
  8
0IMP_DRE
 10
224616.95
 20
9384971.00
  0
VERTEX
  8
0IMP_DRE
 10
224592.28
 20
9385021.00
  0
VERTEX
  8
0IMP_DRE
 10
224567.61
 20
9385071.00
  0
VERTEX
  8
0IMP_DRE
 10
224536.72
 20
9385121.00
  0
VERTEX
  8
0IMP_DRE
 10
224512.08
 20
9385177.00
  0
VERTEX
  8
0IMP_DRE
 10
224481.19
 20
9385228.00
  0
VERTEX
  8
0IMP_DRE
 10
224437.95
 20
9385303.00
  0
VERTEX
  8
0IMP_DRE
 10
224400.88
 20
9385359.00
  0
VERTEX
  8
0IMP_DRE
 10
224357.56
 20
9385416.00
  0
VERTEX
  8
0IMP_DRE
 10
224289.44
 20
9385491.00
  0
VERTEX
  8
0IMP_DRE
 10
224239.95
 20
9385560.00
  0
VERTEX
  8
0IMP_DRE
 10
224215.30
 20
9385610.00
  0
VERTEX
  8
0IMP_DRE
 10
224172.06
 20
9385685.00
  0
VERTEX
  8
0IMP_DRE
 10
224122.63
 20
9385760.00
  0
VERTEX
  8
0IMP_DRE
 10
224073.14
 20
9385829.00
  0
VERTEX
  8
0IMP_DRE
 10
224017.48
 20
9385911.00
  0
VERTEX
  8
0IMP_DRE
 10
223986.72
 20
9385986.00
  0
VERTEX
  8
0IMP_DRE
 10
223943.38
 20
9386036.00
  0
VERTEX
  8
0IMP_DRE
 10
223918.70
 20
9386086.00
  0
VERTEX
  8
0IMP_DRE
 10
223875.39
 20
9386143.00
  0
VERTEX
  8
0IMP_DRE
 10
223844.50
 20
9386193.00
  0
VERTEX
  8
0IMP_DRE
 10
223813.64
 20
9386249.00
  0
VERTEX
  8
0IMP_DRE
 10
223782.78
 20
9386306.00
  0
VERTEX
  8
0IMP_DRE
 10
223751.89
 20
9386356.00
  0
VERTEX
  8
0IMP_DRE
 10
223708.69
 20
9386437.00
  0
VERTEX
  8
0IMP_DRE
 10
223677.80
 20
9386487.00
  0
VERTEX
  8
0IMP_DRE
 10
223646.91
 20
9386538.00
  0
VERTEX
  8
0IMP_DRE
 10
223628.47
 20
9386588.00
  0
VERTEX
  8
0IMP_DRE
 10
223610.05
 20
9386644.00
  0
VERTEX
  8
0IMP_DRE
 10
223572.97
 20
9386700.00
  0
VERTEX
  8
0IMP_DRE
 10
223554.67
 20
9386782.00
  0
VERTEX
  8
0IMP_DRE
 10
223523.92
 20
9386863.00
  0
VERTEX
  8
0IMP_DRE
 10
223499.39
 20
9386945.00
  0
VERTEX
  8
0IMP_DRE
 10
223474.84
 20
9387020.00
  0
VERTEX
  8
0IMP_DRE
 10
223462.63
 20
9387070.00
  0
VERTEX
  8
0IMP_DRE
 10
223438.08
 20
9387145.00
  0
VERTEX
  8
0IMP_DRE
 10
223419.72
 20
9387214.00
  0
VERTEX
  8
0IMP_DRE
 10
223401.31
 20
9387270.00
  0
VERTEX
  8
0IMP_DRE
 10
223376.78
 20
9387352.00
  0
VERTEX
  8
0IMP_DRE
 10
223345.92
 20
9387408.00
  0
VERTEX
  8
0IMP_DRE
 10
223327.48
 20
9387458.00
  0
VERTEX
  8
0IMP_DRE
 10
223296.59
 20
9387508.00
  0
VERTEX
  8
0IMP_DRE
 10
223278.14
 20
9387558.00
  0
VERTEX
  8
0IMP_DRE
 10
223253.59
 20
9387634.00
  0
VERTEX
  8
0IMP_DRE
 10
223228.92
 20
9387684.00
  0
VERTEX
  8
0IMP_DRE
 10
223204.27
 20
9387734.00
  0
VERTEX
  8
0IMP_DRE
 10
223173.52
 20
9387815.00
  0
VERTEX
  8
0IMP_DRE
 10
223148.84
 20
9387865.00
  0
VERTEX
  8
0IMP_DRE
 10
223124.17
 20
9387916.00
  0
VERTEX
  8
0IMP_DRE
 10
223049.89
 20
9388003.00
  0
VERTEX
  8
0IMP_DRE
 10
223037.81
 20
9388085.00
  0
VERTEX
  8
0IMP_DRE
 10
222988.36
 20
9388160.00
  0
VERTEX
  8
0IMP_DRE
 10
222982.38
 20
9388210.00
  0
VERTEX
  8
0IMP_DRE
 10
222964.02
 20
9388279.00
  0
VERTEX
  8
0IMP_DRE
 10
222914.59
 20
9388360.00
  0
VERTEX
  8
0IMP_DRE
 10
222896.23
 20
9388429.00
  0
VERTEX
  8
0IMP_DRE
 10
222846.70
 20
9388486.00
  0
VERTEX
  8
0IMP_DRE
 10
222759.88
 20
9388555.00
  0
VERTEX
  8
0IMP_DRE
 10
222716.53
 20
9388605.00
  0
VERTEX
  8
0IMP_DRE
 10
222667.00
 20
9388661.00
  0
VERTEX
  8
0IMP_DRE
 10
222604.89
 20
9388693.00
  0
VERTEX
  8
0IMP_DRE
 10
222555.33
 20
9388743.00
  0
VERTEX
  8
0IMP_DRE
 10
222474.61
 20
9388787.00
  0
VERTEX
  8
0IMP_DRE
 10
222431.30
 20
9388843.00
  0
VERTEX
  8
0IMP_DRE
 10
222369.20
 20
9388875.00
  0
VERTEX
  8
0IMP_DRE
 10
222332.08
 20
9388925.00
  0
VERTEX
  8
0IMP_DRE
 10
222276.23
 20
9388963.00
  0
VERTEX
  8
0IMP_DRE
 10
222214.22
 20
9389013.00
  0
VERTEX
  8
0IMP_DRE
 10
222121.03
 20
9389051.00
  0
VERTEX
  8
0IMP_DRE
 10
222065.27
 20
9389107.00
  0
VERTEX
  8
0IMP_DRE
 10
222022.06
 20
9389189.00
  0
VERTEX
  8
0IMP_DRE
 10
221991.23
 20
9389251.00
  0
VERTEX
  8
0IMP_DRE
 10
221972.88
 20
9389320.00
  0
VERTEX
  8
0IMP_DRE
 10
221942.08
 20
9389389.00
  0
VERTEX
  8
0IMP_DRE
 10
221923.63
 20
9389439.00
  0
VERTEX
  8
0IMP_DRE
 10
221898.97
 20
9389489.00
  0
VERTEX
  8
0IMP_DRE
 10
221886.75
 20
9389540.00
  0
VERTEX
  8
0IMP_DRE
 10
221862.14
 20
9389602.00
  0
VERTEX
  8
0IMP_DRE
 10
221831.28
 20
9389659.00
  0
VERTEX
  8
0IMP_DRE
 10
221800.39
 20
9389709.00
  0
VERTEX
  8
0IMP_DRE
 10
221769.50
 20
9389759.00
  0
VERTEX
  8
0IMP_DRE
 10
221713.81
 20
9389834.00
  0
VERTEX
  8
0IMP_DRE
 10
221657.86
 20
9389847.00
  0
VERTEX
  8
0IMP_DRE
 10
221602.02
 20
9389884.00
  0
VERTEX
  8
0IMP_DRE
 10
221515.09
 20
9389935.00
  0
VERTEX
  8
0IMP_DRE
 10
221459.22
 20
9389966.00
  0
VERTEX
  8
0IMP_DRE
 10
221378.50
 20
9390010.00
  0
VERTEX
  8
0IMP_DRE
 10
221328.94
 20
9390060.00
  0
VERTEX
  8
0IMP_DRE
 10
221273.06
 20
9390092.00
  0
VERTEX
  8
0IMP_DRE
 10
221217.19
 20
9390123.00
  0
VERTEX
  8
0IMP_DRE
 10
221123.95
 20
9390155.00
  0
VERTEX
  8
0IMP_DRE
 10
221061.80
 20
9390174.00
  0
VERTEX
  8
0IMP_DRE
 10
220999.70
 20
9390205.00
  0
VERTEX
  8
0IMP_DRE
 10
220931.34
 20
9390230.00
  0
VERTEX
  8
0IMP_DRE
 10
220869.34
 20
9390281.00
  0
VERTEX
  8
0IMP_DRE
 10
220813.45
 20
9390312.00
  0
VERTEX
  8
0IMP_DRE
 10
220751.41
 20
9390356.00
  0
VERTEX
  8
0IMP_DRE
 10
220695.52
 20
9390381.00
  0
VERTEX
  8
0IMP_DRE
 10
220633.52
 20
9390438.00
  0
VERTEX
  8
0IMP_DRE
 10
220584.05
 20
9390507.00
  0
VERTEX
  8
0IMP_DRE
 10
220534.48
 20
9390557.00
  0
VERTEX
  8
0IMP_DRE
 10
220503.58
 20
9390607.00
  0
VERTEX
  8
0IMP_DRE
 10
220466.61
 20
9390688.00
  0
VERTEX
  8
0IMP_DRE
 10
220423.42
 20
9390770.00
  0
VERTEX
  8
0IMP_DRE
 10
220380.19
 20
9390845.00
  0
VERTEX
  8
0IMP_DRE
 10
220349.39
 20
9390914.00
  0
VERTEX
  8
0IMP_DRE
 10
220324.75
 20
9390970.00
  0
VERTEX
  8
0IMP_DRE
 10
220293.86
 20
9391021.00
  0
VERTEX
  8
0IMP_DRE
 10
220262.97
 20
9391071.00
  0
VERTEX
  8
0IMP_DRE
 10
220219.66
 20
9391127.00
  0
VERTEX
  8
0IMP_DRE
 10
220170.16
 20
9391190.00
  0
VERTEX
  8
0IMP_DRE
 10
220114.38
 20
9391246.00
  0
VERTEX
  8
0IMP_DRE
 10
220083.61
 20
9391321.00
  0
VERTEX
  8
0IMP_DRE
 10
220040.27
 20
9391372.00
  0
VERTEX
  8
0IMP_DRE
 10
219978.25
 20
9391422.00
  0
VERTEX
  8
0IMP_DRE
 10
219966.03
 20
9391472.00
  0
VERTEX
  8
0IMP_DRE
 10
219935.17
 20
9391528.00
  0
VERTEX
  8
0IMP_DRE
 10
219891.83
 20
9391579.00
  0
VERTEX
  8
0IMP_DRE
 10
219836.05
 20
9391629.00
  0
VERTEX
  8
0IMP_DRE
 10
219811.38
 20
9391679.00
  0
VERTEX
  8
0IMP_DRE
 10
219786.70
 20
9391729.00
  0
VERTEX
  8
0IMP_DRE
 10
219718.52
 20
9391792.00
  0
VERTEX
  8
0IMP_DRE
 10
219700.08
 20
9391842.00
  0
VERTEX
  8
0IMP_DRE
 10
219669.19
 20
9391892.00
  0
VERTEX
  8
0IMP_DRE
 10
219619.63
 20
9391942.00
  0
VERTEX
  8
0IMP_DRE
 10
219595.05
 20
9392011.00
  0
VERTEX
  8
0IMP_DRE
 10
219564.33
 20
9392099.00
  0
VERTEX
  8
0IMP_DRE
 10
219521.11
 20
9392174.00
  0
VERTEX
  8
0IMP_DRE
 10
219484.11
 20
9392249.00
  0
VERTEX
  8
0IMP_DRE
 10
219440.88
 20
9392324.00
  0
VERTEX
  8
0IMP_DRE
 10
219397.56
 20
9392381.00
  0
VERTEX
  8
0IMP_DRE
 10
219366.67
 20
9392431.00
  0
VERTEX
  8
0IMP_DRE
 10
219298.47
 20
9392487.00
  0
VERTEX
  8
0IMP_DRE
 10
219273.83
 20
9392544.00
  0
VERTEX
  8
0IMP_DRE
 10
219193.14
 20
9392594.00
  0
VERTEX
  8
0IMP_DRE
 10
219137.44
 20
9392663.00
  0
VERTEX
  8
0IMP_DRE
 10
219081.64
 20
9392713.00
  0
VERTEX
  8
0IMP_DRE
 10
219025.86
 20
9392764.00
  0
VERTEX
  8
0IMP_DRE
 10
218970.09
 20
9392820.00
  0
VERTEX
  8
0IMP_DRE
 10
218889.41
 20
9392870.00
  0
VERTEX
  8
0IMP_DRE
 10
218877.19
 20
9392920.00
  0
VERTEX
  8
0IMP_DRE
 10
218815.20
 20
9392977.00
  0
VERTEX
  8
0IMP_DRE
 10
218753.11
 20
9393008.00
  0
VERTEX
  8
0IMP_DRE
 10
218722.22
 20
9393058.00
  0
VERTEX
  8
0IMP_DRE
 10
218678.88
 20
9393109.00
  0
VERTEX
  8
0IMP_DRE
 10
218623.20
 20
9393184.00
  0
VERTEX
  8
0IMP_DRE
 10
218555.02
 20
9393247.00
  0
VERTEX
  8
0IMP_DRE
 10
218530.44
 20
9393315.00
  0
VERTEX
  8
0IMP_DRE
 10
218487.16
 20
9393378.00
  0
VERTEX
  8
0IMP_DRE
 10
218468.73
 20
9393435.00
  0
VERTEX
  8
0IMP_DRE
 10
218388.17
 20
9393510.00
  0
VERTEX
  8
0IMP_DRE
 10
218338.75
 20
9393591.00
  0
VERTEX
  8
0IMP_DRE
 10
218283.06
 20
9393667.00
  0
VERTEX
  8
0IMP_DRE
 10
218196.13
 20
9393711.00
  0
VERTEX
  8
0IMP_DRE
 10
218146.56
 20
9393761.00
  0
VERTEX
  8
0IMP_DRE
 10
218097.03
 20
9393817.00
  0
VERTEX
  8
0IMP_DRE
 10
218053.69
 20
9393867.00
  0
VERTEX
  8
0IMP_DRE
 10
217997.84
 20
9393905.00
  0
VERTEX
  8
0IMP_DRE
 10
217910.92
 20
9393955.00
  0
VERTEX
  8
0IMP_DRE
 10
217855.11
 20
9393999.00
  0
VERTEX
  8
0IMP_DRE
 10
217811.77
 20
9394050.00
  0
VERTEX
  8
0IMP_DRE
 10
217712.44
 20
9394106.00
  0
VERTEX
  8
0IMP_DRE
 10
217662.88
 20
9394156.00
  0
VERTEX
  8
0IMP_DRE
 10
217607.08
 20
9394207.00
  0
VERTEX
  8
0IMP_DRE
 10
217563.73
 20
9394257.00
  0
VERTEX
  8
0IMP_DRE
 10
217520.41
 20
9394307.00
  0
VERTEX
  8
0IMP_DRE
 10
217464.73
 20
9394382.00
  0
VERTEX
  8
0IMP_DRE
 10
217440.05
 20
9394432.00
  0
VERTEX
  8
0IMP_DRE
 10
217390.48
 20
9394482.00
  0
VERTEX
  8
0IMP_DRE
 10
217328.63
 20
9394564.00
  0
VERTEX
  8
0IMP_DRE
 10
217266.72
 20
9394639.00
  0
VERTEX
  8
0IMP_DRE
 10
217217.16
 20
9394689.00
  0
VERTEX
  8
0IMP_DRE
 10
217186.38
 20
9394765.00
  0
VERTEX
  8
0IMP_DRE
 10
217130.59
 20
9394815.00
  0
VERTEX
  8
0IMP_DRE
 10
217062.30
 20
9394853.00
  0
VERTEX
  8
0IMP_DRE
 10
217000.25
 20
9394896.00
  0
VERTEX
  8
0IMP_DRE
 10
216938.23
 20
9394947.00
  0
VERTEX
  8
0IMP_DRE
 10
216857.44
 20
9394972.00
  0
VERTEX
  8
0IMP_DRE
 10
216801.61
 20
9395016.00
  0
VERTEX
  8
0IMP_DRE
 10
216714.61
 20
9395047.00
  0
VERTEX
  8
0IMP_DRE
 10
216658.66
 20
9395060.00
  0
VERTEX
  8
0IMP_DRE
 10
216577.89
 20
9395092.00
  0
VERTEX
  8
0IMP_DRE
 10
216484.69
 20
9395129.00
  0
VERTEX
  8
0IMP_DRE
 10
216428.75
 20
9395148.00
  0
VERTEX
  8
0IMP_DRE
 10
216347.89
 20
9395161.00
  0
VERTEX
  8
0IMP_DRE
 10
216291.95
 20
9395180.00
  0
VERTEX
  8
0IMP_DRE
 10
216198.63
 20
9395187.00
  0
VERTEX
  8
0IMP_DRE
 10
216105.28
 20
9395193.00
  0
VERTEX
  8
0IMP_DRE
 10
216011.94
 20
9395200.00
  0
VERTEX
  8
0IMP_DRE
 10
215955.92
 20
9395200.00
  0
VERTEX
  8
0IMP_DRE
 10
215893.67
 20
9395200.00
  0
VERTEX
  8
0IMP_DRE
 10
215837.66
 20
9395200.00
  0
VERTEX
  8
0IMP_DRE
 10
215750.50
 20
9395200.00
  0
VERTEX
  8
0IMP_DRE
 10
215688.14
 20
9395175.00
  0
VERTEX
  8
0IMP_DRE
 10
215625.78
 20
9395151.00
  0
VERTEX
  8
0IMP_DRE
 10
215569.67
 20
9395132.00
  0
VERTEX
  8
0IMP_DRE
 10
215507.34
 20
9395113.00
  0
VERTEX
  8
0IMP_DRE
 10
215451.27
 20
9395101.00
  0
VERTEX
  8
0IMP_DRE
 10
215364.03
 20
9395082.00
  0
VERTEX
  8
0IMP_DRE
 10
215276.78
 20
9395058.00
  0
VERTEX
  8
0IMP_DRE
 10
215220.67
 20
9395039.00
  0
VERTEX
  8
0IMP_DRE
 10
215133.44
 20
9395021.00
  0
VERTEX
  8
0IMP_DRE
 10
215046.16
 20
9394989.00
  0
VERTEX
  8
0IMP_DRE
 10
214983.77
 20
9394958.00
  0
VERTEX
  8
0IMP_DRE
 10
214927.63
 20
9394933.00
  0
VERTEX
  8
0IMP_DRE
 10
214846.50
 20
9394890.00
  0
VERTEX
  8
0IMP_DRE
 10
214777.83
 20
9394846.00
  0
VERTEX
  8
0IMP_DRE
 10
214646.53
 20
9394722.00
  0
SEQEND
  8
0IMP_DRE
  0
POLYLINE
  8
0IMP_DRE
 66
     1
  0
VERTEX
  8
0IMP_DRE
 10
223380.58
 20
9366597.00
  0
VERTEX
  8
0IMP_DRE
 10
223405.25
 20
9366547.00
  0
VERTEX
  8
0IMP_DRE
 10
223423.66
 20
9366491.00
  0
VERTEX
  8
0IMP_DRE
 10
223448.16
 20
9366403.00
  0
VERTEX
  8
0IMP_DRE
 10
223466.58
 20
9366347.00
  0
VERTEX
  8
0IMP_DRE
 10
223478.67
 20
9366272.00
  0
VERTEX
  8
0IMP_DRE
 10
223497.09
 20
9366215.00
  0
VERTEX
  8
0IMP_DRE
 10
223503.08
 20
9366165.00
  0
VERTEX
  8
0IMP_DRE
 10
223515.30
 20
9366115.00
  0
VERTEX
  8
0IMP_DRE
 10
223533.59
 20
9366034.00
  0
VERTEX
  8
0IMP_DRE
 10
223545.80
 20
9365977.00
  0
VERTEX
  8
0IMP_DRE
 10
223564.03
 20
9365883.00
  0
VERTEX
  8
0IMP_DRE
 10
223582.27
 20
9365790.00
  0
VERTEX
  8
0IMP_DRE
 10
223600.56
 20
9365708.00
  0
VERTEX
  8
0IMP_DRE
 10
223631.31
 20
9365627.00
  0
VERTEX
  8
0IMP_DRE
 10
223674.63
 20
9365570.00
  0
VERTEX
  8
0IMP_DRE
 10
223699.27
 20
9365514.00
  0
VERTEX
  8
0IMP_DRE
 10
223779.80
 20
9365432.00
  0
VERTEX
  8
0IMP_DRE
 10
223804.44
 20
9365376.00
  0
VERTEX
  8
0IMP_DRE
 10
223878.94
 20
9365332.00
  0
VERTEX
  8
0IMP_DRE
 10
223953.39
 20
9365282.00
  0
VERTEX
  8
0IMP_DRE
 10
224009.39
 20
9365275.00
  0
VERTEX
  8
0IMP_DRE
 10
224052.73
 20
9365225.00
  0
VERTEX
  8
0IMP_DRE
 10
224089.84
 20
9365175.00
  0
VERTEX
  8
0IMP_DRE
 10
224139.41
 20
9365125.00
  0
VERTEX
  8
0IMP_DRE
 10
224151.64
 20
9365075.00
  0
VERTEX
  8
0IMP_DRE
 10
224182.50
 20
9365018.00
  0
VERTEX
  8
0IMP_DRE
 10
224200.91
 20
9364962.00
  0
VERTEX
  8
0IMP_DRE
 10
224225.58
 20
9364912.00
  0
VERTEX
  8
0IMP_DRE
 10
224237.61
 20
9364824.00
  0
VERTEX
  8
0IMP_DRE
 10
224243.58
 20
9364768.00
  0
VERTEX
  8
0IMP_DRE
 10
224243.19
 20
9364680.00
  0
VERTEX
  8
0IMP_DRE
 10
224248.92
 20
9364574.00
  0
VERTEX
  8
0IMP_DRE
 10
224248.63
 20
9364511.00
  0
VERTEX
  8
0IMP_DRE
 10
224248.28
 20
9364436.00
  0
VERTEX
  8
0IMP_DRE
 10
224247.91
 20
9364355.00
  0
VERTEX
  8
0IMP_DRE
 10
224247.64
 20
9364299.00
  0
VERTEX
  8
0IMP_DRE
 10
224247.41
 20
9364248.00
  0
VERTEX
  8
0IMP_DRE
 10
224247.16
 20
9364192.00
  0
VERTEX
  8
0IMP_DRE
 10
224240.56
 20
9364111.00
  0
VERTEX
  8
0IMP_DRE
 10
224202.94
 20
9364055.00
  0
VERTEX
  8
0IMP_DRE
 10
224146.70
 20
9364005.00
  0
VERTEX
  8
0IMP_DRE
 10
224090.59
 20
9363986.00
  0
VERTEX
  8
0IMP_DRE
 10
224003.44
 20
9363986.00
  0
VERTEX
  8
0IMP_DRE
 10
223941.28
 20
9364005.00
  0
VERTEX
  8
0IMP_DRE
 10
223854.36
 20
9364056.00
  0
VERTEX
  8
0IMP_DRE
 10
223835.95
 20
9364112.00
  0
VERTEX
  8
0IMP_DRE
 10
223798.95
 20
9364187.00
  0
VERTEX
  8
0IMP_DRE
 10
223768.13
 20
9364250.00
  0
VERTEX
  8
0IMP_DRE
 10
223718.73
 20
9364338.00
  0
VERTEX
  8
0IMP_DRE
 10
223712.77
 20
9364394.00
  0
VERTEX
  8
0IMP_DRE
 10
223663.55
 20
9364519.00
  0
VERTEX
  8
0IMP_DRE
 10
223663.95
 20
9364607.00
  0
VERTEX
  8
0IMP_DRE
 10
223645.80
 20
9364719.00
  0
VERTEX
  8
0IMP_DRE
 10
223633.58
 20
9364769.00
  0
VERTEX
  8
0IMP_DRE
 10
223615.20
 20
9364832.00
  0
VERTEX
  8
0IMP_DRE
 10
223565.63
 20
9364882.00
  0
VERTEX
  8
0IMP_DRE
 10
223540.97
 20
9364932.00
  0
VERTEX
  8
0IMP_DRE
 10
223485.20
 20
9364989.00
  0
VERTEX
  8
0IMP_DRE
 10
223404.52
 20
9365039.00
  0
VERTEX
  8
0IMP_DRE
 10
223354.95
 20
9365089.00
  0
VERTEX
  8
0IMP_DRE
 10
223349.08
 20
9365164.00
  0
VERTEX
  8
0IMP_DRE
 10
223318.19
 20
9365215.00
  0
VERTEX
  8
0IMP_DRE
 10
223306.16
 20
9365308.00
  0
VERTEX
  8
0IMP_DRE
 10
223306.52
 20
9365384.00
  0
VERTEX
  8
0IMP_DRE
 10
223306.86
 20
9365459.00
  0
VERTEX
  8
0IMP_DRE
 10
223300.98
 20
9365534.00
  0
VERTEX
  8
0IMP_DRE
 10
223288.94
 20
9365621.00
  0
VERTEX
  8
0IMP_DRE
 10
223283.00
 20
9365684.00
  0
VERTEX
  8
0IMP_DRE
 10
223270.86
 20
9365753.00
  0
VERTEX
  8
0IMP_DRE
 10
223264.91
 20
9365809.00
  0
VERTEX
  8
0IMP_DRE
 10
223246.72
 20
9365916.00
  0
VERTEX
  8
0IMP_DRE
 10
223228.39
 20
9365991.00
  0
VERTEX
  8
0IMP_DRE
 10
223216.30
 20
9366066.00
  0
VERTEX
  8
0IMP_DRE
 10
223191.77
 20
9366147.00
  0
VERTEX
  8
0IMP_DRE
 10
223185.78
 20
9366197.00
  0
VERTEX
  8
0IMP_DRE
 10
223173.61
 20
9366260.00
  0
VERTEX
  8
0IMP_DRE
 10
223173.84
 20
9366310.00
  0
VERTEX
  8
0IMP_DRE
 10
223174.08
 20
9366360.00
  0
VERTEX
  8
0IMP_DRE
 10
223174.42
 20
9366435.00
  0
VERTEX
  8
0IMP_DRE
 10
223174.83
 20
9366523.00
  0
VERTEX
  8
0IMP_DRE
 10
223175.27
 20
9366617.00
  0
VERTEX
  8
0IMP_DRE
 10
223181.72
 20
9366667.00
  0
VERTEX
  8
0IMP_DRE
 10
223244.13
 20
9366704.00
  0
VERTEX
  8
0IMP_DRE
 10
223300.06
 20
9366685.00
  0
VERTEX
  8
0IMP_DRE
 10
223380.58
 20
9366597.00
  0
SEQEND
  8
0IMP_DRE
  0
POLYLINE
  8
0IMP_DRE
 66
     1
  0
VERTEX
  8
0IMP_DRE
 10
219686.38
 20
9392918.00
  0
VERTEX
  8
0IMP_DRE
 10
219698.19
 20
9392780.00
  0
VERTEX
  8
0IMP_DRE
 10
219716.64
 20
9392730.00
  0
VERTEX
  8
0IMP_DRE
 10
219741.28
 20
9392674.00
  0
VERTEX
  8
0IMP_DRE
 10
219759.72
 20
9392624.00
  0
VERTEX
  8
0IMP_DRE
 10
219765.70
 20
9392574.00
  0
VERTEX
  8
0IMP_DRE
 10
219796.59
 20
9392524.00
  0
VERTEX
  8
0IMP_DRE
 10
219808.77
 20
9392461.00
  0
VERTEX
  8
0IMP_DRE
 10
219839.66
 20
9392411.00
  0
VERTEX
  8
0IMP_DRE
 10
219889.11
 20
9392336.00
  0
VERTEX
  8
0IMP_DRE
 10
219945.08
 20
9392323.00
  0
VERTEX
  8
0IMP_DRE
 10
220032.13
 20
9392304.00
  0
VERTEX
  8
0IMP_DRE
 10
220087.97
 20
9392266.00
  0
VERTEX
  8
0IMP_DRE
 10
220156.30
 20
9392235.00
  0
VERTEX
  8
0IMP_DRE
 10
220218.28
 20
9392178.00
  0
VERTEX
  8
0IMP_DRE
 10
220249.14
 20
9392122.00
  0
VERTEX
  8
0IMP_DRE
 10
220298.72
 20
9392072.00
  0
VERTEX
  8
0IMP_DRE
 10
220360.55
 20
9391984.00
  0
VERTEX
  8
0IMP_DRE
 10
220391.44
 20
9391934.00
  0
VERTEX
  8
0IMP_DRE
 10
220434.64
 20
9391852.00
  0
VERTEX
  8
0IMP_DRE
 10
220477.95
 20
9391796.00
  0
VERTEX
  8
0IMP_DRE
 10
220490.14
 20
9391740.00
  0
VERTEX
  8
0IMP_DRE
 10
220521.03
 20
9391689.00
  0
VERTEX
  8
0IMP_DRE
 10
220551.92
 20
9391639.00
  0
VERTEX
  8
0IMP_DRE
 10
220570.36
 20
9391589.00
  0
VERTEX
  8
0IMP_DRE
 10
220601.08
 20
9391501.00
  0
VERTEX
  8
0IMP_DRE
 10
220625.75
 20
9391451.00
  0
VERTEX
  8
0IMP_DRE
 10
220662.75
 20
9391376.00
  0
VERTEX
  8
0IMP_DRE
 10
220737.25
 20
9391332.00
  0
VERTEX
  8
0IMP_DRE
 10
220786.81
 20
9391282.00
  0
VERTEX
  8
0IMP_DRE
 10
220842.66
 20
9391244.00
  0
VERTEX
  8
0IMP_DRE
 10
220904.56
 20
9391169.00
  0
VERTEX
  8
0IMP_DRE
 10
220954.13
 20
9391119.00
  0
VERTEX
  8
0IMP_DRE
 10
220985.02
 20
9391069.00
  0
VERTEX
  8
0IMP_DRE
 10
221046.83
 20
9390975.00
  0
VERTEX
  8
0IMP_DRE
 10
221077.72
 20
9390925.00
  0
VERTEX
  8
0IMP_DRE
 10
221114.72
 20
9390849.00
  0
VERTEX
  8
0IMP_DRE
 10
221133.16
 20
9390799.00
  0
VERTEX
  8
0IMP_DRE
 10
221213.81
 20
9390743.00
  0
VERTEX
  8
0IMP_DRE
 10
221263.39
 20
9390693.00
  0
VERTEX
  8
0IMP_DRE
 10
221294.28
 20
9390642.00
  0
VERTEX
  8
0IMP_DRE
 10
221368.89
 20
9390623.00
  0
VERTEX
  8
0IMP_DRE
 10
221437.16
 20
9390579.00
  0
VERTEX
  8
0IMP_DRE
 10
221493.11
 20
9390567.00
  0
VERTEX
  8
0IMP_DRE
 10
221536.45
 20
9390517.00
  0
VERTEX
  8
0IMP_DRE
 10
221623.59
 20
9390516.00
  0
VERTEX
  8
0IMP_DRE
 10
221673.16
 20
9390466.00
  0
VERTEX
  8
0IMP_DRE
 10
221747.83
 20
9390460.00
  0
VERTEX
  8
0IMP_DRE
 10
221816.16
 20
9390428.00
  0
VERTEX
  8
0IMP_DRE
 10
221878.23
 20
9390390.00
  0
VERTEX
  8
0IMP_DRE
 10
221952.78
 20
9390359.00
  0
VERTEX
  8
0IMP_DRE
 10
222014.81
 20
9390315.00
  0
VERTEX
  8
0IMP_DRE
 10
222076.86
 20
9390271.00
  0
VERTEX
  8
0IMP_DRE
 10
222132.69
 20
9390227.00
  0
VERTEX
  8
0IMP_DRE
 10
222188.50
 20
9390183.00
  0
VERTEX
  8
0IMP_DRE
 10
222262.94
 20
9390127.00
  0
VERTEX
  8
0IMP_DRE
 10
222287.58
 20
9390070.00
  0
VERTEX
  8
0IMP_DRE
 10
222318.47
 20
9390020.00
  0
VERTEX
  8
0IMP_DRE
 10
222349.36
 20
9389970.00
  0
VERTEX
  8
0IMP_DRE
 10
222380.22
 20
9389914.00
  0
VERTEX
  8
0IMP_DRE
 10
222417.25
 20
9389845.00
  0
VERTEX
  8
0IMP_DRE
 10
222448.14
 20
9389794.00
  0
VERTEX
  8
0IMP_DRE
 10
222491.45
 20
9389738.00
  0
VERTEX
  8
0IMP_DRE
 10
222522.34
 20
9389688.00
  0
VERTEX
  8
0IMP_DRE
 10
222553.23
 20
9389638.00
  0
VERTEX
  8
0IMP_DRE
 10
222602.80
 20
9389588.00
  0
VERTEX
  8
0IMP_DRE
 10
222664.84
 20
9389544.00
  0
VERTEX
  8
0IMP_DRE
 10
222739.39
 20
9389512.00
  0
VERTEX
  8
0IMP_DRE
 10
222795.22
 20
9389468.00
  0
VERTEX
  8
0IMP_DRE
 10
222869.80
 20
9389443.00
  0
VERTEX
  8
0IMP_DRE
 10
222919.27
 20
9389374.00
  0
VERTEX
  8
0IMP_DRE
 10
222975.00
 20
9389311.00
  0
VERTEX
  8
0IMP_DRE
 10
223018.28
 20
9389249.00
  0
VERTEX
  8
0IMP_DRE
 10
223042.92
 20
9389192.00
  0
VERTEX
  8
0IMP_DRE
 10
223067.59
 20
9389142.00
  0
VERTEX
  8
0IMP_DRE
 10
223117.02
 20
9389061.00
  0
VERTEX
  8
0IMP_DRE
 10
223166.58
 20
9389010.00
  0
VERTEX
  8
0IMP_DRE
 10
223209.89
 20
9388954.00
  0
VERTEX
  8
0IMP_DRE
 10
223253.14
 20
9388885.00
  0
VERTEX
  8
0IMP_DRE
 10
223327.69
 20
9388854.00
  0
VERTEX
  8
0IMP_DRE
 10
223389.73
 20
9388810.00
  0
VERTEX
  8
0IMP_DRE
 10
223445.56
 20
9388766.00
  0
VERTEX
  8
0IMP_DRE
 10
223520.02
 20
9388715.00
  0
VERTEX
  8
0IMP_DRE
 10
223582.03
 20
9388665.00
  0
VERTEX
  8
0IMP_DRE
 10
223637.80
 20
9388609.00
  0
VERTEX
  8
0IMP_DRE
 10
223687.33
 20
9388552.00
  0
VERTEX
  8
0IMP_DRE
 10
223705.63
 20
9388471.00
  0
VERTEX
  8
0IMP_DRE
 10
223736.52
 20
9388421.00
  0
VERTEX
  8
0IMP_DRE
 10
223785.89
 20
9388327.00
  0
VERTEX
  8
0IMP_DRE
 10
223816.61
 20
9388239.00
  0
VERTEX
  8
0IMP_DRE
 10
223835.05
 20
9388189.00
  0
VERTEX
  8
0IMP_DRE
 10
223865.94
 20
9388139.00
  0
VERTEX
  8
0IMP_DRE
 10
223896.66
 20
9388051.00
  0
VERTEX
  8
0IMP_DRE
 10
223940.00
 20
9388001.00
  0
VERTEX
  8
0IMP_DRE
 10
223983.34
 20
9387951.00
  0
VERTEX
  8
0IMP_DRE
 10
223995.55
 20
9387901.00
  0
VERTEX
  8
0IMP_DRE
 10
224044.95
 20
9387813.00
  0
VERTEX
  8
0IMP_DRE
 10
224100.59
 20
9387731.00
  0
VERTEX
  8
0IMP_DRE
 10
224118.89
 20
9387650.00
  0
VERTEX
  8
0IMP_DRE
 10
224149.61
 20
9387562.00
  0
VERTEX
  8
0IMP_DRE
 10
224180.50
 20
9387512.00
  0
VERTEX
  8
0IMP_DRE
 10
224205.02
 20
9387431.00
  0
VERTEX
  8
0IMP_DRE
 10
224235.77
 20
9387349.00
  0
VERTEX
  8
0IMP_DRE
 10
224247.78
 20
9387255.00
  0
VERTEX
  8
0IMP_DRE
 10
224266.17
 20
9387193.00
  0
VERTEX
  8
0IMP_DRE
 10
224284.36
 20
9387086.00
  0
VERTEX
  8
0IMP_DRE
 10
224302.77
 20
9387030.00
  0
VERTEX
  8
0IMP_DRE
 10
224314.88
 20
9386955.00
  0
VERTEX
  8
0IMP_DRE
 10
224327.08
 20
9386905.00
  0
VERTEX
  8
0IMP_DRE
 10
224351.58
 20
9386817.00
  0
VERTEX
  8
0IMP_DRE
 10
224370.02
 20
9386767.00
  0
VERTEX
  8
0IMP_DRE
 10
224382.25
 20
9386717.00
  0
VERTEX
  8
0IMP_DRE
 10
224406.91
 20
9386667.00
  0
VERTEX
  8
0IMP_DRE
 10
224419.00
 20
9386592.00
  0
VERTEX
  8
0IMP_DRE
 10
224443.67
 20
9386542.00
  0
VERTEX
  8
0IMP_DRE
 10
224455.89
 20
9386492.00
  0
VERTEX
  8
0IMP_DRE
 10
224480.39
 20
9386404.00
  0
VERTEX
  8
0IMP_DRE
 10
224498.81
 20
9386347.00
  0
VERTEX
  8
0IMP_DRE
 10
224542.05
 20
9386279.00
  0
VERTEX
  8
0IMP_DRE
 10
224560.47
 20
9386222.00
  0
VERTEX
  8
0IMP_DRE
 10
224591.34
 20
9386166.00
  0
VERTEX
  8
0IMP_DRE
 10
224609.78
 20
9386116.00
  0
VERTEX
  8
0IMP_DRE
 10
224640.50
 20
9386028.00
  0
VERTEX
  8
0IMP_DRE
 10
224658.94
 20
9385978.00
  0
VERTEX
  8
0IMP_DRE
 10
224702.14
 20
9385896.00
  0
VERTEX
  8
0IMP_DRE
 10
224708.13
 20
9385846.00
  0
VERTEX
  8
0IMP_DRE
 10
224726.42
 20
9385765.00
  0
VERTEX
  8
0IMP_DRE
 10
224769.59
 20
9385677.00
  0
VERTEX
  8
0IMP_DRE
 10
224819.13
 20
9385621.00
  0
VERTEX
  8
0IMP_DRE
 10
224843.80
 20
9385571.00
  0
VERTEX
  8
0IMP_DRE
 10
224886.97
 20
9385483.00
  0
VERTEX
  8
0IMP_DRE
 10
224936.50
 20
9385426.00
  0
VERTEX
  8
0IMP_DRE
 10
224967.22
 20
9385339.00
  0
VERTEX
  8
0IMP_DRE
 10
225022.98
 20
9385282.00
  0
VERTEX
  8
0IMP_DRE
 10
225066.17
 20
9385201.00
  0
VERTEX
  8
0IMP_DRE
 10
225097.02
 20
9385138.00
  0
VERTEX
  8
0IMP_DRE
 10
225146.58
 20
9385088.00
  0
VERTEX
  8
0IMP_DRE
 10
225165.02
 20
9385038.00
  0
VERTEX
  8
0IMP_DRE
 10
225195.73
 20
9384950.00
  0
VERTEX
  8
0IMP_DRE
 10
225220.38
 20
9384894.00
  0
VERTEX
  8
0IMP_DRE
 10
225232.59
 20
9384844.00
  0
VERTEX
  8
0IMP_DRE
 10
225251.03
 20
9384794.00
  0
VERTEX
  8
0IMP_DRE
 10
225263.25
 20
9384744.00
  0
VERTEX
  8
0IMP_DRE
 10
225275.47
 20
9384693.00
  0
VERTEX
  8
0IMP_DRE
 10
225281.23
 20
9384593.00
  0
VERTEX
  8
0IMP_DRE
 10
225287.08
 20
9384512.00
  0
VERTEX
  8
0IMP_DRE
 10
225286.70
 20
9384431.00
  0
VERTEX
  8
0IMP_DRE
 10
225286.47
 20
9384381.00
  0
VERTEX
  8
0IMP_DRE
 10
225286.25
 20
9384331.00
  0
VERTEX
  8
0IMP_DRE
 10
225285.86
 20
9384249.00
  0
VERTEX
  8
0IMP_DRE
 10
225273.02
 20
9384162.00
  0
VERTEX
  8
0IMP_DRE
 10
225266.42
 20
9384080.00
  0
VERTEX
  8
0IMP_DRE
 10
225241.08
 20
9383987.00
  0
VERTEX
  8
0IMP_DRE
 10
225215.81
 20
9383905.00
  0
VERTEX
  8
0IMP_DRE
 10
225190.53
 20
9383824.00
  0
VERTEX
  8
0IMP_DRE
 10
225177.86
 20
9383774.00
  0
VERTEX
  8
0IMP_DRE
 10
225165.14
 20
9383718.00
  0
VERTEX
  8
0IMP_DRE
 10
225152.33
 20
9383636.00
  0
VERTEX
  8
0IMP_DRE
 10
225139.64
 20
9383586.00
  0
VERTEX
  8
0IMP_DRE
 10
225126.78
 20
9383499.00
  0
VERTEX
  8
0IMP_DRE
 10
225120.13
 20
9383405.00
  0
VERTEX
  8
0IMP_DRE
 10
225113.66
 20
9383349.00
  0
VERTEX
  8
0IMP_DRE
 10
225106.97
 20
9383249.00
  0
VERTEX
  8
0IMP_DRE
 10
225094.14
 20
9383167.00
  0
VERTEX
  8
0IMP_DRE
 10
225093.88
 20
9383111.00
  0
VERTEX
  8
0IMP_DRE
 10
225081.19
 20
9383061.00
  0
VERTEX
  8
0IMP_DRE
 10
225074.59
 20
9382980.00
  0
VERTEX
  8
0IMP_DRE
 10
225068.11
 20
9382923.00
  0
VERTEX
  8
0IMP_DRE
 10
225055.28
 20
9382842.00
  0
VERTEX
  8
0IMP_DRE
 10
225055.06
 20
9382792.00
  0
VERTEX
  8
0IMP_DRE
 10
225048.58
 20
9382736.00
  0
VERTEX
  8
0IMP_DRE
 10
225042.11
 20
9382686.00
  0
VERTEX
  8
0IMP_DRE
 10
225029.44
 20
9382636.00
  0
VERTEX
  8
0IMP_DRE
 10
225022.98
 20
9382586.00
  0
VERTEX
  8
0IMP_DRE
 10
225022.75
 20
9382536.00
  0
VERTEX
  8
0IMP_DRE
 10
225016.30
 20
9382485.00
  0
VERTEX
  8
0IMP_DRE
 10
225003.61
 20
9382435.00
  0
VERTEX
  8
0IMP_DRE
 10
224996.95
 20
9382342.00
  0
VERTEX
  8
0IMP_DRE
 10
224990.47
 20
9382285.00
  0
VERTEX
  8
0IMP_DRE
 10
224983.81
 20
9382191.00
  0
VERTEX
  8
0IMP_DRE
 10
224977.19
 20
9382104.00
  0
VERTEX
  8
0IMP_DRE
 10
224970.53
 20
9382010.00
  0
VERTEX
  8
0IMP_DRE
 10
224964.08
 20
9381960.00
  0
VERTEX
  8
0IMP_DRE
 10
224963.67
 20
9381872.00
  0
VERTEX
  8
0IMP_DRE
 10
224963.44
 20
9381822.00
  0
VERTEX
  8
0IMP_DRE
 10
224963.03
 20
9381735.00
  0
VERTEX
  8
0IMP_DRE
 10
224962.77
 20
9381678.00
  0
VERTEX
  8
0IMP_DRE
 10
224962.36
 20
9381591.00
  0
VERTEX
  8
0IMP_DRE
 10
224962.14
 20
9381541.00
  0
VERTEX
  8
0IMP_DRE
 10
224961.91
 20
9381491.00
  0
VERTEX
  8
0IMP_DRE
 10
224961.67
 20
9381441.00
  0
VERTEX
  8
0IMP_DRE
 10
224967.52
 20
9381359.00
  0
VERTEX
  8
0IMP_DRE
 10
224985.83
 20
9381278.00
  0
VERTEX
  8
0IMP_DRE
 10
225004.20
 20
9381215.00
  0
VERTEX
  8
0IMP_DRE
 10
225022.52
 20
9381134.00
  0
VERTEX
  8
0IMP_DRE
 10
225040.78
 20
9381046.00
  0
VERTEX
  8
0IMP_DRE
 10
225046.77
 20
9380996.00
  0
VERTEX
  8
0IMP_DRE
 10
225058.84
 20
9380915.00
  0
VERTEX
  8
0IMP_DRE
 10
225064.64
 20
9380821.00
  0
VERTEX
  8
0IMP_DRE
 10
225076.84
 20
9380771.00
  0
VERTEX
  8
0IMP_DRE
 10
225082.84
 20
9380721.00
  0
VERTEX
  8
0IMP_DRE
 10
225094.92
 20
9380639.00
  0
VERTEX
  8
0IMP_DRE
 10
225100.80
 20
9380564.00
  0
VERTEX
  8
0IMP_DRE
 10
225106.80
 20
9380514.00
  0
VERTEX
  8
0IMP_DRE
 10
225125.09
 20
9380433.00
  0
VERTEX
  8
0IMP_DRE
 10
225124.86
 20
9380383.00
  0
VERTEX
  8
0IMP_DRE
 10
225137.05
 20
9380326.00
  0
VERTEX
  8
0IMP_DRE
 10
225149.09
 20
9380239.00
  0
VERTEX
  8
0IMP_DRE
 10
225167.53
 20
9380189.00
  0
VERTEX
  8
0IMP_DRE
 10
225179.61
 20
9380107.00
  0
VERTEX
  8
0IMP_DRE
 10
225198.05
 20
9380057.00
  0
VERTEX
  8
0IMP_DRE
 10
225210.09
 20
9379970.00
  0
VERTEX
  8
0IMP_DRE
 10
225228.53
 20
9379920.00
  0
VERTEX
  8
0IMP_DRE
 10
225234.53
 20
9379869.00
  0
VERTEX
  8
0IMP_DRE
 10
225259.17
 20
9379813.00
  0
VERTEX
  8
0IMP_DRE
 10
225271.38
 20
9379763.00
  0
VERTEX
  8
0IMP_DRE
 10
225283.41
 20
9379669.00
  0
VERTEX
  8
0IMP_DRE
 10
225295.56
 20
9379606.00
  0
VERTEX
  8
0IMP_DRE
 10
225307.61
 20
9379519.00
  0
VERTEX
  8
0IMP_DRE
 10
225319.80
 20
9379463.00
  0
VERTEX
  8
0IMP_DRE
 10
225332.02
 20
9379412.00
  0
VERTEX
  8
0IMP_DRE
 10
225350.31
 20
9379331.00
  0
VERTEX
  8
0IMP_DRE
 10
225368.77
 20
9379281.00
  0
VERTEX
  8
0IMP_DRE
 10
225374.75
 20
9379231.00
  0
VERTEX
  8
0IMP_DRE
 10
225386.97
 20
9379181.00
  0
VERTEX
  8
0IMP_DRE
 10
225411.61
 20
9379124.00
  0
VERTEX
  8
0IMP_DRE
 10
225423.83
 20
9379074.00
  0
VERTEX
  8
0IMP_DRE
 10
225442.14
 20
9378999.00
  0
VERTEX
  8
0IMP_DRE
 10
225466.67
 20
9378918.00
  0
VERTEX
  8
0IMP_DRE
 10
225478.86
 20
9378861.00
  0
VERTEX
  8
0IMP_DRE
 10
225491.02
 20
9378799.00
  0
VERTEX
  8
0IMP_DRE
 10
225509.47
 20
9378749.00
  0
VERTEX
  8
0IMP_DRE
 10
225515.41
 20
9378686.00
  0
VERTEX
  8
0IMP_DRE
 10
225533.81
 20
9378630.00
  0
VERTEX
  8
0IMP_DRE
 10
225546.03
 20
9378580.00
  0
VERTEX
  8
0IMP_DRE
 10
225552.03
 20
9378530.00
  0
VERTEX
  8
0IMP_DRE
 10
225564.19
 20
9378467.00
  0
VERTEX
  8
0IMP_DRE
 10
225570.06
 20
9378392.00
  0
VERTEX
  8
0IMP_DRE
 10
225588.33
 20
9378304.00
  0
VERTEX
  8
0IMP_DRE
 10
225606.63
 20
9378223.00
  0
VERTEX
  8
0IMP_DRE
 10
225612.52
 20
9378148.00
  0
VERTEX
  8
0IMP_DRE
 10
225624.70
 20
9378091.00
  0
VERTEX
  8
0IMP_DRE
 10
225636.92
 20
9378041.00
  0
VERTEX
  8
0IMP_DRE
 10
225649.00
 20
9377960.00
  0
VERTEX
  8
0IMP_DRE
 10
225667.25
 20
9377872.00
  0
VERTEX
  8
0IMP_DRE
 10
225679.48
 20
9377822.00
  0
VERTEX
  8
0IMP_DRE
 10
225691.69
 20
9377772.00
  0
VERTEX
  8
0IMP_DRE
 10
225697.69
 20
9377722.00
  0
VERTEX
  8
0IMP_DRE
 10
225709.77
 20
9377641.00
  0
VERTEX
  8
0IMP_DRE
 10
225721.98
 20
9377591.00
  0
VERTEX
  8
0IMP_DRE
 10
225734.20
 20
9377540.00
  0
VERTEX
  8
0IMP_DRE
 10
225752.47
 20
9377453.00
  0
VERTEX
  8
0IMP_DRE
 10
225764.52
 20
9377365.00
  0
VERTEX
  8
0IMP_DRE
 10
225782.78
 20
9377278.00
  0
VERTEX
  8
0IMP_DRE
 10
225788.75
 20
9377221.00
  0
VERTEX
  8
0IMP_DRE
 10
225800.73
 20
9377121.00
  0
VERTEX
  8
0IMP_DRE
 10
225812.89
 20
9377058.00
  0
VERTEX
  8
0IMP_DRE
 10
225818.69
 20
9376965.00
  0
VERTEX
  8
0IMP_DRE
 10
225824.66
 20
9376908.00
  0
VERTEX
  8
0IMP_DRE
 10
225836.67
 20
9376814.00
  0
VERTEX
  8
0IMP_DRE
 10
225848.88
 20
9376764.00
  0
VERTEX
  8
0IMP_DRE
 10
225854.73
 20
9376683.00
  0
VERTEX
  8
0IMP_DRE
 10
225860.70
 20
9376627.00
  0
VERTEX
  8
0IMP_DRE
 10
225866.58
 20
9376551.00
  0
VERTEX
  8
0IMP_DRE
 10
225872.45
 20
9376476.00
  0
VERTEX
  8
0IMP_DRE
 10
225878.44
 20
9376426.00
  0
VERTEX
  8
0IMP_DRE
 10
225884.44
 20
9376376.00
  0
VERTEX
  8
0IMP_DRE
 10
225884.06
 20
9376295.00
  0
VERTEX
  8
0IMP_DRE
 10
225890.06
 20
9376245.00
  0
VERTEX
  8
0IMP_DRE
 10
225889.83
 20
9376195.00
  0
VERTEX
  8
0IMP_DRE
 10
225889.45
 20
9376113.00
  0
VERTEX
  8
0IMP_DRE
 10
225895.33
 20
9376038.00
  0
VERTEX
  8
0IMP_DRE
 10
225895.09
 20
9375988.00
  0
VERTEX
  8
0IMP_DRE
 10
225894.70
 20
9375901.00
  0
VERTEX
  8
0IMP_DRE
 10
225900.69
 20
9375851.00
  0
VERTEX
  8
0IMP_DRE
 10
225906.66
 20
9375794.00
  0
VERTEX
  8
0IMP_DRE
 10
225918.88
 20
9375744.00
  0
VERTEX
  8
0IMP_DRE
 10
225924.81
 20
9375682.00
  0
VERTEX
  8
0IMP_DRE
 10
225930.63
 20
9375594.00
  0
VERTEX
  8
0IMP_DRE
 10
225930.39
 20
9375544.00
  0
VERTEX
  8
0IMP_DRE
 10
225936.39
 20
9375494.00
  0
VERTEX
  8
0IMP_DRE
 10
225936.16
 20
9375444.00
  0
VERTEX
  8
0IMP_DRE
 10
225942.05
 20
9375369.00
  0
VERTEX
  8
0IMP_DRE
 10
225941.72
 20
9375300.00
  0
VERTEX
  8
0IMP_DRE
 10
225941.48
 20
9375250.00
  0
VERTEX
  8
0IMP_DRE
 10
225941.23
 20
9375194.00
  0
VERTEX
  8
0IMP_DRE
 10
225940.91
 20
9375125.00
  0
VERTEX
  8
0IMP_DRE
 10
225940.69
 20
9375075.00
  0
VERTEX
  8
0IMP_DRE
 10
225959.13
 20
9375025.00
  0
VERTEX
  8
0IMP_DRE
 10
225983.64
 20
9374943.00
  0
VERTEX
  8
0IMP_DRE
 10
226039.41
 20
9374887.00
  0
VERTEX
  8
0IMP_DRE
 10
226088.97
 20
9374836.00
  0
VERTEX
  8
0IMP_DRE
 10
226157.23
 20
9374792.00
  0
VERTEX
  8
0IMP_DRE
 10
226181.77
 20
9374711.00
  0
VERTEX
  8
0IMP_DRE
 10
226243.59
 20
9374623.00
  0
VERTEX
  8
0IMP_DRE
 10
226299.36
 20
9374567.00
  0
VERTEX
  8
0IMP_DRE
 10
226348.94
 20
9374517.00
  0
VERTEX
  8
0IMP_DRE
 10
226411.13
 20
9374504.00
  0
VERTEX
  8
0IMP_DRE
 10
226466.94
 20
9374460.00
  0
VERTEX
  8
0IMP_DRE
 10
226528.98
 20
9374416.00
  0
VERTEX
  8
0IMP_DRE
 10
226578.55
 20
9374366.00
  0
VERTEX
  8
0IMP_DRE
 10
226634.45
 20
9374341.00
  0
VERTEX
  8
0IMP_DRE
 10
226640.44
 20
9374291.00
  0
VERTEX
  8
0IMP_DRE
 10
226702.55
 20
9374259.00
  0
VERTEX
  8
0IMP_DRE
 10
226745.86
 20
9374203.00
  0
VERTEX
  8
0IMP_DRE
 10
226807.88
 20
9374152.00
  0
VERTEX
  8
0IMP_DRE
 10
226851.19
 20
9374096.00
  0
VERTEX
  8
0IMP_DRE
 10
226888.30
 20
9374046.00
  0
VERTEX
  8
0IMP_DRE
 10
226931.64
 20
9373996.00
  0
VERTEX
  8
0IMP_DRE
 10
226968.72
 20
9373939.00
  0
VERTEX
  8
0IMP_DRE
 10
227005.84
 20
9373889.00
  0
VERTEX
  8
0IMP_DRE
 10
227036.73
 20
9373839.00
  0
VERTEX
  8
0IMP_DRE
 10
227067.63
 20
9373789.00
  0
VERTEX
  8
0IMP_DRE
 10
227098.48
 20
9373732.00
  0
VERTEX
  8
0IMP_DRE
 10
227123.02
 20
9373651.00
  0
VERTEX
  8
0IMP_DRE
 10
227141.45
 20
9373601.00
  0
VERTEX
  8
0IMP_DRE
 10
227153.64
 20
9373545.00
  0
VERTEX
  8
0IMP_DRE
 10
227159.48
 20
9373463.00
  0
VERTEX
  8
0IMP_DRE
 10
227159.11
 20
9373382.00
  0
VERTEX
  8
0IMP_DRE
 10
227158.73
 20
9373301.00
  0
VERTEX
  8
0IMP_DRE
 10
227158.34
 20
9373213.00
  0
VERTEX
  8
0IMP_DRE
 10
227157.97
 20
9373132.00
  0
VERTEX
  8
0IMP_DRE
 10
227145.17
 20
9373057.00
  0
VERTEX
  8
0IMP_DRE
 10
227126.20
 20
9372994.00
  0
VERTEX
  8
0IMP_DRE
 10
227094.64
 20
9372900.00
  0
VERTEX
  8
0IMP_DRE
 10
227050.64
 20
9372807.00
  0
VERTEX
  8
0IMP_DRE
 10
227019.27
 20
9372750.00
  0
VERTEX
  8
0IMP_DRE
 10
226969.27
 20
9372707.00
  0
VERTEX
  8
0IMP_DRE
 10
226925.41
 20
9372644.00
  0
VERTEX
  8
0IMP_DRE
 10
226875.31
 20
9372582.00
  0
VERTEX
  8
0IMP_DRE
 10
226818.86
 20
9372488.00
  0
VERTEX
  8
0IMP_DRE
 10
226774.89
 20
9372401.00
  0
VERTEX
  8
0IMP_DRE
 10
226718.41
 20
9372301.00
  0
VERTEX
  8
0IMP_DRE
 10
226680.55
 20
9372188.00
  0
VERTEX
  8
0IMP_DRE
 10
226636.59
 20
9372107.00
  0
VERTEX
  8
0IMP_DRE
 10
226586.19
 20
9371976.00
  0
VERTEX
  8
0IMP_DRE
 10
226548.53
 20
9371907.00
  0
VERTEX
  8
0IMP_DRE
 10
226498.14
 20
9371782.00
  0
VERTEX
  8
0IMP_DRE
 10
226448.14
 20
9371738.00
  0
VERTEX
  8
0IMP_DRE
 10
226404.20
 20
9371657.00
  0
VERTEX
  8
0IMP_DRE
 10
226341.58
 20
9371576.00
  0
VERTEX
  8
0IMP_DRE
 10
226285.33
 20
9371526.00
  0
VERTEX
  8
0IMP_DRE
 10
226266.42
 20
9371476.00
  0
VERTEX
  8
0IMP_DRE
 10
226216.36
 20
9371420.00
  0
VERTEX
  8
0IMP_DRE
 10
226135.02
 20
9371326.00
  0
VERTEX
  8
0IMP_DRE
 10
226084.88
 20
9371251.00
  0
VERTEX
  8
0IMP_DRE
 10
226034.73
 20
9371176.00
  0
VERTEX
  8
0IMP_DRE
 10
225959.52
 20
9371064.00
  0
VERTEX
  8
0IMP_DRE
 10
225946.78
 20
9371001.00
  0
VERTEX
  8
0IMP_DRE
 10
225896.41
 20
9370876.00
  0
VERTEX
  8
0IMP_DRE
 10
225852.55
 20
9370814.00
  0
VERTEX
  8
0IMP_DRE
 10
225833.44
 20
9370720.00
  0
VERTEX
  8
0IMP_DRE
 10
225783.17
 20
9370620.00
  0
VERTEX
  8
0IMP_DRE
 10
225732.95
 20
9370526.00
  0
VERTEX
  8
0IMP_DRE
 10
225682.92
 20
9370476.00
  0
VERTEX
  8
0IMP_DRE
 10
225632.75
 20
9370395.00
  0
VERTEX
  8
0IMP_DRE
 10
225576.33
 20
9370308.00
  0
VERTEX
  8
0IMP_DRE
 10
225526.33
 20
9370264.00
  0
VERTEX
  8
0IMP_DRE
 10
225476.33
 20
9370220.00
  0
VERTEX
  8
0IMP_DRE
 10
225382.72
 20
9370171.00
  0
VERTEX
  8
0IMP_DRE
 10
225295.36
 20
9370121.00
  0
VERTEX
  8
0IMP_DRE
 10
225208.02
 20
9370077.00
  0
VERTEX
  8
0IMP_DRE
 10
225120.58
 20
9370015.00
  0
VERTEX
  8
0IMP_DRE
 10
225064.34
 20
9369971.00
  0
VERTEX
  8
0IMP_DRE
 10
225008.13
 20
9369928.00
  0
VERTEX
  8
0IMP_DRE
 10
224952.05
 20
9369915.00
  0
VERTEX
  8
0IMP_DRE
 10
224908.22
 20
9369859.00
  0
VERTEX
  8
0IMP_DRE
 10
224833.38
 20
9369828.00
  0
VERTEX
  8
0IMP_DRE
 10
224789.55
 20
9369772.00
  0
VERTEX
  8
0IMP_DRE
 10
224770.44
 20
9369678.00
  0
VERTEX
  8
0IMP_DRE
 10
224757.58
 20
9369591.00
  0
VERTEX
  8
0IMP_DRE
 10
224750.98
 20
9369509.00
  0
VERTEX
  8
0IMP_DRE
 10
224731.91
 20
9369422.00
  0
VERTEX
  8
0IMP_DRE
 10
224706.58
 20
9369328.00
  0
VERTEX
  8
0IMP_DRE
 10
224662.66
 20
9369253.00
  0
VERTEX
  8
0IMP_DRE
 10
224643.77
 20
9369203.00
  0
VERTEX
  8
0IMP_DRE
 10
224587.47
 20
9369147.00
  0
VERTEX
  8
0IMP_DRE
 10
224499.89
 20
9369053.00
  0
VERTEX
  8
0IMP_DRE
 10
224481.00
 20
9369003.00
  0
VERTEX
  8
0IMP_DRE
 10
224462.06
 20
9368947.00
  0
VERTEX
  8
0IMP_DRE
 10
224430.67
 20
9368891.00
  0
VERTEX
  8
0IMP_DRE
 10
224405.38
 20
9368803.00
  0
VERTEX
  8
0IMP_DRE
 10
224398.89
 20
9368747.00
  0
VERTEX
  8
0IMP_DRE
 10
224385.98
 20
9368647.00
  0
VERTEX
  8
0IMP_DRE
 10
224373.03
 20
9368540.00
  0
VERTEX
  8
0IMP_DRE
 10
224360.02
 20
9368415.00
  0
VERTEX
  8
0IMP_DRE
 10
224341.02
 20
9368347.00
  0
VERTEX
  8
0IMP_DRE
 10
224290.63
 20
9368215.00
  0
VERTEX
  8
0IMP_DRE
 10
224277.88
 20
9368153.00
  0
VERTEX
  8
0IMP_DRE
 10
224239.95
 20
9368028.00
  0
VERTEX
  8
0IMP_DRE
 10
224196.13
 20
9367972.00
  0
VERTEX
  8
0IMP_DRE
 10
224183.22
 20
9367871.00
  0
VERTEX
  8
0IMP_DRE
 10
224145.47
 20
9367784.00
  0
VERTEX
  8
0IMP_DRE
 10
224126.44
 20
9367709.00
  0
VERTEX
  8
0IMP_DRE
 10
224094.91
 20
9367621.00
  0
VERTEX
  8
0IMP_DRE
 10
224076.02
 20
9367571.00
  0
VERTEX
  8
0IMP_DRE
 10
224032.03
 20
9367484.00
  0
VERTEX
  8
0IMP_DRE
 10
224019.09
 20
9367378.00
  0
VERTEX
  8
0IMP_DRE
 10
224006.19
 20
9367278.00
  0
VERTEX
  8
0IMP_DRE
 10
223993.06
 20
9367134.00
  0
VERTEX
  8
0IMP_DRE
 10
223992.81
 20
9367077.00
  0
VERTEX
  8
0IMP_DRE
 10
224029.61
 20
9366958.00
  0
VERTEX
  8
0IMP_DRE
 10
224041.83
 20
9366908.00
  0
VERTEX
  8
0IMP_DRE
 10
224078.94
 20
9366858.00
  0
VERTEX
  8
0IMP_DRE
 10
224109.83
 20
9366808.00
  0
VERTEX
  8
0IMP_DRE
 10
224184.09
 20
9366714.00
  0
VERTEX
  8
0IMP_DRE
 10
224227.41
 20
9366657.00
  0
VERTEX
  8
0IMP_DRE
 10
224276.83
 20
9366576.00
  0
VERTEX
  8
0IMP_DRE
 10
224320.03
 20
9366495.00
  0
VERTEX
  8
0IMP_DRE
 10
224338.31
 20
9366413.00
  0
VERTEX
  8
0IMP_DRE
 10
224381.47
 20
9366319.00
  0
VERTEX
  8
0IMP_DRE
 10
224399.64
 20
9366213.00
  0
VERTEX
  8
0IMP_DRE
 10
224411.81
 20
9366150.00
  0
VERTEX
  8
0IMP_DRE
 10
224423.80
 20
9366050.00
  0
VERTEX
  8
0IMP_DRE
 10
224435.95
 20
9365987.00
  0
VERTEX
  8
0IMP_DRE
 10
224447.63
 20
9365818.00
  0
VERTEX
  8
0IMP_DRE
 10
224459.69
 20
9365737.00
  0
VERTEX
  8
0IMP_DRE
 10
224471.52
 20
9365599.00
  0
VERTEX
  8
0IMP_DRE
 10
224477.50
 20
9365549.00
  0
VERTEX
  8
0IMP_DRE
 10
224495.78
 20
9365462.00
  0
VERTEX
  8
0IMP_DRE
 10
224526.52
 20
9365380.00
  0
VERTEX
  8
0IMP_DRE
 10
224557.27
 20
9365299.00
  0
VERTEX
  8
0IMP_DRE
 10
224619.25
 20
9365242.00
  0
VERTEX
  8
0IMP_DRE
 10
224668.61
 20
9365148.00
  0
VERTEX
  8
0IMP_DRE
 10
224717.89
 20
9365036.00
  0
VERTEX
  8
0IMP_DRE
 10
224735.95
 20
9364904.00
  0
VERTEX
  8
0IMP_DRE
 10
224760.42
 20
9364810.00
  0
VERTEX
  8
0IMP_DRE
 10
224772.41
 20
9364710.00
  0
VERTEX
  8
0IMP_DRE
 10
224809.53
 20
9364660.00
  0
VERTEX
  8
0IMP_DRE
 10
224883.81
 20
9364572.00
  0
VERTEX
  8
0IMP_DRE
 10
224939.66
 20
9364534.00
  0
VERTEX
  8
0IMP_DRE
 10
224989.00
 20
9364434.00
  0
VERTEX
  8
0IMP_DRE
 10
225044.67
 20
9364359.00
  0
VERTEX
  8
0IMP_DRE
 10
225081.77
 20
9364302.00
  0
VERTEX
  8
0IMP_DRE
 10
225118.67
 20
9364208.00
  0
VERTEX
  8
0IMP_DRE
 10
225124.66
 20
9364158.00
  0
VERTEX
  8
0IMP_DRE
 10
225124.41
 20
9364102.00
  0
VERTEX
  8
0IMP_DRE
 10
225124.09
 20
9364033.00
  0
VERTEX
  8
0IMP_DRE
 10
225123.70
 20
9363952.00
  0
VERTEX
  8
0IMP_DRE
 10
225123.28
 20
9363858.00
  0
VERTEX
  8
0IMP_DRE
 10
225122.81
 20
9363758.00
  0
VERTEX
  8
0IMP_DRE
 10
225109.91
 20
9363658.00
  0
VERTEX
  8
0IMP_DRE
 10
225103.27
 20
9363570.00
  0
VERTEX
  8
0IMP_DRE
 10
225103.05
 20
9363520.00
  0
VERTEX
  8
0IMP_DRE
 10
225102.44
 20
9363389.00
  0
VERTEX
  8
0IMP_DRE
 10
225107.92
 20
9363226.00
  0
VERTEX
  8
0IMP_DRE
 10
225126.36
 20
9363176.00
  0
VERTEX
  8
0IMP_DRE
 10
225163.27
 20
9363082.00
  0
VERTEX
  8
0IMP_DRE
 10
225262.58
 20
9363019.00
  0
VERTEX
  8
0IMP_DRE
 10
225355.58
 20
9362938.00
  0
VERTEX
  8
0IMP_DRE
 10
225430.03
 20
9362887.00
  0
VERTEX
  8
0IMP_DRE
 10
225516.92
 20
9362831.00
  0
VERTEX
  8
0IMP_DRE
 10
225585.33
 20
9362818.00
  0
VERTEX
  8
0IMP_DRE
 10
225659.84
 20
9362780.00
  0
VERTEX
  8
0IMP_DRE
 10
225740.66
 20
9362755.00
  0
VERTEX
  8
0IMP_DRE
 10
225808.95
 20
9362717.00
  0
VERTEX
  8
0IMP_DRE
 10
225883.53
 20
9362692.00
  0
VERTEX
  8
0IMP_DRE
 10
225958.08
 20
9362661.00
  0
VERTEX
  8
0IMP_DRE
 10
226032.69
 20
9362642.00
  0
VERTEX
  8
0IMP_DRE
 10
226088.63
 20
9362623.00
  0
VERTEX
  8
0IMP_DRE
 10
226163.20
 20
9362598.00
  0
VERTEX
  8
0IMP_DRE
 10
226250.25
 20
9362579.00
  0
VERTEX
  8
0IMP_DRE
 10
226306.19
 20
9362560.00
  0
VERTEX
  8
0IMP_DRE
 10
226424.22
 20
9362509.00
  0
VERTEX
  8
0IMP_DRE
 10
226492.69
 20
9362509.00
  0
VERTEX
  8
0IMP_DRE
 10
226592.20
 20
9362490.00
  0
VERTEX
  8
0IMP_DRE
 10
226673.00
 20
9362465.00
  0
VERTEX
  8
0IMP_DRE
 10
226747.61
 20
9362446.00
  0
VERTEX
  8
0IMP_DRE
 10
226815.94
 20
9362414.00
  0
VERTEX
  8
0IMP_DRE
 10
226890.55
 20
9362395.00
  0
VERTEX
  8
0IMP_DRE
 10
226940.08
 20
9362339.00
  0
VERTEX
  8
0IMP_DRE
 10
227014.41
 20
9362257.00
  0
VERTEX
  8
0IMP_DRE
 10
227063.70
 20
9362151.00
  0
VERTEX
  8
0IMP_DRE
 10
227081.78
 20
9362019.00
  0
VERTEX
  8
0IMP_DRE
 10
227118.86
 20
9361963.00
  0
VERTEX
  8
0IMP_DRE
 10
227130.81
 20
9361857.00
  0
VERTEX
  8
0IMP_DRE
 10
227161.56
 20
9361775.00
  0
VERTEX
  8
0IMP_DRE
 10
227179.86
 20
9361694.00
  0
VERTEX
  8
0IMP_DRE
 10
227210.58
 20
9361606.00
  0
VERTEX
  8
0IMP_DRE
 10
227222.80
 20
9361556.00
  0
VERTEX
  8
0IMP_DRE
 10
227241.23
 20
9361506.00
  0
VERTEX
  8
0IMP_DRE
 10
227253.45
 20
9361456.00
  0
VERTEX
  8
0IMP_DRE
 10
227265.50
 20
9361368.00
  0
VERTEX
  8
0IMP_DRE
 10
227283.95
 20
9361318.00
  0
VERTEX
  8
0IMP_DRE
 10
227289.83
 20
9361243.00
  0
VERTEX
  8
0IMP_DRE
 10
227301.98
 20
9361180.00
  0
VERTEX
  8
0IMP_DRE
 10
227320.31
 20
9361105.00
  0
VERTEX
  8
0IMP_DRE
 10
227332.41
 20
9361030.00
  0
VERTEX
  8
0IMP_DRE
 10
227350.59
 20
9360924.00
  0
VERTEX
  8
0IMP_DRE
 10
227368.81
 20
9360824.00
  0
VERTEX
  8
0IMP_DRE
 10
227387.17
 20
9360755.00
  0
VERTEX
  8
0IMP_DRE
 10
227405.33
 20
9360642.00
  0
VERTEX
  8
0IMP_DRE
 10
227454.77
 20
9360567.00
  0
SEQEND
  8
0IMP_DRE
  0
POLYLINE
  8
0IMP_DRE
 66
     1
  0
VERTEX
  8
0IMP_DRE
 10
227454.77
 20
9360567.00
  0
VERTEX
  8
0IMP_DRE
 10
227516.58
 20
9360473.00
  0
VERTEX
  8
0IMP_DRE
 10
227572.34
 20
9360416.00
  0
VERTEX
  8
0IMP_DRE
 10
227640.58
 20
9360366.00
  0
VERTEX
  8
0IMP_DRE
 10
227714.88
 20
9360278.00
  0
VERTEX
  8
0IMP_DRE
 10
227782.98
 20
9360203.00
  0
VERTEX
  8
0IMP_DRE
 10
227832.50
 20
9360140.00
  0
VERTEX
  8
0IMP_DRE
 10
227869.42
 20
9360046.00
  0
SEQEND
  8
0IMP_DRE
  0
POLYLINE
  8
0IMP_DRE
 66
     1
  0
VERTEX
  8
0IMP_DRE
 10
229732.39
 20
9353697.00
  0
VERTEX
  8
0IMP_DRE
 10
229750.75
 20
9353628.00
  0
VERTEX
  8
0IMP_DRE
 10
229769.14
 20
9353565.00
  0
VERTEX
  8
0IMP_DRE
 10
229781.36
 20
9353515.00
  0
VERTEX
  8
0IMP_DRE
 10
229787.31
 20
9353459.00
  0
VERTEX
  8
0IMP_DRE
 10
229787.08
 20
9353409.00
  0
VERTEX
  8
0IMP_DRE
 10
229786.84
 20
9353358.00
  0
VERTEX
  8
0IMP_DRE
 10
229786.63
 20
9353308.00
  0
VERTEX
  8
0IMP_DRE
 10
229786.39
 20
9353258.00
  0
VERTEX
  8
0IMP_DRE
 10
229786.09
 20
9353196.00
  0
VERTEX
  8
0IMP_DRE
 10
229792.09
 20
9353146.00
  0
VERTEX
  8
0IMP_DRE
 10
229804.31
 20
9353096.00
  0
VERTEX
  8
0IMP_DRE
 10
229822.64
 20
9353021.00
  0
VERTEX
  8
0IMP_DRE
 10
229853.53
 20
9352970.00
  0
VERTEX
  8
0IMP_DRE
 10
229871.97
 20
9352920.00
  0
VERTEX
  8
0IMP_DRE
 10
229890.39
 20
9352864.00
  0
VERTEX
  8
0IMP_DRE
 10
229908.63
 20
9352770.00
  0
VERTEX
  8
0IMP_DRE
 10
229920.84
 20
9352720.00
  0
VERTEX
  8
0IMP_DRE
 10
229914.39
 20
9352670.00
  0
VERTEX
  8
0IMP_DRE
 10
229858.23
 20
9352639.00
  0
VERTEX
  8
0IMP_DRE
 10
229802.13
 20
9352620.00
  0
VERTEX
  8
0IMP_DRE
 10
229746.27
 20
9352658.00
  0
VERTEX
  8
0IMP_DRE
 10
229715.38
 20
9352708.00
  0
VERTEX
  8
0IMP_DRE
 10
229696.97
 20
9352764.00
  0
VERTEX
  8
0IMP_DRE
 10
229678.61
 20
9352833.00
  0
VERTEX
  8
0IMP_DRE
 10
229653.94
 20
9352883.00
  0
VERTEX
  8
0IMP_DRE
 10
229641.72
 20
9352933.00
  0
VERTEX
  8
0IMP_DRE
 10
229610.86
 20
9352990.00
  0
VERTEX
  8
0IMP_DRE
 10
229592.53
 20
9353065.00
  0
VERTEX
  8
0IMP_DRE
 10
229561.67
 20
9353121.00
  0
VERTEX
  8
0IMP_DRE
 10
229530.92
 20
9353203.00
  0
VERTEX
  8
0IMP_DRE
 10
229506.25
 20
9353253.00
  0
VERTEX
  8
0IMP_DRE
 10
229487.97
 20
9353334.00
  0
VERTEX
  8
0IMP_DRE
 10
229463.44
 20
9353416.00
  0
VERTEX
  8
0IMP_DRE
 10
229451.28
 20
9353478.00
  0
VERTEX
  8
0IMP_DRE
 10
229432.92
 20
9353547.00
  0
VERTEX
  8
0IMP_DRE
 10
229414.47
 20
9353597.00
  0
VERTEX
  8
0IMP_DRE
 10
229396.06
 20
9353654.00
  0
VERTEX
  8
0IMP_DRE
 10
229383.94
 20
9353723.00
  0
VERTEX
  8
0IMP_DRE
 10
229365.61
 20
9353798.00
  0
VERTEX
  8
0IMP_DRE
 10
229353.39
 20
9353848.00
  0
VERTEX
  8
0IMP_DRE
 10
229334.97
 20
9353904.00
  0
VERTEX
  8
0IMP_DRE
 10
229322.92
 20
9353992.00
  0
VERTEX
  8
0IMP_DRE
 10
229310.73
 20
9354048.00
  0
VERTEX
  8
0IMP_DRE
 10
229304.81
 20
9354111.00
  0
VERTEX
  8
0IMP_DRE
 10
229305.03
 20
9354161.00
  0
VERTEX
  8
0IMP_DRE
 10
229299.08
 20
9354217.00
  0
VERTEX
  8
0IMP_DRE
 10
229299.33
 20
9354273.00
  0
VERTEX
  8
0IMP_DRE
 10
229293.38
 20
9354330.00
  0
VERTEX
  8
0IMP_DRE
 10
229293.59
 20
9354380.00
  0
VERTEX
  8
0IMP_DRE
 10
229293.91
 20
9354449.00
  0
VERTEX
  8
0IMP_DRE
 10
229294.17
 20
9354505.00
  0
VERTEX
  8
0IMP_DRE
 10
229294.41
 20
9354555.00
  0
VERTEX
  8
0IMP_DRE
 10
229294.64
 20
9354605.00
  0
VERTEX
  8
0IMP_DRE
 10
229294.95
 20
9354674.00
  0
VERTEX
  8
0IMP_DRE
 10
229313.86
 20
9354724.00
  0
VERTEX
  8
0IMP_DRE
 10
229369.73
 20
9354692.00
  0
VERTEX
  8
0IMP_DRE
 10
229406.70
 20
9354611.00
  0
VERTEX
  8
0IMP_DRE
 10
229418.92
 20
9354561.00
  0
VERTEX
  8
0IMP_DRE
 10
229431.14
 20
9354511.00
  0
VERTEX
  8
0IMP_DRE
 10
229436.97
 20
9354423.00
  0
VERTEX
  8
0IMP_DRE
 10
229436.73
 20
9354373.00
  0
VERTEX
  8
0IMP_DRE
 10
229436.36
 20
9354292.00
  0
VERTEX
  8
0IMP_DRE
 10
229442.23
 20
9354217.00
  0
VERTEX
  8
0IMP_DRE
 10
229442.00
 20
9354167.00
  0
VERTEX
  8
0IMP_DRE
 10
229472.86
 20
9354110.00
  0
VERTEX
  8
0IMP_DRE
 10
229528.66
 20
9354060.00
  0
VERTEX
  8
0IMP_DRE
 10
229571.98
 20
9354010.00
  0
VERTEX
  8
0IMP_DRE
 10
229621.56
 20
9353960.00
  0
VERTEX
  8
0IMP_DRE
 10
229652.31
 20
9353878.00
  0
VERTEX
  8
0IMP_DRE
 10
229683.11
 20
9353809.00
  0
VERTEX
  8
0IMP_DRE
 10
229701.53
 20
9353753.00
  0
VERTEX
  8
0IMP_DRE
 10
229713.75
 20
9353703.00
  0
VERTEX
  8
0IMP_DRE
 10
229713.52
 20
9353653.00
  0
VERTEX
  8
0IMP_DRE
 10
229732.39
 20
9353697.00
  0
SEQEND
  8
0IMP_DRE
  0
POLYLINE
  8
0IMP_DRE
 66
     1
  0
VERTEX
  8
0IMP_DRE
 10
227869.42
 20
9360046.00
  0
VERTEX
  8
0IMP_DRE
 10
227912.73
 20
9359990.00
  0
VERTEX
  8
0IMP_DRE
 10
227949.61
 20
9359890.00
  0
VERTEX
  8
0IMP_DRE
 10
227986.73
 20
9359839.00
  0
VERTEX
  8
0IMP_DRE
 10
227998.59
 20
9359714.00
  0
VERTEX
  8
0IMP_DRE
 10
228016.84
 20
9359620.00
  0
VERTEX
  8
0IMP_DRE
 10
228034.83
 20
9359470.00
  0
VERTEX
  8
0IMP_DRE
 10
228053.16
 20
9359395.00
  0
VERTEX
  8
0IMP_DRE
 10
228071.16
 20
9359251.00
  0
VERTEX
  8
0IMP_DRE
 10
228083.34
 20
9359195.00
  0
VERTEX
  8
0IMP_DRE
 10
228095.36
 20
9359101.00
  0
VERTEX
  8
0IMP_DRE
 10
228119.83
 20
9359007.00
  0
VERTEX
  8
0IMP_DRE
 10
228131.81
 20
9358907.00
  0
VERTEX
  8
0IMP_DRE
 10
228150.13
 20
9358825.00
  0
VERTEX
  8
0IMP_DRE
 10
228162.16
 20
9358738.00
  0
VERTEX
  8
0IMP_DRE
 10
228186.66
 20
9358650.00
  0
VERTEX
  8
0IMP_DRE
 10
228198.77
 20
9358575.00
  0
VERTEX
  8
0IMP_DRE
 10
228229.44
 20
9358481.00
  0
VERTEX
  8
0IMP_DRE
 10
228247.56
 20
9358362.00
  0
VERTEX
  8
0IMP_DRE
 10
228259.77
 20
9358306.00
  0
VERTEX
  8
0IMP_DRE
 10
228277.94
 20
9358199.00
  0
VERTEX
  8
0IMP_DRE
 10
228308.72
 20
9358124.00
  0
VERTEX
  8
0IMP_DRE
 10
228327.02
 20
9358043.00
  0
VERTEX
  8
0IMP_DRE
 10
228364.13
 20
9357993.00
  0
VERTEX
  8
0IMP_DRE
 10
228388.66
 20
9357911.00
  0
VERTEX
  8
0IMP_DRE
 10
228425.73
 20
9357855.00
  0
VERTEX
  8
0IMP_DRE
 10
228469.08
 20
9357805.00
  0
VERTEX
  8
0IMP_DRE
 10
228487.53
 20
9357754.00
  0
VERTEX
  8
0IMP_DRE
 10
228530.86
 20
9357704.00
  0
VERTEX
  8
0IMP_DRE
 10
228561.75
 20
9357654.00
  0
VERTEX
  8
0IMP_DRE
 10
228598.84
 20
9357598.00
  0
VERTEX
  8
0IMP_DRE
 10
228648.38
 20
9357541.00
  0
VERTEX
  8
0IMP_DRE
 10
228691.72
 20
9357491.00
  0
VERTEX
  8
0IMP_DRE
 10
228766.05
 20
9357410.00
  0
VERTEX
  8
0IMP_DRE
 10
228809.36
 20
9357353.00
  0
VERTEX
  8
0IMP_DRE
 10
228902.31
 20
9357265.00
  0
VERTEX
  8
0IMP_DRE
 10
228970.47
 20
9357196.00
  0
VERTEX
  8
0IMP_DRE
 10
229019.83
 20
9357102.00
  0
VERTEX
  8
0IMP_DRE
 10
229056.83
 20
9357027.00
  0
VERTEX
  8
0IMP_DRE
 10
229112.63
 20
9356977.00
  0
VERTEX
  8
0IMP_DRE
 10
229186.94
 20
9356895.00
  0
VERTEX
  8
0IMP_DRE
 10
229199.16
 20
9356845.00
  0
VERTEX
  8
0IMP_DRE
 10
229261.11
 20
9356783.00
  0
VERTEX
  8
0IMP_DRE
 10
229304.45
 20
9356732.00
  0
VERTEX
  8
0IMP_DRE
 10
229341.58
 20
9356682.00
  0
VERTEX
  8
0IMP_DRE
 10
229391.11
 20
9356626.00
  0
VERTEX
  8
0IMP_DRE
 10
229434.45
 20
9356576.00
  0
VERTEX
  8
0IMP_DRE
 10
229514.97
 20
9356488.00
  0
VERTEX
  8
0IMP_DRE
 10
229564.50
 20
9356431.00
  0
VERTEX
  8
0IMP_DRE
 10
229614.06
 20
9356381.00
  0
VERTEX
  8
0IMP_DRE
 10
229675.92
 20
9356300.00
  0
VERTEX
  8
0IMP_DRE
 10
229706.83
 20
9356249.00
  0
VERTEX
  8
0IMP_DRE
 10
229743.92
 20
9356193.00
  0
VERTEX
  8
0IMP_DRE
 10
229830.67
 20
9356111.00
  0
VERTEX
  8
0IMP_DRE
 10
229867.66
 20
9356030.00
  0
VERTEX
  8
0IMP_DRE
 10
229923.20
 20
9355930.00
  0
VERTEX
  8
0IMP_DRE
 10
229966.23
 20
9355811.00
  0
VERTEX
  8
0IMP_DRE
 10
230009.52
 20
9355748.00
  0
VERTEX
  8
0IMP_DRE
 10
230015.19
 20
9355629.00
  0
VERTEX
  8
0IMP_DRE
 10
230052.31
 20
9355579.00
  0
VERTEX
  8
0IMP_DRE
 10
230064.30
 20
9355479.00
  0
VERTEX
  8
0IMP_DRE
 10
230082.72
 20
9355422.00
  0
VERTEX
  8
0IMP_DRE
 10
230100.81
 20
9355297.00
  0
VERTEX
  8
0IMP_DRE
 10
230119.19
 20
9355235.00
  0
VERTEX
  8
0IMP_DRE
 10
230137.41
 20
9355134.00
  0
VERTEX
  8
0IMP_DRE
 10
230149.48
 20
9355053.00
  0
VERTEX
  8
0IMP_DRE
 10
230149.11
 20
9354972.00
  0
VERTEX
  8
0IMP_DRE
 10
230154.92
 20
9354884.00
  0
VERTEX
  8
0IMP_DRE
 10
230160.69
 20
9354784.00
  0
VERTEX
  8
0IMP_DRE
 10
230160.36
 20
9354715.00
  0
VERTEX
  8
0IMP_DRE
 10
230203.11
 20
9354534.00
  0
VERTEX
  8
0IMP_DRE
 10
230215.09
 20
9354434.00
  0
VERTEX
  8
0IMP_DRE
 10
230258.08
 20
9354308.00
  0
VERTEX
  8
0IMP_DRE
 10
230270.28
 20
9354252.00
  0
VERTEX
  8
0IMP_DRE
 10
230307.13
 20
9354145.00
  0
VERTEX
  8
0IMP_DRE
 10
230325.58
 20
9354095.00
  0
VERTEX
  8
0IMP_DRE
 10
230362.45
 20
9353995.00
  0
VERTEX
  8
0IMP_DRE
 10
230411.84
 20
9353907.00
  0
VERTEX
  8
0IMP_DRE
 10
230461.23
 20
9353820.00
  0
VERTEX
  8
0IMP_DRE
 10
230504.41
 20
9353732.00
  0
VERTEX
  8
0IMP_DRE
 10
230547.75
 20
9353682.00
  0
VERTEX
  8
0IMP_DRE
 10
230615.98
 20
9353631.00
  0
VERTEX
  8
0IMP_DRE
 10
230671.58
 20
9353537.00
  0
VERTEX
  8
0IMP_DRE
 10
230720.94
 20
9353443.00
  0
VERTEX
  8
0IMP_DRE
 10
230757.77
 20
9353331.00
  0
VERTEX
  8
0IMP_DRE
 10
230801.11
 20
9353281.00
  0
VERTEX
  8
0IMP_DRE
 10
230844.22
 20
9353180.00
  0
VERTEX
  8
0IMP_DRE
 10
230856.44
 20
9353130.00
  0
VERTEX
  8
0IMP_DRE
 10
230899.53
 20
9353030.00
  0
VERTEX
  8
0IMP_DRE
 10
230942.89
 20
9352980.00
  0
VERTEX
  8
0IMP_DRE
 10
230986.05
 20
9352892.00
  0
VERTEX
  8
0IMP_DRE
 10
231010.58
 20
9352811.00
  0
VERTEX
  8
0IMP_DRE
 10
231053.77
 20
9352729.00
  0
VERTEX
  8
0IMP_DRE
 10
231097.00
 20
9352654.00
  0
VERTEX
  8
0IMP_DRE
 10
231115.44
 20
9352604.00
  0
VERTEX
  8
0IMP_DRE
 10
231152.55
 20
9352554.00
  0
VERTEX
  8
0IMP_DRE
 10
231164.58
 20
9352460.00
  0
VERTEX
  8
0IMP_DRE
 10
231176.80
 20
9352410.00
  0
VERTEX
  8
0IMP_DRE
 10
231188.75
 20
9352303.00
  0
VERTEX
  8
0IMP_DRE
 10
231194.39
 20
9352178.00
  0
VERTEX
  8
0IMP_DRE
 10
231199.61
 20
9351959.00
  0
VERTEX
  8
0IMP_DRE
 10
231199.13
 20
9351853.00
  0
VERTEX
  8
0IMP_DRE
 10
231204.70
 20
9351715.00
  0
VERTEX
  8
0IMP_DRE
 10
231210.67
 20
9351659.00
  0
VERTEX
  8
0IMP_DRE
 10
231210.23
 20
9351565.00
  0
VERTEX
  8
0IMP_DRE
 10
231216.09
 20
9351484.00
  0
VERTEX
  8
0IMP_DRE
 10
231215.69
 20
9351396.00
  0
VERTEX
  8
0IMP_DRE
 10
231221.50
 20
9351308.00
  0
VERTEX
  8
0IMP_DRE
 10
231227.31
 20
9351221.00
  0
VERTEX
  8
0IMP_DRE
 10
231233.31
 20
9351171.00
  0
VERTEX
  8
0IMP_DRE
 10
231245.28
 20
9351064.00
  0
VERTEX
  8
0IMP_DRE
 10
231251.23
 20
9351008.00
  0
VERTEX
  8
0IMP_DRE
 10
231256.97
 20
9350902.00
  0
VERTEX
  8
0IMP_DRE
 10
231262.84
 20
9350827.00
  0
VERTEX
  8
0IMP_DRE
 10
231268.41
 20
9350683.00
  0
VERTEX
  8
0IMP_DRE
 10
231268.13
 20
9350620.00
  0
VERTEX
  8
0IMP_DRE
 10
231273.72
 20
9350482.00
  0
VERTEX
  8
0IMP_DRE
 10
231273.28
 20
9350389.00
  0
VERTEX
  8
0IMP_DRE
 10
231205.67
 20
9350576.00
  0
VERTEX
  8
0IMP_DRE
 10
231205.38
 20
9350514.00
  0
VERTEX
  8
0IMP_DRE
 10
231205.00
 20
9350433.00
  0
VERTEX
  8
0IMP_DRE
 10
231204.78
 20
9350382.00
  0
VERTEX
  8
0IMP_DRE
 10
231204.52
 20
9350326.00
  0
VERTEX
  8
0IMP_DRE
 10
231204.25
 20
9350270.00
  0
VERTEX
  8
0IMP_DRE
 10
231204.03
 20
9350220.00
  0
VERTEX
  8
0IMP_DRE
 10
231203.77
 20
9350163.00
  0
VERTEX
  8
0IMP_DRE
 10
231197.31
 20
9350113.00
  0
VERTEX
  8
0IMP_DRE
 10
231190.86
 20
9350063.00
  0
VERTEX
  8
0IMP_DRE
 10
231171.92
 20
9350007.00
  0
VERTEX
  8
0IMP_DRE
 10
231140.53
 20
9349951.00
  0
VERTEX
  8
0IMP_DRE
 10
231109.06
 20
9349876.00
  0
VERTEX
  8
0IMP_DRE
 10
231058.91
 20
9349795.00
  0
VERTEX
  8
0IMP_DRE
 10
231039.97
 20
9349738.00
  0
VERTEX
  8
0IMP_DRE
 10
231033.36
 20
9349657.00
  0
VERTEX
  8
0IMP_DRE
 10
231051.61
 20
9349563.00
  0
VERTEX
  8
0IMP_DRE
 10
231076.25
 20
9349507.00
  0
VERTEX
  8
0IMP_DRE
 10
231132.00
 20
9349450.00
  0
VERTEX
  8
0IMP_DRE
 10
231187.77
 20
9349394.00
  0
VERTEX
  8
0IMP_DRE
 10
231212.44
 20
9349344.00
  0
VERTEX
  8
0IMP_DRE
 10
231230.84
 20
9349287.00
  0
VERTEX
  8
0IMP_DRE
 10
231230.50
 20
9349212.00
  0
VERTEX
  8
0IMP_DRE
 10
231230.13
 20
9349131.00
  0
VERTEX
  8
0IMP_DRE
 10
231229.89
 20
9349081.00
  0
VERTEX
  8
0IMP_DRE
 10
231217.19
 20
9349025.00
  0
VERTEX
  8
0IMP_DRE
 10
231204.39
 20
9348950.00
  0
VERTEX
  8
0IMP_DRE
 10
231185.48
 20
9348900.00
  0
VERTEX
  8
0IMP_DRE
 10
231179.03
 20
9348850.00
  0
VERTEX
  8
0IMP_DRE
 10
231172.58
 20
9348800.00
  0
VERTEX
  8
0IMP_DRE
 10
231159.69
 20
9348706.00
  0
VERTEX
  8
0IMP_DRE
 10
231153.20
 20
9348649.00
  0
VERTEX
  8
0IMP_DRE
 10
231152.97
 20
9348599.00
  0
VERTEX
  8
0IMP_DRE
 10
231146.50
 20
9348543.00
  0
VERTEX
  8
0IMP_DRE
 10
231146.23
 20
9348487.00
  0
VERTEX
  8
0IMP_DRE
 10
231139.78
 20
9348437.00
  0
VERTEX
  8
0IMP_DRE
 10
231139.38
 20
9348349.00
  0
VERTEX
  8
0IMP_DRE
 10
231139.14
 20
9348299.00
  0
VERTEX
  8
0IMP_DRE
 10
231138.72
 20
9348205.00
  0
VERTEX
  8
0IMP_DRE
 10
231138.48
 20
9348155.00
  0
VERTEX
  8
0IMP_DRE
 10
231137.98
 20
9348049.00
  0
VERTEX
  8
0IMP_DRE
 10
231143.84
 20
9347967.00
  0
VERTEX
  8
0IMP_DRE
 10
231149.63
 20
9347874.00
  0
VERTEX
  8
0IMP_DRE
 10
231161.70
 20
9347792.00
  0
VERTEX
  8
0IMP_DRE
 10
231167.70
 20
9347742.00
  0
VERTEX
  8
0IMP_DRE
 10
231179.91
 20
9347692.00
  0
VERTEX
  8
0IMP_DRE
 10
231192.13
 20
9347642.00
  0
VERTEX
  8
0IMP_DRE
 10
231222.98
 20
9347586.00
  0
VERTEX
  8
0IMP_DRE
 10
231253.66
 20
9347485.00
  0
VERTEX
  8
0IMP_DRE
 10
231284.42
 20
9347410.00
  0
VERTEX
  8
0IMP_DRE
 10
231302.75
 20
9347335.00
  0
VERTEX
  8
0IMP_DRE
 10
231321.14
 20
9347272.00
  0
VERTEX
  8
0IMP_DRE
 10
231333.19
 20
9347185.00
  0
VERTEX
  8
0IMP_DRE
 10
231339.19
 20
9347135.00
  0
VERTEX
  8
0IMP_DRE
 10
231345.00
 20
9347047.00
  0
VERTEX
  8
0IMP_DRE
 10
231363.30
 20
9346966.00
  0
VERTEX
  8
0IMP_DRE
 10
231381.59
 20
9346884.00
  0
VERTEX
  8
0IMP_DRE
 10
231412.34
 20
9346803.00
  0
VERTEX
  8
0IMP_DRE
 10
231455.55
 20
9346721.00
  0
VERTEX
  8
0IMP_DRE
 10
231473.84
 20
9346640.00
  0
VERTEX
  8
0IMP_DRE
 10
231492.25
 20
9346584.00
  0
VERTEX
  8
0IMP_DRE
 10
231529.33
 20
9346527.00
  0
VERTEX
  8
0IMP_DRE
 10
231547.67
 20
9346452.00
  0
VERTEX
  8
0IMP_DRE
 10
231603.31
 20
9346371.00
  0
VERTEX
  8
0IMP_DRE
 10
231615.41
 20
9346296.00
  0
VERTEX
  8
0IMP_DRE
 10
231646.19
 20
9346220.00
  0
VERTEX
  8
0IMP_DRE
 10
231683.09
 20
9346126.00
  0
VERTEX
  8
0IMP_DRE
 10
231713.88
 20
9346051.00
  0
VERTEX
  8
0IMP_DRE
 10
231744.53
 20
9345951.00
  0
VERTEX
  8
0IMP_DRE
 10
231775.28
 20
9345870.00
  0
VERTEX
  8
0IMP_DRE
 10
231793.56
 20
9345782.00
  0
VERTEX
  8
0IMP_DRE
 10
231811.97
 20
9345726.00
  0
VERTEX
  8
0IMP_DRE
 10
231836.47
 20
9345638.00
  0
VERTEX
  8
0IMP_DRE
 10
231854.88
 20
9345582.00
  0
VERTEX
  8
0IMP_DRE
 10
231873.33
 20
9345531.00
  0
VERTEX
  8
0IMP_DRE
 10
231885.53
 20
9345481.00
  0
VERTEX
  8
0IMP_DRE
 10
231897.72
 20
9345425.00
  0
VERTEX
  8
0IMP_DRE
 10
231922.39
 20
9345375.00
  0
VERTEX
  8
0IMP_DRE
 10
231926.92
 20
9345273.00
  0
SEQEND
  8
0IMP_DRE
  0
POLYLINE
  8
0IMP_DRE
 66
     1
  0
VERTEX
  8
0IMP_DRE
 10
231958.81
 20
9345175.00
  0
VERTEX
  8
0IMP_DRE
 10
231943.53
 20
9345222.00
  0
VERTEX
  8
0IMP_DRE
 10
231926.92
 20
9345273.00
  0
SEQEND
  8
0IMP_DRE
  0
POLYLINE
  8
0IMP_DRE
 66
     1
  0
VERTEX
  8
0IMP_DRE
 10
230483.64
 20
9347882.00
  0
VERTEX
  8
0IMP_DRE
 10
230539.66
 20
9347882.00
  0
VERTEX
  8
0IMP_DRE
 10
230595.53
 20
9347850.00
  0
VERTEX
  8
0IMP_DRE
 10
230620.08
 20
9347775.00
  0
VERTEX
  8
0IMP_DRE
 10
230632.27
 20
9347719.00
  0
VERTEX
  8
0IMP_DRE
 10
230638.27
 20
9347669.00
  0
VERTEX
  8
0IMP_DRE
 10
230638.00
 20
9347612.00
  0
VERTEX
  8
0IMP_DRE
 10
230637.58
 20
9347518.00
  0
VERTEX
  8
0IMP_DRE
 10
230637.34
 20
9347468.00
  0
VERTEX
  8
0IMP_DRE
 10
230649.53
 20
9347412.00
  0
VERTEX
  8
0IMP_DRE
 10
230711.45
 20
9347343.00
  0
VERTEX
  8
0IMP_DRE
 10
230754.73
 20
9347280.00
  0
VERTEX
  8
0IMP_DRE
 10
230785.53
 20
9347211.00
  0
VERTEX
  8
0IMP_DRE
 10
230797.67
 20
9347142.00
  0
VERTEX
  8
0IMP_DRE
 10
230809.89
 20
9347092.00
  0
VERTEX
  8
0IMP_DRE
 10
230821.94
 20
9347005.00
  0
VERTEX
  8
0IMP_DRE
 10
230834.16
 20
9346955.00
  0
VERTEX
  8
0IMP_DRE
 10
230839.97
 20
9346867.00
  0
VERTEX
  8
0IMP_DRE
 10
230858.42
 20
9346817.00
  0
VERTEX
  8
0IMP_DRE
 10
230895.36
 20
9346729.00
  0
VERTEX
  8
0IMP_DRE
 10
230944.92
 20
9346679.00
  0
VERTEX
  8
0IMP_DRE
 10
231000.72
 20
9346629.00
  0
VERTEX
  8
0IMP_DRE
 10
231050.28
 20
9346579.00
  0
VERTEX
  8
0IMP_DRE
 10
231093.63
 20
9346528.00
  0
VERTEX
  8
0IMP_DRE
 10
231149.41
 20
9346478.00
  0
VERTEX
  8
0IMP_DRE
 10
231174.08
 20
9346428.00
  0
VERTEX
  8
0IMP_DRE
 10
231223.63
 20
9346372.00
  0
VERTEX
  8
0IMP_DRE
 10
231260.73
 20
9346322.00
  0
VERTEX
  8
0IMP_DRE
 10
231316.34
 20
9346234.00
  0
VERTEX
  8
0IMP_DRE
 10
231322.31
 20
9346177.00
  0
VERTEX
  8
0IMP_DRE
 10
231359.42
 20
9346127.00
  0
VERTEX
  8
0IMP_DRE
 10
231371.64
 20
9346077.00
  0
VERTEX
  8
0IMP_DRE
 10
231414.78
 20
9345983.00
  0
VERTEX
  8
0IMP_DRE
 10
231432.97
 20
9345877.00
  0
VERTEX
  8
0IMP_DRE
 10
231451.38
 20
9345820.00
  0
VERTEX
  8
0IMP_DRE
 10
231463.36
 20
9345720.00
  0
VERTEX
  8
0IMP_DRE
 10
231487.86
 20
9345633.00
  0
VERTEX
  8
0IMP_DRE
 10
231499.88
 20
9345539.00
  0
VERTEX
  8
0IMP_DRE
 10
231512.06
 20
9345482.00
  0
VERTEX
  8
0IMP_DRE
 10
231524.17
 20
9345407.00
  0
VERTEX
  8
0IMP_DRE
 10
231542.53
 20
9345338.00
  0
VERTEX
  8
0IMP_DRE
 10
231554.63
 20
9345263.00
  0
VERTEX
  8
0IMP_DRE
 10
231573.05
 20
9345207.00
  0
VERTEX
  8
0IMP_DRE
 10
231579.03
 20
9345157.00
  0
VERTEX
  8
0IMP_DRE
 10
231591.25
 20
9345107.00
  0
VERTEX
  8
0IMP_DRE
 10
231597.19
 20
9345044.00
  0
VERTEX
  8
0IMP_DRE
 10
231615.59
 20
9344988.00
  0
VERTEX
  8
0IMP_DRE
 10
231615.34
 20
9344932.00
  0
VERTEX
  8
0IMP_DRE
 10
231621.19
 20
9344850.00
  0
VERTEX
  8
0IMP_DRE
 10
231620.97
 20
9344800.00
  0
VERTEX
  8
0IMP_DRE
 10
231620.59
 20
9344719.00
  0
VERTEX
  8
0IMP_DRE
 10
231620.33
 20
9344662.00
  0
VERTEX
  8
0IMP_DRE
 10
231619.98
 20
9344587.00
  0
VERTEX
  8
0IMP_DRE
 10
231613.28
 20
9344487.00
  0
VERTEX
  8
0IMP_DRE
 10
231594.25
 20
9344406.00
  0
VERTEX
  8
0IMP_DRE
 10
231581.56
 20
9344356.00
  0
VERTEX
  8
0IMP_DRE
 10
231575.11
 20
9344306.00
  0
VERTEX
  8
0IMP_DRE
 10
231537.36
 20
9344218.00
  0
VERTEX
  8
0IMP_DRE
 10
231481.25
 20
9344200.00
  0
VERTEX
  8
0IMP_DRE
 10
231462.34
 20
9344150.00
  0
VERTEX
  8
0IMP_DRE
 10
231412.17
 20
9344069.00
  0
VERTEX
  8
0IMP_DRE
 10
231331.02
 20
9344019.00
  0
VERTEX
  8
0IMP_DRE
 10
231287.16
 20
9343956.00
  0
VERTEX
  8
0IMP_DRE
 10
231230.97
 20
9343919.00
  0
VERTEX
  8
0IMP_DRE
 10
231212.06
 20
9343869.00
  0
VERTEX
  8
0IMP_DRE
 10
231155.67
 20
9343788.00
  0
VERTEX
  8
0IMP_DRE
 10
231111.78
 20
9343719.00
  0
VERTEX
  8
0IMP_DRE
 10
231074.03
 20
9343632.00
  0
VERTEX
  8
0IMP_DRE
 10
231030.19
 20
9343575.00
  0
VERTEX
  8
0IMP_DRE
 10
231011.28
 20
9343525.00
  0
VERTEX
  8
0IMP_DRE
 10
230955.00
 20
9343469.00
  0
VERTEX
  8
0IMP_DRE
 10
230892.53
 20
9343419.00
  0
VERTEX
  8
0IMP_DRE
 10
230836.45
 20
9343407.00
  0
VERTEX
  8
0IMP_DRE
 10
230774.19
 20
9343401.00
  0
VERTEX
  8
0IMP_DRE
 10
230737.13
 20
9343464.00
  0
VERTEX
  8
0IMP_DRE
 10
230681.50
 20
9343551.00
  0
VERTEX
  8
0IMP_DRE
 10
230681.73
 20
9343601.00
  0
VERTEX
  8
0IMP_DRE
 10
230669.56
 20
9343664.00
  0
VERTEX
  8
0IMP_DRE
 10
230669.89
 20
9343733.00
  0
VERTEX
  8
0IMP_DRE
 10
230670.23
 20
9343808.00
  0
VERTEX
  8
0IMP_DRE
 10
230670.61
 20
9343889.00
  0
VERTEX
  8
0IMP_DRE
 10
230670.91
 20
9343952.00
  0
VERTEX
  8
0IMP_DRE
 10
230671.31
 20
9344039.00
  0
VERTEX
  8
0IMP_DRE
 10
230671.69
 20
9344121.00
  0
VERTEX
  8
0IMP_DRE
 10
230671.97
 20
9344183.00
  0
VERTEX
  8
0IMP_DRE
 10
230672.41
 20
9344277.00
  0
VERTEX
  8
0IMP_DRE
 10
230672.75
 20
9344352.00
  0
VERTEX
  8
0IMP_DRE
 10
230673.22
 20
9344452.00
  0
VERTEX
  8
0IMP_DRE
 10
230667.28
 20
9344515.00
  0
VERTEX
  8
0IMP_DRE
 10
230649.13
 20
9344628.00
  0
VERTEX
  8
0IMP_DRE
 10
230637.00
 20
9344696.00
  0
VERTEX
  8
0IMP_DRE
 10
230618.81
 20
9344803.00
  0
VERTEX
  8
0IMP_DRE
 10
230575.50
 20
9344859.00
  0
VERTEX
  8
0IMP_DRE
 10
230569.63
 20
9344934.00
  0
VERTEX
  8
0IMP_DRE
 10
230544.95
 20
9344985.00
  0
VERTEX
  8
0IMP_DRE
 10
230520.31
 20
9345041.00
  0
VERTEX
  8
0IMP_DRE
 10
230501.97
 20
9345110.00
  0
VERTEX
  8
0IMP_DRE
 10
230483.69
 20
9345197.00
  0
VERTEX
  8
0IMP_DRE
 10
230465.39
 20
9345279.00
  0
VERTEX
  8
0IMP_DRE
 10
230447.22
 20
9345385.00
  0
VERTEX
  8
0IMP_DRE
 10
230428.83
 20
9345448.00
  0
VERTEX
  8
0IMP_DRE
 10
230422.97
 20
9345529.00
  0
VERTEX
  8
0IMP_DRE
 10
230410.78
 20
9345586.00
  0
VERTEX
  8
0IMP_DRE
 10
230398.89
 20
9345704.00
  0
VERTEX
  8
0IMP_DRE
 10
230392.95
 20
9345767.00
  0
VERTEX
  8
0IMP_DRE
 10
230387.16
 20
9345861.00
  0
VERTEX
  8
0IMP_DRE
 10
230381.25
 20
9345930.00
  0
VERTEX
  8
0IMP_DRE
 10
230375.48
 20
9346030.00
  0
VERTEX
  8
0IMP_DRE
 10
230375.86
 20
9346111.00
  0
VERTEX
  8
0IMP_DRE
 10
230370.02
 20
9346193.00
  0
VERTEX
  8
0IMP_DRE
 10
230370.42
 20
9346280.00
  0
VERTEX
  8
0IMP_DRE
 10
230364.58
 20
9346362.00
  0
VERTEX
  8
0IMP_DRE
 10
230358.58
 20
9346412.00
  0
VERTEX
  8
0IMP_DRE
 10
230346.53
 20
9346499.00
  0
VERTEX
  8
0IMP_DRE
 10
230334.48
 20
9346587.00
  0
VERTEX
  8
0IMP_DRE
 10
230328.64
 20
9346668.00
  0
VERTEX
  8
0IMP_DRE
 10
230303.97
 20
9346718.00
  0
VERTEX
  8
0IMP_DRE
 10
230291.91
 20
9346800.00
  0
VERTEX
  8
0IMP_DRE
 10
230267.31
 20
9346869.00
  0
VERTEX
  8
0IMP_DRE
 10
230255.22
 20
9346944.00
  0
VERTEX
  8
0IMP_DRE
 10
230243.03
 20
9347000.00
  0
VERTEX
  8
0IMP_DRE
 10
230230.89
 20
9347069.00
  0
VERTEX
  8
0IMP_DRE
 10
230212.58
 20
9347144.00
  0
VERTEX
  8
0IMP_DRE
 10
230200.47
 20
9347219.00
  0
VERTEX
  8
0IMP_DRE
 10
230182.08
 20
9347282.00
  0
VERTEX
  8
0IMP_DRE
 10
230170.06
 20
9347376.00
  0
VERTEX
  8
0IMP_DRE
 10
230164.22
 20
9347457.00
  0
VERTEX
  8
0IMP_DRE
 10
230158.22
 20
9347507.00
  0
VERTEX
  8
0IMP_DRE
 10
230158.55
 20
9347576.00
  0
VERTEX
  8
0IMP_DRE
 10
230158.77
 20
9347626.00
  0
VERTEX
  8
0IMP_DRE
 10
230159.11
 20
9347701.00
  0
VERTEX
  8
0IMP_DRE
 10
230171.83
 20
9347757.00
  0
VERTEX
  8
0IMP_DRE
 10
230228.02
 20
9347795.00
  0
VERTEX
  8
0IMP_DRE
 10
230284.19
 20
9347826.00
  0
VERTEX
  8
0IMP_DRE
 10
230346.48
 20
9347838.00
  0
VERTEX
  8
0IMP_DRE
 10
230483.64
 20
9347882.00
  0
SEQEND
  8
0IMP_DRE
  0
POLYLINE
  8
0IMP_DRE
 66
     1
  0
VERTEX
  8
0IMP_DRE
 10
230751.77
 20
9341242.00
  0
VERTEX
  8
0IMP_DRE
 10
230807.84
 20
9341255.00
  0
VERTEX
  8
0IMP_DRE
 10
230869.95
 20
9341223.00
  0
VERTEX
  8
0IMP_DRE
 10
230888.39
 20
9341173.00
  0
VERTEX
  8
0IMP_DRE
 10
230894.39
 20
9341123.00
  0
VERTEX
  8
0IMP_DRE
 10
230894.16
 20
9341073.00
  0
VERTEX
  8
0IMP_DRE
 10
230893.78
 20
9340992.00
  0
VERTEX
  8
0IMP_DRE
 10
230887.33
 20
9340942.00
  0
VERTEX
  8
0IMP_DRE
 10
230887.06
 20
9340885.00
  0
VERTEX
  8
0IMP_DRE
 10
230880.58
 20
9340829.00
  0
VERTEX
  8
0IMP_DRE
 10
230873.92
 20
9340735.00
  0
VERTEX
  8
0IMP_DRE
 10
230867.44
 20
9340679.00
  0
VERTEX
  8
0IMP_DRE
 10
230860.98
 20
9340629.00
  0
VERTEX
  8
0IMP_DRE
 10
230854.53
 20
9340579.00
  0
VERTEX
  8
0IMP_DRE
 10
230841.81
 20
9340522.00
  0
VERTEX
  8
0IMP_DRE
 10
230829.14
 20
9340472.00
  0
VERTEX
  8
0IMP_DRE
 10
230803.97
 20
9340416.00
  0
VERTEX
  8
0IMP_DRE
 10
230772.45
 20
9340329.00
  0
VERTEX
  8
0IMP_DRE
 10
230722.22
 20
9340235.00
  0
VERTEX
  8
0IMP_DRE
 10
230678.39
 20
9340179.00
  0
VERTEX
  8
0IMP_DRE
 10
230622.13
 20
9340129.00
  0
VERTEX
  8
0IMP_DRE
 10
230565.84
 20
9340073.00
  0
VERTEX
  8
0IMP_DRE
 10
230509.58
 20
9340017.00
  0
VERTEX
  8
0IMP_DRE
 10
230428.45
 20
9339973.00
  0
VERTEX
  8
0IMP_DRE
 10
230378.31
 20
9339898.00
  0
VERTEX
  8
0IMP_DRE
 10
230315.86
 20
9339854.00
  0
VERTEX
  8
0IMP_DRE
 10
230259.64
 20
9339811.00
  0
VERTEX
  8
0IMP_DRE
 10
230216.33
 20
9339867.00
  0
VERTEX
  8
0IMP_DRE
 10
230216.58
 20
9339924.00
  0
VERTEX
  8
0IMP_DRE
 10
230223.05
 20
9339974.00
  0
VERTEX
  8
0IMP_DRE
 10
230254.45
 20
9340036.00
  0
VERTEX
  8
0IMP_DRE
 10
230304.52
 20
9340092.00
  0
VERTEX
  8
0IMP_DRE
 10
230335.98
 20
9340167.00
  0
VERTEX
  8
0IMP_DRE
 10
230354.89
 20
9340217.00
  0
VERTEX
  8
0IMP_DRE
 10
230373.84
 20
9340280.00
  0
VERTEX
  8
0IMP_DRE
 10
230411.48
 20
9340342.00
  0
VERTEX
  8
0IMP_DRE
 10
230424.22
 20
9340405.00
  0
VERTEX
  8
0IMP_DRE
 10
230455.66
 20
9340473.00
  0
VERTEX
  8
0IMP_DRE
 10
230480.94
 20
9340555.00
  0
VERTEX
  8
0IMP_DRE
 10
230512.47
 20
9340642.00
  0
VERTEX
  8
0IMP_DRE
 10
230531.47
 20
9340717.00
  0
VERTEX
  8
0IMP_DRE
 10
230563.00
 20
9340805.00
  0
VERTEX
  8
0IMP_DRE
 10
230582.00
 20
9340874.00
  0
VERTEX
  8
0IMP_DRE
 10
230607.25
 20
9340949.00
  0
VERTEX
  8
0IMP_DRE
 10
230626.14
 20
9340999.00
  0
VERTEX
  8
0IMP_DRE
 10
230663.75
 20
9341055.00
  0
VERTEX
  8
0IMP_DRE
 10
230682.69
 20
9341111.00
  0
VERTEX
  8
0IMP_DRE
 10
230701.66
 20
9341174.00
  0
VERTEX
  8
0IMP_DRE
 10
230751.77
 20
9341242.00
  0
SEQEND
  8
0IMP_DRE
  0
POLYLINE
  8
0IMP_DRE
 66
     1
  0
VERTEX
  8
0IMP_DRE
 10
228333.59
 20
9336544.00
  0
VERTEX
  8
0IMP_DRE
 10
228290.33
 20
9336606.00
  0
VERTEX
  8
0IMP_DRE
 10
228253.23
 20
9336663.00
  0
VERTEX
  8
0IMP_DRE
 10
228234.80
 20
9336713.00
  0
VERTEX
  8
0IMP_DRE
 10
228210.30
 20
9336801.00
  0
VERTEX
  8
0IMP_DRE
 10
228191.97
 20
9336876.00
  0
VERTEX
  8
0IMP_DRE
 10
228173.61
 20
9336945.00
  0
VERTEX
  8
0IMP_DRE
 10
228149.14
 20
9337038.00
  0
VERTEX
  8
0IMP_DRE
 10
228137.11
 20
9337126.00
  0
VERTEX
  8
0IMP_DRE
 10
228124.89
 20
9337176.00
  0
VERTEX
  8
0IMP_DRE
 10
228118.89
 20
9337226.00
  0
VERTEX
  8
0IMP_DRE
 10
228106.83
 20
9337308.00
  0
VERTEX
  8
0IMP_DRE
 10
228100.97
 20
9337389.00
  0
VERTEX
  8
0IMP_DRE
 10
228095.16
 20
9337477.00
  0
VERTEX
  8
0IMP_DRE
 10
228095.38
 20
9337527.00
  0
VERTEX
  8
0IMP_DRE
 10
228095.67
 20
9337589.00
  0
VERTEX
  8
0IMP_DRE
 10
228095.89
 20
9337639.00
  0
VERTEX
  8
0IMP_DRE
 10
228096.13
 20
9337689.00
  0
VERTEX
  8
0IMP_DRE
 10
228096.45
 20
9337758.00
  0
VERTEX
  8
0IMP_DRE
 10
228103.05
 20
9337840.00
  0
VERTEX
  8
0IMP_DRE
 10
228115.84
 20
9337915.00
  0
VERTEX
  8
0IMP_DRE
 10
228122.39
 20
9337983.00
  0
VERTEX
  8
0IMP_DRE
 10
228135.27
 20
9338077.00
  0
VERTEX
  8
0IMP_DRE
 10
228148.20
 20
9338184.00
  0
VERTEX
  8
0IMP_DRE
 10
228154.69
 20
9338240.00
  0
VERTEX
  8
0IMP_DRE
 10
228161.34
 20
9338334.00
  0
VERTEX
  8
0IMP_DRE
 10
228168.05
 20
9338434.00
  0
VERTEX
  8
0IMP_DRE
 10
228180.86
 20
9338515.00
  0
VERTEX
  8
0IMP_DRE
 10
228199.77
 20
9338565.00
  0
VERTEX
  8
0IMP_DRE
 10
228224.97
 20
9338634.00
  0
VERTEX
  8
0IMP_DRE
 10
228250.22
 20
9338709.00
  0
VERTEX
  8
0IMP_DRE
 10
228306.45
 20
9338752.00
  0
VERTEX
  8
0IMP_DRE
 10
228325.36
 20
9338802.00
  0
VERTEX
  8
0IMP_DRE
 10
228394.11
 20
9338865.00
  0
VERTEX
  8
0IMP_DRE
 10
228450.36
 20
9338915.00
  0
VERTEX
  8
0IMP_DRE
 10
228494.20
 20
9338971.00
  0
VERTEX
  8
0IMP_DRE
 10
228550.45
 20
9339021.00
  0
VERTEX
  8
0IMP_DRE
 10
228631.52
 20
9339052.00
  0
VERTEX
  8
0IMP_DRE
 10
228681.52
 20
9339096.00
  0
VERTEX
  8
0IMP_DRE
 10
228743.84
 20
9339114.00
  0
VERTEX
  8
0IMP_DRE
 10
228825.00
 20
9339164.00
  0
VERTEX
  8
0IMP_DRE
 10
228875.14
 20
9339239.00
  0
VERTEX
  8
0IMP_DRE
 10
228950.20
 20
9339320.00
  0
VERTEX
  8
0IMP_DRE
 10
228969.20
 20
9339389.00
  0
VERTEX
  8
0IMP_DRE
 10
228969.48
 20
9339451.00
  0
VERTEX
  8
0IMP_DRE
 10
228982.41
 20
9339552.00
  0
VERTEX
  8
0IMP_DRE
 10
228988.94
 20
9339620.00
  0
VERTEX
  8
0IMP_DRE
 10
228989.20
 20
9339677.00
  0
VERTEX
  8
0IMP_DRE
 10
229001.97
 20
9339745.00
  0
VERTEX
  8
0IMP_DRE
 10
229014.70
 20
9339808.00
  0
VERTEX
  8
0IMP_DRE
 10
229033.69
 20
9339877.00
  0
VERTEX
  8
0IMP_DRE
 10
229058.97
 20
9339958.00
  0
VERTEX
  8
0IMP_DRE
 10
229071.73
 20
9340027.00
  0
VERTEX
  8
0IMP_DRE
 10
229096.98
 20
9340102.00
  0
VERTEX
  8
0IMP_DRE
 10
229153.31
 20
9340170.00
  0
VERTEX
  8
0IMP_DRE
 10
229172.23
 20
9340220.00
  0
VERTEX
  8
0IMP_DRE
 10
229222.39
 20
9340302.00
  0
VERTEX
  8
0IMP_DRE
 10
229266.38
 20
9340389.00
  0
VERTEX
  8
0IMP_DRE
 10
229316.48
 20
9340458.00
  0
VERTEX
  8
0IMP_DRE
 10
229354.16
 20
9340527.00
  0
VERTEX
  8
0IMP_DRE
 10
229373.05
 20
9340577.00
  0
VERTEX
  8
0IMP_DRE
 10
229416.91
 20
9340639.00
  0
VERTEX
  8
0IMP_DRE
 10
229448.44
 20
9340727.00
  0
VERTEX
  8
0IMP_DRE
 10
229479.97
 20
9340814.00
  0
VERTEX
  8
0IMP_DRE
 10
229505.22
 20
9340889.00
  0
VERTEX
  8
0IMP_DRE
 10
229524.20
 20
9340958.00
  0
VERTEX
  8
0IMP_DRE
 10
229561.89
 20
9341033.00
  0
VERTEX
  8
0IMP_DRE
 10
229605.88
 20
9341120.00
  0
VERTEX
  8
0IMP_DRE
 10
229643.48
 20
9341177.00
  0
VERTEX
  8
0IMP_DRE
 10
229693.63
 20
9341251.00
  0
VERTEX
  8
0IMP_DRE
 10
229706.38
 20
9341314.00
  0
VERTEX
  8
0IMP_DRE
 10
229750.19
 20
9341370.00
  0
VERTEX
  8
0IMP_DRE
 10
229787.86
 20
9341439.00
  0
VERTEX
  8
0IMP_DRE
 10
229837.97
 20
9341508.00
  0
VERTEX
  8
0IMP_DRE
 10
229881.89
 20
9341583.00
  0
VERTEX
  8
0IMP_DRE
 10
229913.42
 20
9341670.00
  0
VERTEX
  8
0IMP_DRE
 10
229938.58
 20
9341726.00
  0
VERTEX
  8
0IMP_DRE
 10
229969.95
 20
9341783.00
  0
VERTEX
  8
0IMP_DRE
 10
230007.73
 20
9341876.00
  0
VERTEX
  8
0IMP_DRE
 10
230051.59
 20
9341939.00
  0
VERTEX
  8
0IMP_DRE
 10
230064.59
 20
9342058.00
  0
VERTEX
  8
0IMP_DRE
 10
230102.28
 20
9342133.00
  0
VERTEX
  8
0IMP_DRE
 10
230121.38
 20
9342220.00
  0
VERTEX
  8
0IMP_DRE
 10
230146.53
 20
9342276.00
  0
VERTEX
  8
0IMP_DRE
 10
230159.31
 20
9342351.00
  0
VERTEX
  8
0IMP_DRE
 10
230190.83
 20
9342433.00
  0
VERTEX
  8
0IMP_DRE
 10
230209.88
 20
9342514.00
  0
VERTEX
  8
0IMP_DRE
 10
230210.25
 20
9342595.00
  0
VERTEX
  8
0IMP_DRE
 10
230216.73
 20
9342652.00
  0
VERTEX
  8
0IMP_DRE
 10
230217.11
 20
9342733.00
  0
VERTEX
  8
0IMP_DRE
 10
230217.48
 20
9342814.00
  0
VERTEX
  8
0IMP_DRE
 10
230217.77
 20
9342877.00
  0
VERTEX
  8
0IMP_DRE
 10
230218.14
 20
9342958.00
  0
VERTEX
  8
0IMP_DRE
 10
230218.47
 20
9343027.00
  0
VERTEX
  8
0IMP_DRE
 10
230200.02
 20
9343077.00
  0
VERTEX
  8
0IMP_DRE
 10
230175.50
 20
9343159.00
  0
VERTEX
  8
0IMP_DRE
 10
230163.42
 20
9343240.00
  0
VERTEX
  8
0IMP_DRE
 10
230145.02
 20
9343296.00
  0
VERTEX
  8
0IMP_DRE
 10
230126.80
 20
9343396.00
  0
VERTEX
  8
0IMP_DRE
 10
230102.25
 20
9343472.00
  0
VERTEX
  8
0IMP_DRE
 10
230077.72
 20
9343553.00
  0
VERTEX
  8
0IMP_DRE
 10
230053.08
 20
9343609.00
  0
VERTEX
  8
0IMP_DRE
 10
230040.92
 20
9343672.00
  0
VERTEX
  8
0IMP_DRE
 10
230010.13
 20
9343741.00
  0
VERTEX
  8
0IMP_DRE
 10
229991.73
 20
9343803.00
  0
VERTEX
  8
0IMP_DRE
 10
229954.77
 20
9343885.00
  0
VERTEX
  8
0IMP_DRE
 10
229942.55
 20
9343935.00
  0
VERTEX
  8
0IMP_DRE
 10
229917.88
 20
9343985.00
  0
VERTEX
  8
0IMP_DRE
 10
229893.33
 20
9344060.00
  0
VERTEX
  8
0IMP_DRE
 10
229868.73
 20
9344129.00
  0
VERTEX
  8
0IMP_DRE
 10
229819.27
 20
9344198.00
  0
VERTEX
  8
0IMP_DRE
 10
229807.19
 20
9344280.00
  0
VERTEX
  8
0IMP_DRE
 10
229782.64
 20
9344355.00
  0
VERTEX
  8
0IMP_DRE
 10
229751.91
 20
9344436.00
  0
VERTEX
  8
0IMP_DRE
 10
229727.38
 20
9344518.00
  0
VERTEX
  8
0IMP_DRE
 10
229715.23
 20
9344586.00
  0
VERTEX
  8
0IMP_DRE
 10
229703.02
 20
9344636.00
  0
VERTEX
  8
0IMP_DRE
 10
229690.81
 20
9344687.00
  0
VERTEX
  8
0IMP_DRE
 10
229666.28
 20
9344768.00
  0
VERTEX
  8
0IMP_DRE
 10
229641.64
 20
9344824.00
  0
VERTEX
  8
0IMP_DRE
 10
229610.89
 20
9344906.00
  0
VERTEX
  8
0IMP_DRE
 10
229586.25
 20
9344962.00
  0
VERTEX
  8
0IMP_DRE
 10
229574.11
 20
9345025.00
  0
VERTEX
  8
0IMP_DRE
 10
229543.31
 20
9345100.00
  0
VERTEX
  8
0IMP_DRE
 10
229524.94
 20
9345163.00
  0
VERTEX
  8
0IMP_DRE
 10
229506.53
 20
9345219.00
  0
VERTEX
  8
0IMP_DRE
 10
229488.22
 20
9345300.00
  0
VERTEX
  8
0IMP_DRE
 10
229476.05
 20
9345357.00
  0
VERTEX
  8
0IMP_DRE
 10
229463.94
 20
9345432.00
  0
VERTEX
  8
0IMP_DRE
 10
229458.00
 20
9345494.00
  0
VERTEX
  8
0IMP_DRE
 10
229452.13
 20
9345569.00
  0
VERTEX
  8
0IMP_DRE
 10
229446.22
 20
9345638.00
  0
VERTEX
  8
0IMP_DRE
 10
229446.80
 20
9345763.00
  0
VERTEX
  8
0IMP_DRE
 10
229447.08
 20
9345826.00
  0
VERTEX
  8
0IMP_DRE
 10
229447.61
 20
9345939.00
  0
VERTEX
  8
0IMP_DRE
 10
229447.83
 20
9345989.00
  0
VERTEX
  8
0IMP_DRE
 10
229448.16
 20
9346057.00
  0
VERTEX
  8
0IMP_DRE
 10
229448.38
 20
9346108.00
  0
VERTEX
  8
0IMP_DRE
 10
229448.73
 20
9346183.00
  0
VERTEX
  8
0IMP_DRE
 10
229448.95
 20
9346233.00
  0
VERTEX
  8
0IMP_DRE
 10
229449.31
 20
9346308.00
  0
VERTEX
  8
0IMP_DRE
 10
229449.63
 20
9346377.00
  0
VERTEX
  8
0IMP_DRE
 10
229443.63
 20
9346427.00
  0
VERTEX
  8
0IMP_DRE
 10
229431.41
 20
9346477.00
  0
VERTEX
  8
0IMP_DRE
 10
229419.31
 20
9346552.00
  0
VERTEX
  8
0IMP_DRE
 10
229400.86
 20
9346602.00
  0
VERTEX
  8
0IMP_DRE
 10
229388.86
 20
9346696.00
  0
VERTEX
  8
0IMP_DRE
 10
229376.78
 20
9346777.00
  0
VERTEX
  8
0IMP_DRE
 10
229377.13
 20
9346852.00
  0
VERTEX
  8
0IMP_DRE
 10
229371.13
 20
9346902.00
  0
VERTEX
  8
0IMP_DRE
 10
229371.59
 20
9347003.00
  0
VERTEX
  8
0IMP_DRE
 10
229371.97
 20
9347084.00
  0
VERTEX
  8
0IMP_DRE
 10
229372.48
 20
9347196.00
  0
VERTEX
  8
0IMP_DRE
 10
229372.83
 20
9347272.00
  0
VERTEX
  8
0IMP_DRE
 10
229373.09
 20
9347328.00
  0
VERTEX
  8
0IMP_DRE
 10
229373.47
 20
9347409.00
  0
VERTEX
  8
0IMP_DRE
 10
229380.13
 20
9347503.00
  0
VERTEX
  8
0IMP_DRE
 10
229399.16
 20
9347578.00
  0
VERTEX
  8
0IMP_DRE
 10
229411.94
 20
9347653.00
  0
VERTEX
  8
0IMP_DRE
 10
229437.16
 20
9347722.00
  0
VERTEX
  8
0IMP_DRE
 10
229449.92
 20
9347791.00
  0
VERTEX
  8
0IMP_DRE
 10
229468.83
 20
9347841.00
  0
VERTEX
  8
0IMP_DRE
 10
229500.34
 20
9347928.00
  0
VERTEX
  8
0IMP_DRE
 10
229519.34
 20
9347997.00
  0
VERTEX
  8
0IMP_DRE
 10
229538.33
 20
9348066.00
  0
VERTEX
  8
0IMP_DRE
 10
229557.36
 20
9348141.00
  0
VERTEX
  8
0IMP_DRE
 10
229576.45
 20
9348235.00
  0
VERTEX
  8
0IMP_DRE
 10
229595.36
 20
9348285.00
  0
VERTEX
  8
0IMP_DRE
 10
229614.36
 20
9348353.00
  0
VERTEX
  8
0IMP_DRE
 10
229645.80
 20
9348422.00
  0
VERTEX
  8
0IMP_DRE
 10
229664.70
 20
9348472.00
  0
VERTEX
  8
0IMP_DRE
 10
229720.94
 20
9348516.00
  0
VERTEX
  8
0IMP_DRE
 10
229752.39
 20
9348591.00
  0
VERTEX
  8
0IMP_DRE
 10
229814.81
 20
9348628.00
  0
VERTEX
  8
0IMP_DRE
 10
229889.75
 20
9348678.00
  0
VERTEX
  8
0IMP_DRE
 10
229977.05
 20
9348715.00
  0
VERTEX
  8
0IMP_DRE
 10
230033.34
 20
9348771.00
  0
VERTEX
  8
0IMP_DRE
 10
230114.38
 20
9348796.00
  0
VERTEX
  8
0IMP_DRE
 10
230189.33
 20
9348852.00
  0
VERTEX
  8
0IMP_DRE
 10
230239.33
 20
9348896.00
  0
VERTEX
  8
0IMP_DRE
 10
230289.56
 20
9348990.00
  0
VERTEX
  8
0IMP_DRE
 10
230314.80
 20
9349065.00
  0
VERTEX
  8
0IMP_DRE
 10
230327.50
 20
9349121.00
  0
VERTEX
  8
0IMP_DRE
 10
230346.47
 20
9349184.00
  0
VERTEX
  8
0IMP_DRE
 10
230353.05
 20
9349259.00
  0
VERTEX
  8
0IMP_DRE
 10
230353.30
 20
9349315.00
  0
VERTEX
  8
0IMP_DRE
 10
230359.88
 20
9349390.00
  0
VERTEX
  8
0IMP_DRE
 10
230366.33
 20
9349440.00
  0
VERTEX
  8
0IMP_DRE
 10
230372.94
 20
9349521.00
  0
VERTEX
  8
0IMP_DRE
 10
230379.56
 20
9349609.00
  0
VERTEX
  8
0IMP_DRE
 10
230386.25
 20
9349709.00
  0
VERTEX
  8
0IMP_DRE
 10
230386.47
 20
9349759.00
  0
VERTEX
  8
0IMP_DRE
 10
230386.73
 20
9349815.00
  0
VERTEX
  8
0IMP_DRE
 10
230387.05
 20
9349884.00
  0
VERTEX
  8
0IMP_DRE
 10
230387.41
 20
9349959.00
  0
VERTEX
  8
0IMP_DRE
 10
230387.69
 20
9350022.00
  0
VERTEX
  8
0IMP_DRE
 10
230387.92
 20
9350072.00
  0
VERTEX
  8
0IMP_DRE
 10
230381.95
 20
9350128.00
  0
VERTEX
  8
0IMP_DRE
 10
230376.08
 20
9350203.00
  0
VERTEX
  8
0IMP_DRE
 10
230376.39
 20
9350272.00
  0
VERTEX
  8
0IMP_DRE
 10
230364.17
 20
9350322.00
  0
VERTEX
  8
0IMP_DRE
 10
230358.22
 20
9350379.00
  0
VERTEX
  8
0IMP_DRE
 10
230346.14
 20
9350460.00
  0
VERTEX
  8
0IMP_DRE
 10
230327.69
 20
9350510.00
  0
VERTEX
  8
0IMP_DRE
 10
230321.70
 20
9350560.00
  0
VERTEX
  8
0IMP_DRE
 10
230309.55
 20
9350623.00
  0
VERTEX
  8
0IMP_DRE
 10
230303.69
 20
9350704.00
  0
VERTEX
  8
0IMP_DRE
 10
230303.92
 20
9350754.00
  0
VERTEX
  8
0IMP_DRE
 10
230304.16
 20
9350804.00
  0
VERTEX
  8
0IMP_DRE
 10
230304.50
 20
9350879.00
  0
VERTEX
  8
0IMP_DRE
 10
230298.66
 20
9350961.00
  0
VERTEX
  8
0IMP_DRE
 10
230298.94
 20
9351023.00
  0
VERTEX
  8
0IMP_DRE
 10
230292.94
 20
9351073.00
  0
VERTEX
  8
0IMP_DRE
 10
230280.77
 20
9351130.00
  0
VERTEX
  8
0IMP_DRE
 10
230268.53
 20
9351180.00
  0
VERTEX
  8
0IMP_DRE
 10
230243.88
 20
9351230.00
  0
VERTEX
  8
0IMP_DRE
 10
230225.44
 20
9351280.00
  0
VERTEX
  8
0IMP_DRE
 10
230169.64
 20
9351330.00
  0
VERTEX
  8
0IMP_DRE
 10
230157.48
 20
9351393.00
  0
VERTEX
  8
0IMP_DRE
 10
230101.69
 20
9351443.00
  0
VERTEX
  8
0IMP_DRE
 10
230052.13
 20
9351493.00
  0
VERTEX
  8
0IMP_DRE
 10
230027.48
 20
9351550.00
  0
VERTEX
  8
0IMP_DRE
 10
229996.59
 20
9351600.00
  0
VERTEX
  8
0IMP_DRE
 10
229971.94
 20
9351650.00
  0
VERTEX
  8
0IMP_DRE
 10
229947.30
 20
9351706.00
  0
VERTEX
  8
0IMP_DRE
 10
229910.36
 20
9351794.00
  0
VERTEX
  8
0IMP_DRE
 10
229898.19
 20
9351856.00
  0
VERTEX
  8
0IMP_DRE
 10
229873.58
 20
9351919.00
  0
VERTEX
  8
0IMP_DRE
 10
229867.64
 20
9351982.00
  0
VERTEX
  8
0IMP_DRE
 10
229849.36
 20
9352063.00
  0
VERTEX
  8
0IMP_DRE
 10
229830.98
 20
9352132.00
  0
VERTEX
  8
0IMP_DRE
 10
229812.58
 20
9352188.00
  0
VERTEX
  8
0IMP_DRE
 10
229787.91
 20
9352238.00
  0
VERTEX
  8
0IMP_DRE
 10
229757.11
 20
9352307.00
  0
VERTEX
  8
0IMP_DRE
 10
229732.44
 20
9352358.00
  0
VERTEX
  8
0IMP_DRE
 10
229707.77
 20
9352408.00
  0
VERTEX
  8
0IMP_DRE
 10
229683.13
 20
9352464.00
  0
VERTEX
  8
0IMP_DRE
 10
229646.02
 20
9352514.00
  0
VERTEX
  8
0IMP_DRE
 10
229596.45
 20
9352564.00
  0
VERTEX
  8
0IMP_DRE
 10
229571.81
 20
9352621.00
  0
VERTEX
  8
0IMP_DRE
 10
229509.80
 20
9352671.00
  0
VERTEX
  8
0IMP_DRE
 10
229472.70
 20
9352727.00
  0
VERTEX
  8
0IMP_DRE
 10
229429.45
 20
9352796.00
  0
VERTEX
  8
0IMP_DRE
 10
229373.75
 20
9352865.00
  0
VERTEX
  8
0IMP_DRE
 10
229342.89
 20
9352922.00
  0
VERTEX
  8
0IMP_DRE
 10
229299.58
 20
9352978.00
  0
VERTEX
  8
0IMP_DRE
 10
229281.25
 20
9353053.00
  0
VERTEX
  8
0IMP_DRE
 10
229262.95
 20
9353135.00
  0
VERTEX
  8
0IMP_DRE
 10
229250.73
 20
9353185.00
  0
VERTEX
  8
0IMP_DRE
 10
229232.41
 20
9353260.00
  0
VERTEX
  8
0IMP_DRE
 10
229220.28
 20
9353329.00
  0
VERTEX
  8
0IMP_DRE
 10
229214.31
 20
9353385.00
  0
VERTEX
  8
0IMP_DRE
 10
229202.28
 20
9353473.00
  0
VERTEX
  8
0IMP_DRE
 10
229183.92
 20
9353542.00
  0
VERTEX
  8
0IMP_DRE
 10
229178.00
 20
9353610.00
  0
VERTEX
  8
0IMP_DRE
 10
229165.86
 20
9353679.00
  0
VERTEX
  8
0IMP_DRE
 10
229159.94
 20
9353742.00
  0
VERTEX
  8
0IMP_DRE
 10
229154.06
 20
9353817.00
  0
VERTEX
  8
0IMP_DRE
 10
229148.06
 20
9353867.00
  0
VERTEX
  8
0IMP_DRE
 10
229142.22
 20
9353948.00
  0
VERTEX
  8
0IMP_DRE
 10
229142.56
 20
9354024.00
  0
VERTEX
  8
0IMP_DRE
 10
229142.80
 20
9354074.00
  0
VERTEX
  8
0IMP_DRE
 10
229143.13
 20
9354142.00
  0
VERTEX
  8
0IMP_DRE
 10
229143.44
 20
9354211.00
  0
VERTEX
  8
0IMP_DRE
 10
229143.72
 20
9354274.00
  0
VERTEX
  8
0IMP_DRE
 10
229144.03
 20
9354343.00
  0
VERTEX
  8
0IMP_DRE
 10
229144.42
 20
9354424.00
  0
VERTEX
  8
0IMP_DRE
 10
229157.09
 20
9354474.00
  0
VERTEX
  8
0IMP_DRE
 10
229163.66
 20
9354549.00
  0
VERTEX
  8
0IMP_DRE
 10
229170.20
 20
9354618.00
  0
VERTEX
  8
0IMP_DRE
 10
229183.03
 20
9354699.00
  0
VERTEX
  8
0IMP_DRE
 10
229195.80
 20
9354768.00
  0
VERTEX
  8
0IMP_DRE
 10
229208.50
 20
9354824.00
  0
VERTEX
  8
0IMP_DRE
 10
229221.30
 20
9354899.00
  0
VERTEX
  8
0IMP_DRE
 10
229227.88
 20
9354974.00
  0
VERTEX
  8
0IMP_DRE
 10
229234.39
 20
9355037.00
  0
VERTEX
  8
0IMP_DRE
 10
229234.61
 20
9355087.00
  0
VERTEX
  8
0IMP_DRE
 10
229234.84
 20
9355137.00
  0
VERTEX
  8
0IMP_DRE
 10
229222.75
 20
9355212.00
  0
VERTEX
  8
0IMP_DRE
 10
229204.30
 20
9355262.00
  0
VERTEX
  8
0IMP_DRE
 10
229179.75
 20
9355337.00
  0
VERTEX
  8
0IMP_DRE
 10
229161.42
 20
9355413.00
  0
VERTEX
  8
0IMP_DRE
 10
229143.06
 20
9355481.00
  0
VERTEX
  8
0IMP_DRE
 10
229112.27
 20
9355550.00
  0
VERTEX
  8
0IMP_DRE
 10
229075.17
 20
9355607.00
  0
VERTEX
  8
0IMP_DRE
 10
229025.67
 20
9355669.00
  0
VERTEX
  8
0IMP_DRE
 10
228976.13
 20
9355726.00
  0
VERTEX
  8
0IMP_DRE
 10
228920.39
 20
9355789.00
  0
VERTEX
  8
0IMP_DRE
 10
228827.58
 20
9355908.00
  0
VERTEX
  8
0IMP_DRE
 10
228784.27
 20
9355964.00
  0
VERTEX
  8
0IMP_DRE
 10
228728.53
 20
9356027.00
  0
VERTEX
  8
0IMP_DRE
 10
228666.44
 20
9356058.00
  0
VERTEX
  8
0IMP_DRE
 10
228610.53
 20
9356084.00
  0
VERTEX
  8
0IMP_DRE
 10
228560.97
 20
9356134.00
  0
VERTEX
  8
0IMP_DRE
 10
228505.13
 20
9356171.00
  0
VERTEX
  8
0IMP_DRE
 10
228443.05
 20
9356209.00
  0
VERTEX
  8
0IMP_DRE
 10
228380.89
 20
9356228.00
  0
VERTEX
  8
0IMP_DRE
 10
228318.84
 20
9356272.00
  0
VERTEX
  8
0IMP_DRE
 10
228262.91
 20
9356291.00
  0
VERTEX
  8
0IMP_DRE
 10
228207.00
 20
9356316.00
  0
VERTEX
  8
0IMP_DRE
 10
228119.94
 20
9356335.00
  0
VERTEX
  8
0IMP_DRE
 10
228057.81
 20
9356360.00
  0
VERTEX
  8
0IMP_DRE
 10
228001.95
 20
9356392.00
  0
VERTEX
  8
0IMP_DRE
 10
227983.50
 20
9356442.00
  0
VERTEX
  8
0IMP_DRE
 10
227940.25
 20
9356511.00
  0
VERTEX
  8
0IMP_DRE
 10
227915.58
 20
9356561.00
  0
VERTEX
  8
0IMP_DRE
 10
227891.06
 20
9356642.00
  0
VERTEX
  8
0IMP_DRE
 10
227872.61
 20
9356692.00
  0
VERTEX
  8
0IMP_DRE
 10
227848.06
 20
9356768.00
  0
VERTEX
  8
0IMP_DRE
 10
227829.61
 20
9356818.00
  0
VERTEX
  8
0IMP_DRE
 10
227811.31
 20
9356899.00
  0
VERTEX
  8
0IMP_DRE
 10
227792.91
 20
9356956.00
  0
VERTEX
  8
0IMP_DRE
 10
227780.80
 20
9357031.00
  0
VERTEX
  8
0IMP_DRE
 10
227762.53
 20
9357118.00
  0
VERTEX
  8
0IMP_DRE
 10
227713.23
 20
9357225.00
  0
VERTEX
  8
0IMP_DRE
 10
227701.16
 20
9357306.00
  0
VERTEX
  8
0IMP_DRE
 10
227682.83
 20
9357381.00
  0
VERTEX
  8
0IMP_DRE
 10
227651.98
 20
9357444.00
  0
VERTEX
  8
0IMP_DRE
 10
227621.25
 20
9357525.00
  0
VERTEX
  8
0IMP_DRE
 10
227590.34
 20
9357576.00
  0
VERTEX
  8
0IMP_DRE
 10
227571.92
 20
9357626.00
  0
VERTEX
  8
0IMP_DRE
 10
227516.22
 20
9357695.00
  0
VERTEX
  8
0IMP_DRE
 10
227510.22
 20
9357745.00
  0
VERTEX
  8
0IMP_DRE
 10
227467.02
 20
9357826.00
  0
VERTEX
  8
0IMP_DRE
 10
227436.13
 20
9357876.00
  0
VERTEX
  8
0IMP_DRE
 10
227386.59
 20
9357933.00
  0
VERTEX
  8
0IMP_DRE
 10
227355.73
 20
9357989.00
  0
VERTEX
  8
0IMP_DRE
 10
227318.73
 20
9358064.00
  0
VERTEX
  8
0IMP_DRE
 10
227300.48
 20
9358158.00
  0
VERTEX
  8
0IMP_DRE
 10
227275.94
 20
9358233.00
  0
VERTEX
  8
0IMP_DRE
 10
227263.89
 20
9358321.00
  0
VERTEX
  8
0IMP_DRE
 10
227245.63
 20
9358409.00
  0
VERTEX
  8
0IMP_DRE
 10
227239.80
 20
9358496.00
  0
VERTEX
  8
0IMP_DRE
 10
227227.58
 20
9358546.00
  0
VERTEX
  8
0IMP_DRE
 10
227215.47
 20
9358621.00
  0
VERTEX
  8
0IMP_DRE
 10
227178.39
 20
9358678.00
  0
VERTEX
  8
0IMP_DRE
 10
227160.05
 20
9358747.00
  0
VERTEX
  8
0IMP_DRE
 10
227091.83
 20
9358803.00
  0
VERTEX
  8
0IMP_DRE
 10
227048.55
 20
9358866.00
  0
VERTEX
  8
0IMP_DRE
 10
227005.20
 20
9358916.00
  0
VERTEX
  8
0IMP_DRE
 10
226955.75
 20
9358991.00
  0
VERTEX
  8
0IMP_DRE
 10
226893.78
 20
9359048.00
  0
VERTEX
  8
0IMP_DRE
 10
226831.64
 20
9359073.00
  0
VERTEX
  8
0IMP_DRE
 10
226788.30
 20
9359123.00
  0
VERTEX
  8
0IMP_DRE
 10
226726.25
 20
9359167.00
  0
VERTEX
  8
0IMP_DRE
 10
226670.58
 20
9359242.00
  0
VERTEX
  8
0IMP_DRE
 10
226614.77
 20
9359286.00
  0
VERTEX
  8
0IMP_DRE
 10
226565.22
 20
9359343.00
  0
VERTEX
  8
0IMP_DRE
 10
226509.28
 20
9359362.00
  0
VERTEX
  8
0IMP_DRE
 10
226447.30
 20
9359418.00
  0
VERTEX
  8
0IMP_DRE
 10
226354.14
 20
9359462.00
  0
VERTEX
  8
0IMP_DRE
 10
226298.34
 20
9359512.00
  0
VERTEX
  8
0IMP_DRE
 10
226236.45
 20
9359588.00
  0
VERTEX
  8
0IMP_DRE
 10
226211.92
 20
9359669.00
  0
VERTEX
  8
0IMP_DRE
 10
226174.98
 20
9359757.00
  0
VERTEX
  8
0IMP_DRE
 10
226150.34
 20
9359813.00
  0
VERTEX
  8
0IMP_DRE
 10
226138.13
 20
9359863.00
  0
VERTEX
  8
0IMP_DRE
 10
226119.69
 20
9359913.00
  0
VERTEX
  8
0IMP_DRE
 10
226101.42
 20
9360001.00
  0
VERTEX
  8
0IMP_DRE
 10
226089.30
 20
9360070.00
  0
VERTEX
  8
0IMP_DRE
 10
226083.30
 20
9360120.00
  0
VERTEX
  8
0IMP_DRE
 10
226071.11
 20
9360176.00
  0
VERTEX
  8
0IMP_DRE
 10
226058.92
 20
9360233.00
  0
VERTEX
  8
0IMP_DRE
 10
226040.50
 20
9360289.00
  0
VERTEX
  8
0IMP_DRE
 10
226028.42
 20
9360370.00
  0
VERTEX
  8
0IMP_DRE
 10
226016.33
 20
9360446.00
  0
VERTEX
  8
0IMP_DRE
 10
226004.25
 20
9360527.00
  0
VERTEX
  8
0IMP_DRE
 10
225985.92
 20
9360602.00
  0
VERTEX
  8
0IMP_DRE
 10
225980.05
 20
9360677.00
  0
VERTEX
  8
0IMP_DRE
 10
225961.72
 20
9360752.00
  0
VERTEX
  8
0IMP_DRE
 10
225955.78
 20
9360815.00
  0
VERTEX
  8
0IMP_DRE
 10
225943.70
 20
9360896.00
  0
VERTEX
  8
0IMP_DRE
 10
225925.41
 20
9360978.00
  0
VERTEX
  8
0IMP_DRE
 10
225907.06
 20
9361047.00
  0
VERTEX
  8
0IMP_DRE
 10
225894.92
 20
9361115.00
  0
VERTEX
  8
0IMP_DRE
 10
225864.11
 20
9361184.00
  0
VERTEX
  8
0IMP_DRE
 10
225839.48
 20
9361241.00
  0
VERTEX
  8
0IMP_DRE
 10
225808.61
 20
9361297.00
  0
VERTEX
  8
0IMP_DRE
 10
225783.98
 20
9361353.00
  0
VERTEX
  8
0IMP_DRE
 10
225728.19
 20
9361404.00
  0
VERTEX
  8
0IMP_DRE
 10
225697.33
 20
9361460.00
  0
VERTEX
  8
0IMP_DRE
 10
225616.69
 20
9361523.00
  0
VERTEX
  8
0IMP_DRE
 10
225560.88
 20
9361567.00
  0
VERTEX
  8
0IMP_DRE
 10
225523.80
 20
9361623.00
  0
VERTEX
  8
0IMP_DRE
 10
225474.25
 20
9361680.00
  0
VERTEX
  8
0IMP_DRE
 10
225443.36
 20
9361730.00
  0
VERTEX
  8
0IMP_DRE
 10
225387.52
 20
9361768.00
  0
VERTEX
  8
0IMP_DRE
 10
225331.70
 20
9361811.00
  0
VERTEX
  8
0IMP_DRE
 10
225307.13
 20
9361880.00
  0
VERTEX
  8
0IMP_DRE
 10
225251.20
 20
9361906.00
  0
VERTEX
  8
0IMP_DRE
 10
225195.41
 20
9361950.00
  0
VERTEX
  8
0IMP_DRE
 10
225139.63
 20
9362006.00
  0
VERTEX
  8
0IMP_DRE
 10
225096.34
 20
9362069.00
  0
VERTEX
  8
0IMP_DRE
 10
225034.45
 20
9362144.00
  0
VERTEX
  8
0IMP_DRE
 10
224978.83
 20
9362232.00
  0
VERTEX
  8
0IMP_DRE
 10
224941.72
 20
9362282.00
  0
VERTEX
  8
0IMP_DRE
 10
224885.95
 20
9362338.00
  0
VERTEX
  8
0IMP_DRE
 10
224855.06
 20
9362388.00
  0
VERTEX
  8
0IMP_DRE
 10
224824.17
 20
9362439.00
  0
VERTEX
  8
0IMP_DRE
 10
224774.61
 20
9362489.00
  0
VERTEX
  8
0IMP_DRE
 10
224731.30
 20
9362545.00
  0
VERTEX
  8
0IMP_DRE
 10
224675.50
 20
9362595.00
  0
VERTEX
  8
0IMP_DRE
 10
224632.22
 20
9362658.00
  0
VERTEX
  8
0IMP_DRE
 10
224576.47
 20
9362715.00
  0
VERTEX
  8
0IMP_DRE
 10
224527.05
 20
9362796.00
  0
VERTEX
  8
0IMP_DRE
 10
224483.70
 20
9362846.00
  0
VERTEX
  8
0IMP_DRE
 10
224434.14
 20
9362896.00
  0
VERTEX
  8
0IMP_DRE
 10
224372.13
 20
9362947.00
  0
VERTEX
  8
0IMP_DRE
 10
224316.30
 20
9362991.00
  0
VERTEX
  8
0IMP_DRE
 10
224272.97
 20
9363041.00
  0
VERTEX
  8
0IMP_DRE
 10
224204.75
 20
9363097.00
  0
VERTEX
  8
0IMP_DRE
 10
224155.30
 20
9363173.00
  0
VERTEX
  8
0IMP_DRE
 10
224093.20
 20
9363204.00
  0
VERTEX
  8
0IMP_DRE
 10
224043.72
 20
9363273.00
  0
VERTEX
  8
0IMP_DRE
 10
223957.06
 20
9363380.00
  0
VERTEX
  8
0IMP_DRE
 10
223901.34
 20
9363442.00
  0
VERTEX
  8
0IMP_DRE
 10
223845.58
 20
9363499.00
  0
VERTEX
  8
0IMP_DRE
 10
223796.09
 20
9363568.00
  0
VERTEX
  8
0IMP_DRE
 10
223752.78
 20
9363624.00
  0
VERTEX
  8
0IMP_DRE
 10
223659.77
 20
9363699.00
  0
VERTEX
  8
0IMP_DRE
 10
223604.03
 20
9363762.00
  0
VERTEX
  8
0IMP_DRE
 10
223573.17
 20
9363819.00
  0
VERTEX
  8
0IMP_DRE
 10
223492.59
 20
9363894.00
  0
VERTEX
  8
0IMP_DRE
 10
223443.13
 20
9363963.00
  0
VERTEX
  8
0IMP_DRE
 10
223418.45
 20
9364013.00
  0
VERTEX
  8
0IMP_DRE
 10
223362.81
 20
9364094.00
  0
VERTEX
  8
0IMP_DRE
 10
223356.81
 20
9364145.00
  0
VERTEX
  8
0IMP_DRE
 10
223325.98
 20
9364207.00
  0
VERTEX
  8
0IMP_DRE
 10
223307.63
 20
9364276.00
  0
VERTEX
  8
0IMP_DRE
 10
223289.33
 20
9364357.00
  0
VERTEX
  8
0IMP_DRE
 10
223271.00
 20
9364433.00
  0
VERTEX
  8
0IMP_DRE
 10
223258.78
 20
9364483.00
  0
VERTEX
  8
0IMP_DRE
 10
223246.70
 20
9364564.00
  0
VERTEX
  8
0IMP_DRE
 10
223240.97
 20
9364670.00
  0
VERTEX
  8
0IMP_DRE
 10
223235.09
 20
9364746.00
  0
VERTEX
  8
0IMP_DRE
 10
223235.47
 20
9364827.00
  0
VERTEX
  8
0IMP_DRE
 10
223229.47
 20
9364877.00
  0
VERTEX
  8
0IMP_DRE
 10
223217.39
 20
9364958.00
  0
VERTEX
  8
0IMP_DRE
 10
223211.55
 20
9365040.00
  0
VERTEX
  8
0IMP_DRE
 10
223199.38
 20
9365096.00
  0
VERTEX
  8
0IMP_DRE
 10
223187.30
 20
9365177.00
  0
VERTEX
  8
0IMP_DRE
 10
223168.97
 20
9365253.00
  0
VERTEX
  8
0IMP_DRE
 10
223156.89
 20
9365334.00
  0
VERTEX
  8
0IMP_DRE
 10
223144.73
 20
9365397.00
  0
VERTEX
  8
0IMP_DRE
 10
223132.52
 20
9365447.00
  0
VERTEX
  8
0IMP_DRE
 10
223120.30
 20
9365497.00
  0
VERTEX
  8
0IMP_DRE
 10
223108.08
 20
9365547.00
  0
VERTEX
  8
0IMP_DRE
 10
223095.86
 20
9365597.00
  0
VERTEX
  8
0IMP_DRE
 10
223083.64
 20
9365647.00
  0
VERTEX
  8
0IMP_DRE
 10
223077.75
 20
9365722.00
  0
VERTEX
  8
0IMP_DRE
 10
223065.55
 20
9365772.00
  0
VERTEX
  8
0IMP_DRE
 10
223053.33
 20
9365822.00
  0
VERTEX
  8
0IMP_DRE
 10
223041.19
 20
9365891.00
  0
VERTEX
  8
0IMP_DRE
 10
223029.09
 20
9365966.00
  0
VERTEX
  8
0IMP_DRE
 10
223023.13
 20
9366023.00
  0
VERTEX
  8
0IMP_DRE
 10
223011.00
 20
9366091.00
  0
VERTEX
  8
0IMP_DRE
 10
223005.00
 20
9366141.00
  0
VERTEX
  8
0IMP_DRE
 10
222992.89
 20
9366217.00
  0
VERTEX
  8
0IMP_DRE
 10
222980.72
 20
9366273.00
  0
VERTEX
  8
0IMP_DRE
 10
222981.03
 20
9366342.00
  0
VERTEX
  8
0IMP_DRE
 10
222981.31
 20
9366404.00
  0
VERTEX
  8
0IMP_DRE
 10
222981.64
 20
9366473.00
  0
VERTEX
  8
0IMP_DRE
 10
223000.63
 20
9366542.00
  0
VERTEX
  8
0IMP_DRE
 10
223038.23
 20
9366598.00
  0
VERTEX
  8
0IMP_DRE
 10
223082.09
 20
9366661.00
  0
VERTEX
  8
0IMP_DRE
 10
223125.92
 20
9366717.00
  0
VERTEX
  8
0IMP_DRE
 10
223169.77
 20
9366773.00
  0
VERTEX
  8
0IMP_DRE
 10
223219.84
 20
9366835.00
  0
VERTEX
  8
0IMP_DRE
 10
223251.36
 20
9366923.00
  0
VERTEX
  8
0IMP_DRE
 10
223289.00
 20
9366985.00
  0
VERTEX
  8
0IMP_DRE
 10
223307.91
 20
9367035.00
  0
VERTEX
  8
0IMP_DRE
 10
223314.39
 20
9367092.00
  0
VERTEX
  8
0IMP_DRE
 10
223314.63
 20
9367142.00
  0
VERTEX
  8
0IMP_DRE
 10
223308.66
 20
9367198.00
  0
VERTEX
  8
0IMP_DRE
 10
223252.78
 20
9367230.00
  0
VERTEX
  8
0IMP_DRE
 10
223234.45
 20
9367305.00
  0
VERTEX
  8
0IMP_DRE
 10
223234.69
 20
9367355.00
  0
VERTEX
  8
0IMP_DRE
 10
223241.17
 20
9367411.00
  0
VERTEX
  8
0IMP_DRE
 10
223260.14
 20
9367474.00
  0
VERTEX
  8
0IMP_DRE
 10
223322.73
 20
9367548.00
  0
VERTEX
  8
0IMP_DRE
 10
223341.78
 20
9367630.00
  0
VERTEX
  8
0IMP_DRE
 10
223391.98
 20
9367717.00
  0
VERTEX
  8
0IMP_DRE
 10
223435.89
 20
9367792.00
  0
VERTEX
  8
0IMP_DRE
 10
223454.89
 20
9367861.00
  0
VERTEX
  8
0IMP_DRE
 10
223473.78
 20
9367911.00
  0
VERTEX
  8
0IMP_DRE
 10
223505.34
 20
9368005.00
  0
VERTEX
  8
0IMP_DRE
 10
223518.03
 20
9368055.00
  0
VERTEX
  8
0IMP_DRE
 10
223524.53
 20
9368117.00
  0
VERTEX
  8
0IMP_DRE
 10
223537.22
 20
9368167.00
  0
VERTEX
  8
0IMP_DRE
 10
223537.48
 20
9368224.00
  0
VERTEX
  8
0IMP_DRE
 10
223543.97
 20
9368280.00
  0
VERTEX
  8
0IMP_DRE
 10
223550.55
 20
9368355.00
  0
VERTEX
  8
0IMP_DRE
 10
223557.16
 20
9368443.00
  0
SEQEND
  8
0IMP_DRE
  0
POLYLINE
  8
0IMP_DRE
 66
     1
  0
VERTEX
  8
0IMP_DRE
 10
231926.92
 20
9345273.00
  0
VERTEX
  8
0IMP_DRE
 10
231903.58
 20
9345344.00
  0
VERTEX
  8
0IMP_DRE
 10
231903.27
 20
9345275.00
  0
VERTEX
  8
0IMP_DRE
 10
231902.89
 20
9345194.00
  0
VERTEX
  8
0IMP_DRE
 10
231908.73
 20
9345112.00
  0
VERTEX
  8
0IMP_DRE
 10
231914.73
 20
9345062.00
  0
VERTEX
  8
0IMP_DRE
 10
231914.47
 20
9345006.00
  0
VERTEX
  8
0IMP_DRE
 10
231920.45
 20
9344956.00
  0
VERTEX
  8
0IMP_DRE
 10
231926.42
 20
9344899.00
  0
VERTEX
  8
0IMP_DRE
 10
231926.02
 20
9344812.00
  0
VERTEX
  8
0IMP_DRE
 10
231931.98
 20
9344755.00
  0
VERTEX
  8
0IMP_DRE
 10
231931.75
 20
9344705.00
  0
VERTEX
  8
0IMP_DRE
 10
231937.75
 20
9344655.00
  0
VERTEX
  8
0IMP_DRE
 10
231937.41
 20
9344580.00
  0
VERTEX
  8
0IMP_DRE
 10
231937.08
 20
9344511.00
  0
VERTEX
  8
0IMP_DRE
 10
231942.88
 20
9344418.00
  0
VERTEX
  8
0IMP_DRE
 10
231942.64
 20
9344367.00
  0
VERTEX
  8
0IMP_DRE
 10
231942.39
 20
9344311.00
  0
VERTEX
  8
0IMP_DRE
 10
231948.34
 20
9344255.00
  0
VERTEX
  8
0IMP_DRE
 10
231954.31
 20
9344199.00
  0
VERTEX
  8
0IMP_DRE
 10
231954.05
 20
9344142.00
  0
VERTEX
  8
0IMP_DRE
 10
231959.88
 20
9344055.00
  0
VERTEX
  8
0IMP_DRE
 10
231959.61
 20
9343998.00
  0
VERTEX
  8
0IMP_DRE
 10
231959.16
 20
9343898.00
  0
VERTEX
  8
0IMP_DRE
 10
231958.89
 20
9343842.00
  0
VERTEX
  8
0IMP_DRE
 10
231958.66
 20
9343792.00
  0
VERTEX
  8
0IMP_DRE
 10
231958.44
 20
9343742.00
  0
VERTEX
  8
0IMP_DRE
 10
231958.20
 20
9343692.00
  0
VERTEX
  8
0IMP_DRE
 10
231933.05
 20
9343635.00
  0
VERTEX
  8
0IMP_DRE
 10
231907.73
 20
9343548.00
  0
VERTEX
  8
0IMP_DRE
 10
231876.33
 20
9343485.00
  0
VERTEX
  8
0IMP_DRE
 10
231844.94
 20
9343429.00
  0
VERTEX
  8
0IMP_DRE
 10
231819.78
 20
9343373.00
  0
VERTEX
  8
0IMP_DRE
 10
231788.31
 20
9343298.00
  0
VERTEX
  8
0IMP_DRE
 10
231738.23
 20
9343236.00
  0
VERTEX
  8
0IMP_DRE
 10
231688.14
 20
9343173.00
  0
VERTEX
  8
0IMP_DRE
 10
231669.13
 20
9343098.00
  0
VERTEX
  8
0IMP_DRE
 10
231618.88
 20
9342998.00
  0
VERTEX
  8
0IMP_DRE
 10
231575.00
 20
9342936.00
  0
VERTEX
  8
0IMP_DRE
 10
231524.81
 20
9342848.00
  0
VERTEX
  8
0IMP_DRE
 10
231511.98
 20
9342767.00
  0
VERTEX
  8
0IMP_DRE
 10
231474.31
 20
9342698.00
  0
VERTEX
  8
0IMP_DRE
 10
231411.69
 20
9342617.00
  0
VERTEX
  8
0IMP_DRE
 10
231398.88
 20
9342536.00
  0
VERTEX
  8
0IMP_DRE
 10
231336.25
 20
9342455.00
  0
VERTEX
  8
0IMP_DRE
 10
231329.77
 20
9342398.00
  0
VERTEX
  8
0IMP_DRE
 10
231292.05
 20
9342317.00
  0
VERTEX
  8
0IMP_DRE
 10
231260.48
 20
9342223.00
  0
VERTEX
  8
0IMP_DRE
 10
231229.11
 20
9342167.00
  0
VERTEX
  8
0IMP_DRE
 10
231216.42
 20
9342117.00
  0
VERTEX
  8
0IMP_DRE
 10
231203.72
 20
9342061.00
  0
VERTEX
  8
0IMP_DRE
 10
231190.83
 20
9341967.00
  0
VERTEX
  8
0IMP_DRE
 10
231178.16
 20
9341917.00
  0
VERTEX
  8
0IMP_DRE
 10
231171.56
 20
9341836.00
  0
VERTEX
  8
0IMP_DRE
 10
231171.30
 20
9341779.00
  0
VERTEX
  8
0IMP_DRE
 10
231164.83
 20
9341729.00
  0
VERTEX
  8
0IMP_DRE
 10
231164.61
 20
9341679.00
  0
VERTEX
  8
0IMP_DRE
 10
231157.98
 20
9341592.00
  0
VERTEX
  8
0IMP_DRE
 10
231157.69
 20
9341529.00
  0
VERTEX
  8
0IMP_DRE
 10
231144.89
 20
9341454.00
  0
VERTEX
  8
0IMP_DRE
 10
231144.48
 20
9341366.00
  0
VERTEX
  8
0IMP_DRE
 10
231137.89
 20
9341285.00
  0
VERTEX
  8
0IMP_DRE
 10
231137.52
 20
9341204.00
  0
VERTEX
  8
0IMP_DRE
 10
231131.00
 20
9341141.00
  0
VERTEX
  8
0IMP_DRE
 10
231130.77
 20
9341091.00
  0
VERTEX
  8
0IMP_DRE
 10
231130.36
 20
9341003.00
  0
VERTEX
  8
0IMP_DRE
 10
231129.98
 20
9340922.00
  0
VERTEX
  8
0IMP_DRE
 10
231129.47
 20
9340809.00
  0
VERTEX
  8
0IMP_DRE
 10
231129.23
 20
9340759.00
  0
VERTEX
  8
0IMP_DRE
 10
231122.55
 20
9340659.00
  0
VERTEX
  8
0IMP_DRE
 10
231109.88
 20
9340609.00
  0
VERTEX
  8
0IMP_DRE
 10
231097.08
 20
9340534.00
  0
VERTEX
  8
0IMP_DRE
 10
231078.17
 20
9340484.00
  0
VERTEX
  8
0IMP_DRE
 10
231059.09
 20
9340397.00
  0
VERTEX
  8
0IMP_DRE
 10
231021.47
 20
9340334.00
  0
VERTEX
  8
0IMP_DRE
 10
231002.45
 20
9340265.00
  0
VERTEX
  8
0IMP_DRE
 10
230958.64
 20
9340209.00
  0
VERTEX
  8
0IMP_DRE
 10
230914.75
 20
9340141.00
  0
VERTEX
  8
0IMP_DRE
 10
230852.27
 20
9340091.00
  0
VERTEX
  8
0IMP_DRE
 10
230771.16
 20
9340047.00
  0
VERTEX
  8
0IMP_DRE
 10
230752.19
 20
9339985.00
  0
VERTEX
  8
0IMP_DRE
 10
230696.03
 20
9339953.00
  0
VERTEX
  8
0IMP_DRE
 10
230608.56
 20
9339885.00
  0
VERTEX
  8
0IMP_DRE
 10
230533.69
 20
9339848.00
  0
VERTEX
  8
0IMP_DRE
 10
230477.47
 20
9339804.00
  0
VERTEX
  8
0IMP_DRE
 10
230421.11
 20
9339729.00
  0
VERTEX
  8
0IMP_DRE
 10
230358.69
 20
9339692.00
  0
VERTEX
  8
0IMP_DRE
 10
230302.61
 20
9339679.00
  0
VERTEX
  8
0IMP_DRE
 10
230302.38
 20
9339629.00
  0
VERTEX
  8
0IMP_DRE
 10
230245.94
 20
9339542.00
  0
VERTEX
  8
0IMP_DRE
 10
230183.44
 20
9339486.00
  0
VERTEX
  8
0IMP_DRE
 10
230083.30
 20
9339367.00
  0
VERTEX
  8
0IMP_DRE
 10
230020.70
 20
9339292.00
  0
VERTEX
  8
0IMP_DRE
 10
229939.30
 20
9339186.00
  0
VERTEX
  8
0IMP_DRE
 10
229926.63
 20
9339136.00
  0
VERTEX
  8
0IMP_DRE
 10
229876.39
 20
9339042.00
  0
VERTEX
  8
0IMP_DRE
 10
229826.22
 20
9338961.00
  0
VERTEX
  8
0IMP_DRE
 10
229775.98
 20
9338867.00
  0
VERTEX
  8
0IMP_DRE
 10
229763.25
 20
9338805.00
  0
VERTEX
  8
0IMP_DRE
 10
229737.89
 20
9338705.00
  0
VERTEX
  8
0IMP_DRE
 10
229718.92
 20
9338642.00
  0
VERTEX
  8
0IMP_DRE
 10
229656.25
 20
9338549.00
  0
VERTEX
  8
0IMP_DRE
 10
229649.59
 20
9338455.00
  0
VERTEX
  8
0IMP_DRE
 10
229630.44
 20
9338348.00
  0
VERTEX
  8
0IMP_DRE
 10
229586.36
 20
9338242.00
  0
VERTEX
  8
0IMP_DRE
 10
229561.20
 20
9338186.00
  0
VERTEX
  8
0IMP_DRE
 10
229529.63
 20
9338086.00
  0
VERTEX
  8
0IMP_DRE
 10
229504.33
 20
9337998.00
  0
VERTEX
  8
0IMP_DRE
 10
229491.61
 20
9337942.00
  0
VERTEX
  8
0IMP_DRE
 10
229478.94
 20
9337892.00
  0
VERTEX
  8
0IMP_DRE
 10
229478.56
 20
9337811.00
  0
VERTEX
  8
0IMP_DRE
 10
229478.19
 20
9337729.00
  0
VERTEX
  8
0IMP_DRE
 10
229490.22
 20
9337642.00
  0
VERTEX
  8
0IMP_DRE
 10
229514.86
 20
9337585.00
  0
VERTEX
  8
0IMP_DRE
 10
229527.05
 20
9337529.00
  0
VERTEX
  8
0IMP_DRE
 10
229551.69
 20
9337473.00
  0
VERTEX
  8
0IMP_DRE
 10
229570.08
 20
9337410.00
  0
VERTEX
  8
0IMP_DRE
 10
229576.06
 20
9337360.00
  0
VERTEX
  8
0IMP_DRE
 10
229582.06
 20
9337310.00
  0
VERTEX
  8
0IMP_DRE
 10
229581.83
 20
9337260.00
  0
VERTEX
  8
0IMP_DRE
 10
229581.53
 20
9337197.00
  0
VERTEX
  8
0IMP_DRE
 10
229562.64
 20
9337147.00
  0
VERTEX
  8
0IMP_DRE
 10
229543.56
 20
9337060.00
  0
VERTEX
  8
0IMP_DRE
 10
229512.14
 20
9336997.00
  0
VERTEX
  8
0IMP_DRE
 10
229499.41
 20
9336935.00
  0
VERTEX
  8
0IMP_DRE
 10
229486.72
 20
9336885.00
  0
VERTEX
  8
0IMP_DRE
 10
229480.16
 20
9336810.00
  0
VERTEX
  8
0IMP_DRE
 10
229479.92
 20
9336760.00
  0
VERTEX
  8
0IMP_DRE
 10
229479.55
 20
9336678.00
  0
VERTEX
  8
0IMP_DRE
 10
229485.55
 20
9336628.00
  0
VERTEX
  8
0IMP_DRE
 10
229516.38
 20
9336565.00
  0
VERTEX
  8
0IMP_DRE
 10
229565.92
 20
9336509.00
  0
VERTEX
  8
0IMP_DRE
 10
229590.44
 20
9336428.00
  0
VERTEX
  8
0IMP_DRE
 10
229652.28
 20
9336340.00
  0
VERTEX
  8
0IMP_DRE
 10
229726.59
 20
9336258.00
  0
VERTEX
  8
0IMP_DRE
 10
229785.80
 20
9336138.00
  0
SEQEND
  8
0IMP_DRE
  0
LINE
  8
0IMP_DRE
 10
229785.80
 20
9336138.00
 11
228716.44
 21
9336134.00
  0
POLYLINE
  8
0IMP_DRE
 66
     1
  0
VERTEX
  8
0IMP_DRE
 10
228716.44
 20
9336134.00
  0
VERTEX
  8
0IMP_DRE
 10
228650.05
 20
9336324.00
  0
VERTEX
  8
0IMP_DRE
 10
228631.61
 20
9336374.00
  0
VERTEX
  8
0IMP_DRE
 10
228569.53
 20
9336412.00
  0
VERTEX
  8
0IMP_DRE
 10
228513.59
 20
9336431.00
  0
VERTEX
  8
0IMP_DRE
 10
228451.47
 20
9336456.00
  0
VERTEX
  8
0IMP_DRE
 10
228389.45
 20
9336506.00
  0
VERTEX
  8
0IMP_DRE
 10
228333.59
 20
9336544.00
  0
SEQEND
  8
0IMP_DRE
  0
TEXT
  8
1IMP_DRE
 10
186228.95
 20
9405385.00
 40
750.00
  1
RIO
  0
TEXT
  8
1IMP_DRE
 10
226930.45
 20
9382850.00
 40
750.00
  1
RIO TOCANTINS
 50
275.00
  0
TEXT
  8
1IMP_DRE
 10
189366.91
 20
9405747.00
 40
750.00
  1
TOCANTINS
  0
ENDSEC
  0
EOF
