  0
SECTION
  2
HEADER
  9
$EXTMIN
 10
611328.88           
 20
8536086.00          
  9
$EXTMAX
 10
826215.50           
 20
8673120.00          
  9
$LUPREC
 70
     7
  0
ENDSEC
  0
SECTION
  2
ENTITIES
  0
POLYLINE
  8
0ALV_ROD
 66
     1
  0
VERTEX
  8
0ALV_ROD
 10
619052.69
 20
8673120.00
  0
VERTEX
  8
0ALV_ROD
 10
618971.88
 20
8672800.00
  0
VERTEX
  8
0ALV_ROD
 10
618879.50
 20
8672537.00
  0
VERTEX
  8
0ALV_ROD
 10
618774.00
 20
8672368.00
  0
VERTEX
  8
0ALV_ROD
 10
618575.06
 20
8671969.00
  0
SEQEND
  8
0ALV_ROD
  0
POLYLINE
  8
0ALV_ROD
 66
     1
  0
VERTEX
  8
0ALV_ROD
 10
798836.06
 20
8671916.00
  0
VERTEX
  8
0ALV_ROD
 10
798773.81
 20
8671865.00
  0
VERTEX
  8
0ALV_ROD
 10
798717.63
 20
8671839.00
  0
VERTEX
  8
0ALV_ROD
 10
798655.25
 20
8671801.00
  0
VERTEX
  8
0ALV_ROD
 10
798599.06
 20
8671776.00
  0
VERTEX
  8
0ALV_ROD
 10
798530.13
 20
8671769.00
  0
VERTEX
  8
0ALV_ROD
 10
798442.69
 20
8671724.00
  0
VERTEX
  8
0ALV_ROD
 10
798380.31
 20
8671692.00
  0
VERTEX
  8
0ALV_ROD
 10
798273.88
 20
8671666.00
  0
VERTEX
  8
0ALV_ROD
 10
798217.56
 20
8671653.00
  0
VERTEX
  8
0ALV_ROD
 10
798142.69
 20
8671609.00
  0
VERTEX
  8
0ALV_ROD
 10
798080.31
 20
8671577.00
  0
VERTEX
  8
0ALV_ROD
 10
797999.13
 20
8671539.00
  0
VERTEX
  8
0ALV_ROD
 10
797949.13
 20
8671520.00
  0
VERTEX
  8
0ALV_ROD
 10
797899.06
 20
8671500.00
  0
VERTEX
  8
0ALV_ROD
 10
797817.94
 20
8671456.00
  0
VERTEX
  8
0ALV_ROD
 10
797742.94
 20
8671430.00
  0
VERTEX
  8
0ALV_ROD
 10
797692.88
 20
8671417.00
  0
VERTEX
  8
0ALV_ROD
 10
797580.19
 20
8671391.00
  0
VERTEX
  8
0ALV_ROD
 10
797530.00
 20
8671391.00
  0
VERTEX
  8
0ALV_ROD
 10
797470.56
 20
8671384.00
  0
SEQEND
  8
0ALV_ROD
  0
POLYLINE
  8
0ALV_ROD
 66
     1
  0
VERTEX
  8
0ALV_ROD
 10
762046.25
 20
8672165.00
  0
VERTEX
  8
0ALV_ROD
 10
762107.13
 20
8672133.00
  0
VERTEX
  8
0ALV_ROD
 10
762162.63
 20
8672082.00
  0
VERTEX
  8
0ALV_ROD
 10
762249.25
 20
8672018.00
  0
VERTEX
  8
0ALV_ROD
 10
762254.63
 20
8671955.00
  0
VERTEX
  8
0ALV_ROD
 10
762303.81
 20
8671898.00
  0
VERTEX
  8
0ALV_ROD
 10
762346.81
 20
8671847.00
  0
VERTEX
  8
0ALV_ROD
 10
762377.13
 20
8671778.00
  0
VERTEX
  8
0ALV_ROD
 10
762413.75
 20
8671714.00
  0
VERTEX
  8
0ALV_ROD
 10
762444.31
 20
8671664.00
  0
VERTEX
  8
0ALV_ROD
 10
762468.31
 20
8671594.00
  0
VERTEX
  8
0ALV_ROD
 10
762504.69
 20
8671512.00
  0
VERTEX
  8
0ALV_ROD
 10
762535.19
 20
8671462.00
  0
VERTEX
  8
0ALV_ROD
 10
762559.50
 20
8671411.00
  0
VERTEX
  8
0ALV_ROD
 10
763095.38
 20
8671162.00
  0
SEQEND
  8
0ALV_ROD
  0
POLYLINE
  8
0ALV_ROD
 66
     1
  0
VERTEX
  8
0ALV_ROD
 10
764808.06
 20
8670561.00
  0
VERTEX
  8
0ALV_ROD
 10
765175.38
 20
8670399.00
  0
VERTEX
  8
0ALV_ROD
 10
767157.69
 20
8670110.00
  0
VERTEX
  8
0ALV_ROD
 10
767783.13
 20
8669713.00
  0
SEQEND
  8
0ALV_ROD
  0
LINE
  8
0ALV_ROD
 10
695802.94
 20
8672620.00
 11
695957.13
 21
8669130.00
  0
POLYLINE
  8
0ALV_ROD
 66
     1
  0
VERTEX
  8
0ALV_ROD
 10
741375.94
 20
8668621.00
  0
VERTEX
  8
0ALV_ROD
 10
741158.81
 20
8668627.00
  0
VERTEX
  8
0ALV_ROD
 10
740983.75
 20
8668624.00
  0
VERTEX
  8
0ALV_ROD
 10
740833.81
 20
8668621.00
  0
VERTEX
  8
0ALV_ROD
 10
740478.31
 20
8668568.00
  0
SEQEND
  8
0ALV_ROD
  0
POLYLINE
  8
0ALV_ROD
 66
     1
  0
VERTEX
  8
0ALV_ROD
 10
753801.06
 20
8672226.00
  0
VERTEX
  8
0ALV_ROD
 10
753802.38
 20
8672148.00
  0
VERTEX
  8
0ALV_ROD
 10
753804.88
 20
8671999.00
  0
VERTEX
  8
0ALV_ROD
 10
753780.31
 20
8671973.00
  0
VERTEX
  8
0ALV_ROD
 10
753781.13
 20
8671924.00
  0
VERTEX
  8
0ALV_ROD
 10
753757.38
 20
8671849.00
  0
VERTEX
  8
0ALV_ROD
 10
753733.63
 20
8671773.00
  0
VERTEX
  8
0ALV_ROD
 10
753709.88
 20
8671698.00
  0
VERTEX
  8
0ALV_ROD
 10
753711.13
 20
8671624.00
  0
VERTEX
  8
0ALV_ROD
 10
753711.94
 20
8671574.00
  0
VERTEX
  8
0ALV_ROD
 10
753688.19
 20
8671499.00
  0
VERTEX
  8
0ALV_ROD
 10
753690.25
 20
8671374.00
  0
VERTEX
  8
0ALV_ROD
 10
753691.50
 20
8671299.00
  0
VERTEX
  8
0ALV_ROD
 10
753667.81
 20
8671224.00
  0
VERTEX
  8
0ALV_ROD
 10
753643.63
 20
8671174.00
  0
VERTEX
  8
0ALV_ROD
 10
753596.50
 20
8670999.00
  0
VERTEX
  8
0ALV_ROD
 10
753524.50
 20
8670823.00
  0
VERTEX
  8
0ALV_ROD
 10
753452.38
 20
8670648.00
  0
VERTEX
  8
0ALV_ROD
 10
753380.31
 20
8670472.00
  0
VERTEX
  8
0ALV_ROD
 10
753235.31
 20
8670171.00
  0
VERTEX
  8
0ALV_ROD
 10
753161.19
 20
8670119.00
  0
VERTEX
  8
0ALV_ROD
 10
753114.06
 20
8669944.00
  0
VERTEX
  8
0ALV_ROD
 10
752964.94
 20
8669892.00
  0
VERTEX
  8
0ALV_ROD
 10
752917.44
 20
8669741.00
  0
VERTEX
  8
0ALV_ROD
 10
752645.38
 20
8669562.00
  0
VERTEX
  8
0ALV_ROD
 10
752422.94
 20
8669409.00
  0
VERTEX
  8
0ALV_ROD
 10
752125.44
 20
8669254.00
  0
VERTEX
  8
0ALV_ROD
 10
751926.69
 20
8669175.00
  0
VERTEX
  8
0ALV_ROD
 10
751604.25
 20
8669020.00
  0
VERTEX
  8
0ALV_ROD
 10
751455.50
 20
8668942.00
  0
VERTEX
  8
0ALV_ROD
 10
751181.81
 20
8668863.00
  0
VERTEX
  8
0ALV_ROD
 10
751032.69
 20
8668810.00
  0
VERTEX
  8
0ALV_ROD
 10
750883.06
 20
8668782.00
  0
VERTEX
  8
0ALV_ROD
 10
750758.06
 20
8668780.00
  0
VERTEX
  8
0ALV_ROD
 10
750483.13
 20
8668775.00
  0
VERTEX
  8
0ALV_ROD
 10
750308.13
 20
8668772.00
  0
VERTEX
  8
0ALV_ROD
 10
750033.19
 20
8668767.00
  0
VERTEX
  8
0ALV_ROD
 10
749882.75
 20
8668789.00
  0
VERTEX
  8
0ALV_ROD
 10
749707.38
 20
8668810.00
  0
VERTEX
  8
0ALV_ROD
 10
749456.56
 20
8668856.00
  0
VERTEX
  8
0ALV_ROD
 10
749330.31
 20
8668928.00
  0
VERTEX
  8
0ALV_ROD
 10
749054.94
 20
8668948.00
  0
VERTEX
  8
0ALV_ROD
 10
748855.00
 20
8668944.00
  0
VERTEX
  8
0ALV_ROD
 10
748555.00
 20
8668939.00
  0
VERTEX
  8
0ALV_ROD
 10
748330.44
 20
8668910.00
  0
VERTEX
  8
0ALV_ROD
 10
747981.75
 20
8668828.00
  0
VERTEX
  8
0ALV_ROD
 10
747608.00
 20
8668747.00
  0
VERTEX
  8
0ALV_ROD
 10
747410.13
 20
8668619.00
  0
VERTEX
  8
0ALV_ROD
 10
747236.38
 20
8668541.00
  0
VERTEX
  8
0ALV_ROD
 10
747088.94
 20
8668389.00
  0
VERTEX
  8
0ALV_ROD
 10
746940.19
 20
8668311.00
  0
VERTEX
  8
0ALV_ROD
 10
746791.44
 20
8668234.00
  0
VERTEX
  8
0ALV_ROD
 10
746616.88
 20
8668206.00
  0
VERTEX
  8
0ALV_ROD
 10
746416.94
 20
8668202.00
  0
VERTEX
  8
0ALV_ROD
 10
746266.94
 20
8668199.00
  0
VERTEX
  8
0ALV_ROD
 10
746116.50
 20
8668221.00
  0
VERTEX
  8
0ALV_ROD
 10
746041.56
 20
8668220.00
  0
VERTEX
  8
0ALV_ROD
 10
745891.13
 20
8668242.00
  0
VERTEX
  8
0ALV_ROD
 10
745814.94
 20
8668315.00
  0
VERTEX
  8
0ALV_ROD
 10
745689.06
 20
8668363.00
  0
VERTEX
  8
0ALV_ROD
 10
745613.25
 20
8668411.00
  0
VERTEX
  8
0ALV_ROD
 10
745535.38
 20
8668584.00
  0
VERTEX
  8
0ALV_ROD
 10
745409.13
 20
8668656.00
  0
VERTEX
  8
0ALV_ROD
 10
745356.63
 20
8668805.00
  0
VERTEX
  8
0ALV_ROD
 10
745155.81
 20
8668851.00
  0
VERTEX
  8
0ALV_ROD
 10
744980.81
 20
8668848.00
  0
VERTEX
  8
0ALV_ROD
 10
744830.88
 20
8668845.00
  0
VERTEX
  8
0ALV_ROD
 10
744680.88
 20
8668842.00
  0
VERTEX
  8
0ALV_ROD
 10
744405.94
 20
8668837.00
  0
VERTEX
  8
0ALV_ROD
 10
744256.31
 20
8668809.00
  0
VERTEX
  8
0ALV_ROD
 10
744081.75
 20
8668781.00
  0
VERTEX
  8
0ALV_ROD
 10
743832.19
 20
8668752.00
  0
VERTEX
  8
0ALV_ROD
 10
743682.25
 20
8668749.00
  0
VERTEX
  8
0ALV_ROD
 10
743507.25
 20
8668746.00
  0
VERTEX
  8
0ALV_ROD
 10
743307.31
 20
8668742.00
  0
VERTEX
  8
0ALV_ROD
 10
743036.31
 20
8668719.00
  0
SEQEND
  8
0ALV_ROD
  0
POLYLINE
  8
0ALV_ROD
 66
     1
  0
VERTEX
  8
0ALV_ROD
 10
767953.31
 20
8668907.00
  0
VERTEX
  8
0ALV_ROD
 10
767948.63
 20
8667645.00
  0
VERTEX
  8
0ALV_ROD
 10
767947.94
 20
8667595.00
  0
VERTEX
  8
0ALV_ROD
 10
767953.38
 20
8667539.00
  0
VERTEX
  8
0ALV_ROD
 10
767959.00
 20
8667488.00
  0
VERTEX
  8
0ALV_ROD
 10
767964.19
 20
8667413.00
  0
VERTEX
  8
0ALV_ROD
 10
767963.13
 20
8667337.00
  0
VERTEX
  8
0ALV_ROD
 10
767962.13
 20
8667262.00
  0
VERTEX
  8
0ALV_ROD
 10
767961.44
 20
8667212.00
  0
VERTEX
  8
0ALV_ROD
 10
767966.94
 20
8667155.00
  0
VERTEX
  8
0ALV_ROD
 10
767966.25
 20
8667105.00
  0
VERTEX
  8
0ALV_ROD
 10
767971.63
 20
8667042.00
  0
VERTEX
  8
0ALV_ROD
 10
767988.63
 20
8666916.00
  0
VERTEX
  8
0ALV_ROD
 10
767999.88
 20
8666822.00
  0
VERTEX
  8
0ALV_ROD
 10
768005.44
 20
8666772.00
  0
VERTEX
  8
0ALV_ROD
 10
768017.25
 20
8666721.00
  0
VERTEX
  8
0ALV_ROD
 10
768028.94
 20
8666665.00
  0
VERTEX
  8
0ALV_ROD
 10
768349.13
 20
8662701.00
  0
SEQEND
  8
0ALV_ROD
  0
POLYLINE
  8
0ALV_ROD
 66
     1
  0
VERTEX
  8
0ALV_ROD
 10
620902.31
 20
8659352.00
  0
VERTEX
  8
0ALV_ROD
 10
620577.19
 20
8659497.00
  0
VERTEX
  8
0ALV_ROD
 10
620502.63
 20
8659496.00
  0
VERTEX
  8
0ALV_ROD
 10
620452.56
 20
8659520.00
  0
VERTEX
  8
0ALV_ROD
 10
620402.56
 20
8659544.00
  0
VERTEX
  8
0ALV_ROD
 10
620327.63
 20
8659568.00
  0
VERTEX
  8
0ALV_ROD
 10
620277.63
 20
8659592.00
  0
VERTEX
  8
0ALV_ROD
 10
620202.38
 20
8659640.00
  0
VERTEX
  8
0ALV_ROD
 10
620127.19
 20
8659689.00
  0
VERTEX
  8
0ALV_ROD
 10
620051.63
 20
8659763.00
  0
VERTEX
  8
0ALV_ROD
 10
619976.38
 20
8659811.00
  0
VERTEX
  8
0ALV_ROD
 10
619926.00
 20
8659860.00
  0
VERTEX
  8
0ALV_ROD
 10
619876.00
 20
8659885.00
  0
VERTEX
  8
0ALV_ROD
 10
619825.63
 20
8659934.00
  0
VERTEX
  8
0ALV_ROD
 10
619775.25
 20
8659983.00
  0
VERTEX
  8
0ALV_ROD
 10
619724.63
 20
8660057.00
  0
VERTEX
  8
0ALV_ROD
 10
619674.25
 20
8660106.00
  0
VERTEX
  8
0ALV_ROD
 10
619623.56
 20
8660180.00
  0
VERTEX
  8
0ALV_ROD
 10
619597.75
 20
8660254.00
  0
VERTEX
  8
0ALV_ROD
 10
619571.88
 20
8660328.00
  0
VERTEX
  8
0ALV_ROD
 10
619545.13
 20
8660478.00
  0
VERTEX
  8
0ALV_ROD
 10
619493.19
 20
8660651.00
  0
VERTEX
  8
0ALV_ROD
 10
619441.25
 20
8660825.00
  0
VERTEX
  8
0ALV_ROD
 10
619415.44
 20
8660899.00
  0
VERTEX
  8
0ALV_ROD
 10
619389.63
 20
8660974.00
  0
VERTEX
  8
0ALV_ROD
 10
619388.63
 20
8661048.00
  0
VERTEX
  8
0ALV_ROD
 10
619362.81
 20
8661123.00
  0
VERTEX
  8
0ALV_ROD
 10
619361.88
 20
8661197.00
  0
VERTEX
  8
0ALV_ROD
 10
619360.94
 20
8661272.00
  0
VERTEX
  8
0ALV_ROD
 10
619335.13
 20
8661347.00
  0
VERTEX
  8
0ALV_ROD
 10
619334.19
 20
8661421.00
  0
VERTEX
  8
0ALV_ROD
 10
619333.19
 20
8661496.00
  0
VERTEX
  8
0ALV_ROD
 10
619307.38
 20
8661570.00
  0
VERTEX
  8
0ALV_ROD
 10
619306.44
 20
8661645.00
  0
VERTEX
  8
0ALV_ROD
 10
619305.44
 20
8661720.00
  0
VERTEX
  8
0ALV_ROD
 10
619304.50
 20
8661795.00
  0
VERTEX
  8
0ALV_ROD
 10
619303.56
 20
8661870.00
  0
VERTEX
  8
0ALV_ROD
 10
619277.75
 20
8661944.00
  0
VERTEX
  8
0ALV_ROD
 10
619276.81
 20
8662019.00
  0
VERTEX
  8
0ALV_ROD
 10
619275.81
 20
8662093.00
  0
VERTEX
  8
0ALV_ROD
 10
619250.00
 20
8662168.00
  0
VERTEX
  8
0ALV_ROD
 10
619224.19
 20
8662242.00
  0
VERTEX
  8
0ALV_ROD
 10
619223.25
 20
8662317.00
  0
VERTEX
  8
0ALV_ROD
 10
619197.44
 20
8662391.00
  0
VERTEX
  8
0ALV_ROD
 10
619171.63
 20
8662466.00
  0
VERTEX
  8
0ALV_ROD
 10
619145.50
 20
8662565.00
  0
VERTEX
  8
0ALV_ROD
 10
619119.69
 20
8662639.00
  0
VERTEX
  8
0ALV_ROD
 10
619093.88
 20
8662714.00
  0
VERTEX
  8
0ALV_ROD
 10
619067.75
 20
8662813.00
  0
VERTEX
  8
0ALV_ROD
 10
619066.75
 20
8662888.00
  0
VERTEX
  8
0ALV_ROD
 10
619016.06
 20
8662962.00
  0
VERTEX
  8
0ALV_ROD
 10
618990.25
 20
8663036.00
  0
VERTEX
  8
0ALV_ROD
 10
618940.25
 20
8663060.00
  0
VERTEX
  8
0ALV_ROD
 10
618912.50
 20
8663284.00
  0
VERTEX
  8
0ALV_ROD
 10
618860.56
 20
8663458.00
  0
VERTEX
  8
0ALV_ROD
 10
618810.19
 20
8663507.00
  0
VERTEX
  8
0ALV_ROD
 10
618758.25
 20
8663680.00
  0
VERTEX
  8
0ALV_ROD
 10
618707.56
 20
8663754.00
  0
VERTEX
  8
0ALV_ROD
 10
618656.88
 20
8663828.00
  0
VERTEX
  8
0ALV_ROD
 10
618605.88
 20
8663927.00
  0
VERTEX
  8
0ALV_ROD
 10
618555.19
 20
8664001.00
  0
VERTEX
  8
0ALV_ROD
 10
618529.38
 20
8664076.00
  0
VERTEX
  8
0ALV_ROD
 10
618502.31
 20
8664250.00
  0
VERTEX
  8
0ALV_ROD
 10
618475.19
 20
8664424.00
  0
VERTEX
  8
0ALV_ROD
 10
618473.00
 20
8664598.00
  0
VERTEX
  8
0ALV_ROD
 10
618471.69
 20
8664698.00
  0
VERTEX
  8
0ALV_ROD
 10
618470.75
 20
8664773.00
  0
VERTEX
  8
0ALV_ROD
 10
618469.81
 20
8664847.00
  0
VERTEX
  8
0ALV_ROD
 10
618468.50
 20
8664947.00
  0
VERTEX
  8
0ALV_ROD
 10
618467.56
 20
8665022.00
  0
VERTEX
  8
0ALV_ROD
 10
618491.81
 20
8665072.00
  0
VERTEX
  8
0ALV_ROD
 10
618490.81
 20
8665147.00
  0
VERTEX
  8
0ALV_ROD
 10
618515.06
 20
8665197.00
  0
VERTEX
  8
0ALV_ROD
 10
618514.13
 20
8665272.00
  0
VERTEX
  8
0ALV_ROD
 10
618513.13
 20
8665347.00
  0
VERTEX
  8
0ALV_ROD
 10
618512.19
 20
8665421.00
  0
VERTEX
  8
0ALV_ROD
 10
618511.25
 20
8665496.00
  0
VERTEX
  8
0ALV_ROD
 10
618510.25
 20
8665571.00
  0
VERTEX
  8
0ALV_ROD
 10
618509.31
 20
8665646.00
  0
VERTEX
  8
0ALV_ROD
 10
618508.38
 20
8665720.00
  0
VERTEX
  8
0ALV_ROD
 10
618507.13
 20
8665820.00
  0
VERTEX
  8
0ALV_ROD
 10
618506.13
 20
8665895.00
  0
VERTEX
  8
0ALV_ROD
 10
618504.88
 20
8665995.00
  0
VERTEX
  8
0ALV_ROD
 10
618502.63
 20
8666169.00
  0
VERTEX
  8
0ALV_ROD
 10
618475.88
 20
8666318.00
  0
VERTEX
  8
0ALV_ROD
 10
618448.81
 20
8666492.00
  0
VERTEX
  8
0ALV_ROD
 10
618447.81
 20
8666567.00
  0
VERTEX
  8
0ALV_ROD
 10
618395.88
 20
8666741.00
  0
VERTEX
  8
0ALV_ROD
 10
618370.06
 20
8666815.00
  0
VERTEX
  8
0ALV_ROD
 10
618318.13
 20
8666989.00
  0
VERTEX
  8
0ALV_ROD
 10
618291.06
 20
8667163.00
  0
VERTEX
  8
0ALV_ROD
 10
618212.63
 20
8667460.00
  0
VERTEX
  8
0ALV_ROD
 10
618185.56
 20
8667635.00
  0
VERTEX
  8
0ALV_ROD
 10
618110.00
 20
8667708.00
  0
VERTEX
  8
0ALV_ROD
 10
618082.88
 20
8667882.00
  0
VERTEX
  8
0ALV_ROD
 10
618055.81
 20
8668056.00
  0
VERTEX
  8
0ALV_ROD
 10
618005.44
 20
8668105.00
  0
VERTEX
  8
0ALV_ROD
 10
618002.94
 20
8668305.00
  0
VERTEX
  8
0ALV_ROD
 10
617977.06
 20
8668379.00
  0
VERTEX
  8
0ALV_ROD
 10
617926.13
 20
8668478.00
  0
VERTEX
  8
0ALV_ROD
 10
617900.31
 20
8668552.00
  0
VERTEX
  8
0ALV_ROD
 10
617874.50
 20
8668627.00
  0
VERTEX
  8
0ALV_ROD
 10
617873.50
 20
8668701.00
  0
VERTEX
  8
0ALV_ROD
 10
617822.81
 20
8668775.00
  0
VERTEX
  8
0ALV_ROD
 10
617797.00
 20
8668850.00
  0
VERTEX
  8
0ALV_ROD
 10
617794.44
 20
8669049.00
  0
VERTEX
  8
0ALV_ROD
 10
617793.19
 20
8669149.00
  0
VERTEX
  8
0ALV_ROD
 10
617790.63
 20
8669348.00
  0
VERTEX
  8
0ALV_ROD
 10
617789.38
 20
8669448.00
  0
VERTEX
  8
0ALV_ROD
 10
617788.44
 20
8669523.00
  0
VERTEX
  8
0ALV_ROD
 10
617786.19
 20
8669697.00
  0
VERTEX
  8
0ALV_ROD
 10
617810.06
 20
8669772.00
  0
VERTEX
  8
0ALV_ROD
 10
617807.88
 20
8669947.00
  0
VERTEX
  8
0ALV_ROD
 10
617806.94
 20
8670021.00
  0
VERTEX
  8
0ALV_ROD
 10
617830.81
 20
8670097.00
  0
VERTEX
  8
0ALV_ROD
 10
617855.06
 20
8670147.00
  0
VERTEX
  8
0ALV_ROD
 10
617878.94
 20
8670222.00
  0
VERTEX
  8
0ALV_ROD
 10
617926.75
 20
8670372.00
  0
VERTEX
  8
0ALV_ROD
 10
618000.75
 20
8670423.00
  0
VERTEX
  8
0ALV_ROD
 10
618097.31
 20
8670649.00
  0
VERTEX
  8
0ALV_ROD
 10
618144.50
 20
8670849.00
  0
VERTEX
  8
0ALV_ROD
 10
618193.25
 20
8670925.00
  0
VERTEX
  8
0ALV_ROD
 10
618265.94
 20
8671075.00
  0
VERTEX
  8
0ALV_ROD
 10
618314.69
 20
8671151.00
  0
VERTEX
  8
0ALV_ROD
 10
618338.94
 20
8671201.00
  0
VERTEX
  8
0ALV_ROD
 10
618386.75
 20
8671352.00
  0
VERTEX
  8
0ALV_ROD
 10
618435.50
 20
8671427.00
  0
VERTEX
  8
0ALV_ROD
 10
618484.31
 20
8671503.00
  0
VERTEX
  8
0ALV_ROD
 10
618531.75
 20
8671678.00
  0
VERTEX
  8
0ALV_ROD
 10
618575.06
 20
8671969.00
  0
SEQEND
  8
0ALV_ROD
  0
POLYLINE
  8
0ALV_ROD
 66
     1
  0
VERTEX
  8
0ALV_ROD
 10
695833.38
 20
8667539.00
  0
VERTEX
  8
0ALV_ROD
 10
695735.06
 20
8667477.00
  0
VERTEX
  8
0ALV_ROD
 10
695721.56
 20
8667402.00
  0
VERTEX
  8
0ALV_ROD
 10
695720.44
 20
8667320.00
  0
VERTEX
  8
0ALV_ROD
 10
695719.81
 20
8667270.00
  0
VERTEX
  8
0ALV_ROD
 10
695718.94
 20
8667207.00
  0
VERTEX
  8
0ALV_ROD
 10
695718.25
 20
8667157.00
  0
VERTEX
  8
0ALV_ROD
 10
695717.50
 20
8667100.00
  0
VERTEX
  8
0ALV_ROD
 10
695704.31
 20
8667050.00
  0
VERTEX
  8
0ALV_ROD
 10
695703.25
 20
8666975.00
  0
VERTEX
  8
0ALV_ROD
 10
695690.13
 20
8666925.00
  0
VERTEX
  8
0ALV_ROD
 10
695676.56
 20
8666850.00
  0
VERTEX
  8
0ALV_ROD
 10
695657.06
 20
8666793.00
  0
VERTEX
  8
0ALV_ROD
 10
695643.56
 20
8666718.00
  0
VERTEX
  8
0ALV_ROD
 10
695630.38
 20
8666668.00
  0
VERTEX
  8
0ALV_ROD
 10
695623.13
 20
8666593.00
  0
VERTEX
  8
0ALV_ROD
 10
695609.75
 20
8666530.00
  0
VERTEX
  8
0ALV_ROD
 10
695583.63
 20
8666443.00
  0
VERTEX
  8
0ALV_ROD
 10
695570.00
 20
8666361.00
  0
VERTEX
  8
0ALV_ROD
 10
695550.13
 20
8666280.00
  0
VERTEX
  8
0ALV_ROD
 10
695530.06
 20
8666180.00
  0
VERTEX
  8
0ALV_ROD
 10
695510.44
 20
8666117.00
  0
VERTEX
  8
0ALV_ROD
 10
695484.44
 20
8666042.00
  0
VERTEX
  8
0ALV_ROD
 10
695464.69
 20
8665967.00
  0
VERTEX
  8
0ALV_ROD
 10
695445.19
 20
8665911.00
  0
VERTEX
  8
0ALV_ROD
 10
695425.44
 20
8665835.00
  0
VERTEX
  8
0ALV_ROD
 10
695412.25
 20
8665785.00
  0
VERTEX
  8
0ALV_ROD
 10
695392.75
 20
8665729.00
  0
VERTEX
  8
0ALV_ROD
 10
695379.13
 20
8665648.00
  0
VERTEX
  8
0ALV_ROD
 10
695365.69
 20
8665579.00
  0
VERTEX
  8
0ALV_ROD
 10
695346.19
 20
8665522.00
  0
VERTEX
  8
0ALV_ROD
 10
695339.00
 20
8665454.00
  0
VERTEX
  8
0ALV_ROD
 10
695325.44
 20
8665372.00
  0
VERTEX
  8
0ALV_ROD
 10
695312.19
 20
8665316.00
  0
VERTEX
  8
0ALV_ROD
 10
695298.56
 20
8665234.00
  0
VERTEX
  8
0ALV_ROD
 10
695290.94
 20
8665134.00
  0
VERTEX
  8
0ALV_ROD
 10
695290.25
 20
8665084.00
  0
VERTEX
  8
0ALV_ROD
 10
695289.44
 20
8665021.00
  0
VERTEX
  8
0ALV_ROD
 10
695288.75
 20
8664971.00
  0
VERTEX
  8
0ALV_ROD
 10
695288.06
 20
8664920.00
  0
VERTEX
  8
0ALV_ROD
 10
695287.19
 20
8664858.00
  0
VERTEX
  8
0ALV_ROD
 10
695286.50
 20
8664807.00
  0
VERTEX
  8
0ALV_ROD
 10
695335.38
 20
8664725.00
  0
VERTEX
  8
0ALV_ROD
 10
695359.31
 20
8664649.00
  0
VERTEX
  8
0ALV_ROD
 10
695377.13
 20
8664580.00
  0
VERTEX
  8
0ALV_ROD
 10
695382.69
 20
8664530.00
  0
VERTEX
  8
0ALV_ROD
 10
695431.44
 20
8664441.00
  0
VERTEX
  8
0ALV_ROD
 10
695436.88
 20
8664385.00
  0
VERTEX
  8
0ALV_ROD
 10
695485.75
 20
8664303.00
  0
VERTEX
  8
0ALV_ROD
 10
695534.44
 20
8664208.00
  0
VERTEX
  8
0ALV_ROD
 10
695577.19
 20
8664138.00
  0
VERTEX
  8
0ALV_ROD
 10
695601.50
 20
8664088.00
  0
VERTEX
  8
0ALV_ROD
 10
698870.63
 20
8659218.00
  0
VERTEX
  8
0ALV_ROD
 10
699023.75
 20
8658647.00
  0
SEQEND
  8
0ALV_ROD
  0
POLYLINE
  8
0ALV_ROD
 66
     1
  0
VERTEX
  8
0ALV_ROD
 10
740478.31
 20
8668568.00
  0
VERTEX
  8
0ALV_ROD
 10
739908.94
 20
8668604.00
  0
VERTEX
  8
0ALV_ROD
 10
739783.94
 20
8668602.00
  0
VERTEX
  8
0ALV_ROD
 10
739508.94
 20
8668597.00
  0
VERTEX
  8
0ALV_ROD
 10
739334.00
 20
8668594.00
  0
VERTEX
  8
0ALV_ROD
 10
739134.00
 20
8668590.00
  0
VERTEX
  8
0ALV_ROD
 10
738934.06
 20
8668586.00
  0
VERTEX
  8
0ALV_ROD
 10
738734.06
 20
8668583.00
  0
VERTEX
  8
0ALV_ROD
 10
738334.13
 20
8668575.00
  0
VERTEX
  8
0ALV_ROD
 10
738034.13
 20
8668570.00
  0
VERTEX
  8
0ALV_ROD
 10
737659.19
 20
8668563.00
  0
VERTEX
  8
0ALV_ROD
 10
737334.19
 20
8668557.00
  0
VERTEX
  8
0ALV_ROD
 10
737184.25
 20
8668554.00
  0
VERTEX
  8
0ALV_ROD
 10
737009.25
 20
8668551.00
  0
VERTEX
  8
0ALV_ROD
 10
736859.25
 20
8668548.00
  0
VERTEX
  8
0ALV_ROD
 10
736709.31
 20
8668545.00
  0
VERTEX
  8
0ALV_ROD
 10
736583.88
 20
8668568.00
  0
VERTEX
  8
0ALV_ROD
 10
736308.94
 20
8668563.00
  0
VERTEX
  8
0ALV_ROD
 10
736108.50
 20
8668584.00
  0
VERTEX
  8
0ALV_ROD
 10
735957.69
 20
8668631.00
  0
VERTEX
  8
0ALV_ROD
 10
735781.50
 20
8668702.00
  0
VERTEX
  8
0ALV_ROD
 10
735731.06
 20
8668726.00
  0
VERTEX
  8
0ALV_ROD
 10
735554.81
 20
8668798.00
  0
VERTEX
  8
0ALV_ROD
 10
735503.56
 20
8668871.00
  0
VERTEX
  8
0ALV_ROD
 10
735327.38
 20
8668943.00
  0
VERTEX
  8
0ALV_ROD
 10
735177.00
 20
8668965.00
  0
VERTEX
  8
0ALV_ROD
 10
735098.63
 20
8669163.00
  0
VERTEX
  8
0ALV_ROD
 10
735022.44
 20
8669236.00
  0
VERTEX
  8
0ALV_ROD
 10
734944.94
 20
8669384.00
  0
VERTEX
  8
0ALV_ROD
 10
734892.00
 20
8669557.00
  0
VERTEX
  8
0ALV_ROD
 10
734714.06
 20
8669728.00
  0
VERTEX
  8
0ALV_ROD
 10
734636.19
 20
8669901.00
  0
VERTEX
  8
0ALV_ROD
 10
734483.31
 20
8670073.00
  0
VERTEX
  8
0ALV_ROD
 10
734405.81
 20
8670221.00
  0
VERTEX
  8
0ALV_ROD
 10
734255.81
 20
8670218.00
  0
VERTEX
  8
0ALV_ROD
 10
734180.81
 20
8670217.00
  0
VERTEX
  8
0ALV_ROD
 10
734031.25
 20
8670189.00
  0
VERTEX
  8
0ALV_ROD
 10
733882.13
 20
8670136.00
  0
VERTEX
  8
0ALV_ROD
 10
733732.56
 20
8670109.00
  0
VERTEX
  8
0ALV_ROD
 10
733435.50
 20
8669929.00
  0
VERTEX
  8
0ALV_ROD
 10
733236.75
 20
8669851.00
  0
VERTEX
  8
0ALV_ROD
 10
732912.25
 20
8669820.00
  0
VERTEX
  8
0ALV_ROD
 10
732715.19
 20
8669642.00
  0
VERTEX
  8
0ALV_ROD
 10
732566.00
 20
8669589.00
  0
VERTEX
  8
0ALV_ROD
 10
732418.94
 20
8669412.00
  0
VERTEX
  8
0ALV_ROD
 10
732244.81
 20
8669359.00
  0
VERTEX
  8
0ALV_ROD
 10
732122.31
 20
8669207.00
  0
VERTEX
  8
0ALV_ROD
 10
731948.56
 20
8669129.00
  0
VERTEX
  8
0ALV_ROD
 10
731649.88
 20
8669049.00
  0
VERTEX
  8
0ALV_ROD
 10
731451.13
 20
8668971.00
  0
VERTEX
  8
0ALV_ROD
 10
731128.69
 20
8668815.00
  0
VERTEX
  8
0ALV_ROD
 10
730829.56
 20
8668760.00
  0
VERTEX
  8
0ALV_ROD
 10
730779.56
 20
8668759.00
  0
VERTEX
  8
0ALV_ROD
 10
730729.56
 20
8668758.00
  0
VERTEX
  8
0ALV_ROD
 10
730654.56
 20
8668757.00
  0
VERTEX
  8
0ALV_ROD
 10
730479.56
 20
8668754.00
  0
VERTEX
  8
0ALV_ROD
 10
730304.63
 20
8668750.00
  0
VERTEX
  8
0ALV_ROD
 10
729979.63
 20
8668744.00
  0
VERTEX
  8
0ALV_ROD
 10
729778.81
 20
8668791.00
  0
VERTEX
  8
0ALV_ROD
 10
729602.56
 20
8668862.00
  0
VERTEX
  8
0ALV_ROD
 10
729426.38
 20
8668933.00
  0
VERTEX
  8
0ALV_ROD
 10
729250.13
 20
8669005.00
  0
VERTEX
  8
0ALV_ROD
 10
729174.31
 20
8669053.00
  0
VERTEX
  8
0ALV_ROD
 10
729123.50
 20
8669102.00
  0
VERTEX
  8
0ALV_ROD
 10
729098.06
 20
8669127.00
  0
VERTEX
  8
0ALV_ROD
 10
729022.25
 20
8669175.00
  0
VERTEX
  8
0ALV_ROD
 10
728947.25
 20
8669174.00
  0
VERTEX
  8
0ALV_ROD
 10
728793.94
 20
8669370.00
  0
VERTEX
  8
0ALV_ROD
 10
728716.06
 20
8669543.00
  0
VERTEX
  8
0ALV_ROD
 10
728563.13
 20
8669714.00
  0
VERTEX
  8
0ALV_ROD
 10
728510.25
 20
8669888.00
  0
VERTEX
  8
0ALV_ROD
 10
728359.44
 20
8669935.00
  0
VERTEX
  8
0ALV_ROD
 10
728331.50
 20
8670108.00
  0
VERTEX
  8
0ALV_ROD
 10
728156.13
 20
8670130.00
  0
VERTEX
  8
0ALV_ROD
 10
728002.81
 20
8670326.00
  0
VERTEX
  8
0ALV_ROD
 10
727849.88
 20
8670498.00
  0
VERTEX
  8
0ALV_ROD
 10
727797.00
 20
8670671.00
  0
VERTEX
  8
0ALV_ROD
 10
727594.50
 20
8670817.00
  0
VERTEX
  8
0ALV_ROD
 10
727444.13
 20
8670839.00
  0
VERTEX
  8
0ALV_ROD
 10
727390.38
 20
8671062.00
  0
VERTEX
  8
0ALV_ROD
 10
727212.88
 20
8671208.00
  0
VERTEX
  8
0ALV_ROD
 10
727162.06
 20
8671257.00
  0
VERTEX
  8
0ALV_ROD
 10
727136.69
 20
8671281.00
  0
VERTEX
  8
0ALV_ROD
 10
727111.25
 20
8671306.00
  0
VERTEX
  8
0ALV_ROD
 10
727033.31
 20
8671479.00
  0
VERTEX
  8
0ALV_ROD
 10
726980.44
 20
8671652.00
  0
VERTEX
  8
0ALV_ROD
 10
726929.19
 20
8671726.00
  0
VERTEX
  8
0ALV_ROD
 10
726928.31
 20
8671776.00
  0
VERTEX
  8
0ALV_ROD
 10
726927.50
 20
8671825.00
  0
VERTEX
  8
0ALV_ROD
 10
726926.25
 20
8671900.00
  0
VERTEX
  8
0ALV_ROD
 10
726925.44
 20
8671950.00
  0
VERTEX
  8
0ALV_ROD
 10
726849.63
 20
8671998.00
  0
VERTEX
  8
0ALV_ROD
 10
726773.81
 20
8672047.00
  0
VERTEX
  8
0ALV_ROD
 10
726698.38
 20
8672070.00
  0
VERTEX
  8
0ALV_ROD
 10
726648.38
 20
8672069.00
  0
VERTEX
  8
0ALV_ROD
 10
726523.38
 20
8672067.00
  0
VERTEX
  8
0ALV_ROD
 10
726448.38
 20
8672066.00
  0
VERTEX
  8
0ALV_ROD
 10
726373.44
 20
8672064.00
  0
VERTEX
  8
0ALV_ROD
 10
726299.25
 20
8672013.00
  0
VERTEX
  8
0ALV_ROD
 10
726225.13
 20
8671962.00
  0
VERTEX
  8
0ALV_ROD
 10
726175.94
 20
8671911.00
  0
VERTEX
  8
0ALV_ROD
 10
726101.38
 20
8671885.00
  0
VERTEX
  8
0ALV_ROD
 10
726079.25
 20
8671710.00
  0
VERTEX
  8
0ALV_ROD
 10
726081.75
 20
8671561.00
  0
VERTEX
  8
0ALV_ROD
 10
726083.00
 20
8671486.00
  0
VERTEX
  8
0ALV_ROD
 10
726084.25
 20
8671411.00
  0
VERTEX
  8
0ALV_ROD
 10
726087.19
 20
8671237.00
  0
VERTEX
  8
0ALV_ROD
 10
726090.13
 20
8671063.00
  0
VERTEX
  8
0ALV_ROD
 10
726119.69
 20
8670790.00
  0
VERTEX
  8
0ALV_ROD
 10
726147.19
 20
8670641.00
  0
VERTEX
  8
0ALV_ROD
 10
726176.31
 20
8670392.00
  0
VERTEX
  8
0ALV_ROD
 10
726228.81
 20
8670244.00
  0
VERTEX
  8
0ALV_ROD
 10
726232.13
 20
8670045.00
  0
VERTEX
  8
0ALV_ROD
 10
726234.69
 20
8669895.00
  0
VERTEX
  8
0ALV_ROD
 10
726235.88
 20
8669821.00
  0
VERTEX
  8
0ALV_ROD
 10
726237.13
 20
8669746.00
  0
VERTEX
  8
0ALV_ROD
 10
726213.38
 20
8669671.00
  0
VERTEX
  8
0ALV_ROD
 10
726140.94
 20
8669520.00
  0
VERTEX
  8
0ALV_ROD
 10
726069.69
 20
8669295.00
  0
VERTEX
  8
0ALV_ROD
 10
725924.69
 20
8668993.00
  0
VERTEX
  8
0ALV_ROD
 10
725850.50
 20
8668942.00
  0
VERTEX
  8
0ALV_ROD
 10
725653.50
 20
8668764.00
  0
VERTEX
  8
0ALV_ROD
 10
725453.94
 20
8668735.00
  0
VERTEX
  8
0ALV_ROD
 10
725178.94
 20
8668730.00
  0
VERTEX
  8
0ALV_ROD
 10
725003.94
 20
8668727.00
  0
VERTEX
  8
0ALV_ROD
 10
724853.56
 20
8668749.00
  0
VERTEX
  8
0ALV_ROD
 10
724603.56
 20
8668745.00
  0
VERTEX
  8
0ALV_ROD
 10
724551.13
 20
8668893.00
  0
VERTEX
  8
0ALV_ROD
 10
724374.88
 20
8668964.00
  0
VERTEX
  8
0ALV_ROD
 10
724222.38
 20
8669111.00
  0
VERTEX
  8
0ALV_ROD
 10
724196.13
 20
8669185.00
  0
VERTEX
  8
0ALV_ROD
 10
724044.94
 20
8669257.00
  0
VERTEX
  8
0ALV_ROD
 10
723894.94
 20
8669254.00
  0
VERTEX
  8
0ALV_ROD
 10
723816.19
 20
8669477.00
  0
VERTEX
  8
0ALV_ROD
 10
723665.38
 20
8669524.00
  0
VERTEX
  8
0ALV_ROD
 10
723512.06
 20
8669720.00
  0
VERTEX
  8
0ALV_ROD
 10
723334.56
 20
8669867.00
  0
VERTEX
  8
0ALV_ROD
 10
723158.38
 20
8669938.00
  0
VERTEX
  8
0ALV_ROD
 10
722932.94
 20
8669959.00
  0
VERTEX
  8
0ALV_ROD
 10
722758.00
 20
8669956.00
  0
VERTEX
  8
0ALV_ROD
 10
722633.81
 20
8669903.00
  0
VERTEX
  8
0ALV_ROD
 10
722485.06
 20
8669826.00
  0
VERTEX
  8
0ALV_ROD
 10
722312.63
 20
8669673.00
  0
VERTEX
  8
0ALV_ROD
 10
722040.56
 20
8669494.00
  0
VERTEX
  8
0ALV_ROD
 10
721866.81
 20
8669416.00
  0
VERTEX
  8
0ALV_ROD
 10
721594.38
 20
8669262.00
  0
VERTEX
  8
0ALV_ROD
 10
721421.88
 20
8669109.00
  0
VERTEX
  8
0ALV_ROD
 10
721224.38
 20
8668956.00
  0
VERTEX
  8
0ALV_ROD
 10
721050.25
 20
8668903.00
  0
VERTEX
  8
0ALV_ROD
 10
720752.75
 20
8668748.00
  0
VERTEX
  8
0ALV_ROD
 10
720554.88
 20
8668620.00
  0
VERTEX
  8
0ALV_ROD
 10
720382.38
 20
8668467.00
  0
VERTEX
  8
0ALV_ROD
 10
720233.69
 20
8668390.00
  0
VERTEX
  8
0ALV_ROD
 10
720036.19
 20
8668237.00
  0
VERTEX
  8
0ALV_ROD
 10
719761.63
 20
8668207.00
  0
VERTEX
  8
0ALV_ROD
 10
719589.56
 20
8668029.00
  0
VERTEX
  8
0ALV_ROD
 10
719440.00
 20
8668002.00
  0
VERTEX
  8
0ALV_ROD
 10
719142.94
 20
8667822.00
  0
VERTEX
  8
0ALV_ROD
 10
718920.50
 20
8667668.00
  0
VERTEX
  8
0ALV_ROD
 10
718571.38
 20
8667612.00
  0
VERTEX
  8
0ALV_ROD
 10
718325.56
 20
8667359.00
  0
VERTEX
  8
0ALV_ROD
 10
717878.06
 20
8667201.00
  0
VERTEX
  8
0ALV_ROD
 10
717505.63
 20
8667045.00
  0
VERTEX
  8
0ALV_ROD
 10
717181.94
 20
8666964.00
  0
VERTEX
  8
0ALV_ROD
 10
716983.19
 20
8666886.00
  0
VERTEX
  8
0ALV_ROD
 10
716835.31
 20
8666758.00
  0
VERTEX
  8
0ALV_ROD
 10
716636.56
 20
8666680.00
  0
VERTEX
  8
0ALV_ROD
 10
716489.06
 20
8666528.00
  0
VERTEX
  8
0ALV_ROD
 10
716142.06
 20
8666347.00
  0
VERTEX
  8
0ALV_ROD
 10
715947.50
 20
8666020.00
  0
VERTEX
  8
0ALV_ROD
 10
715652.06
 20
8665740.00
  0
VERTEX
  8
0ALV_ROD
 10
715532.50
 20
8665415.00
  0
VERTEX
  8
0ALV_ROD
 10
715360.44
 20
8665237.00
  0
VERTEX
  8
0ALV_ROD
 10
715313.38
 20
8665062.00
  0
VERTEX
  8
0ALV_ROD
 10
715290.44
 20
8664937.00
  0
VERTEX
  8
0ALV_ROD
 10
715291.31
 20
8664887.00
  0
VERTEX
  8
0ALV_ROD
 10
715296.69
 20
8664564.00
  0
VERTEX
  8
0ALV_ROD
 10
715300.00
 20
8664364.00
  0
VERTEX
  8
0ALV_ROD
 10
715305.00
 20
8664066.00
  0
VERTEX
  8
0ALV_ROD
 10
715332.94
 20
8663892.00
  0
VERTEX
  8
0ALV_ROD
 10
715387.50
 20
8663619.00
  0
VERTEX
  8
0ALV_ROD
 10
715440.81
 20
8663421.00
  0
VERTEX
  8
0ALV_ROD
 10
715469.19
 20
8663222.00
  0
VERTEX
  8
0ALV_ROD
 10
715499.56
 20
8662899.00
  0
VERTEX
  8
0ALV_ROD
 10
715502.50
 20
8662725.00
  0
VERTEX
  8
0ALV_ROD
 10
715507.50
 20
8662426.00
  0
VERTEX
  8
0ALV_ROD
 10
715510.44
 20
8662252.00
  0
VERTEX
  8
0ALV_ROD
 10
715515.44
 20
8661953.00
  0
VERTEX
  8
0ALV_ROD
 10
715494.13
 20
8661729.00
  0
VERTEX
  8
0ALV_ROD
 10
715449.56
 20
8661404.00
  0
VERTEX
  8
0ALV_ROD
 10
715381.25
 20
8661004.00
  0
VERTEX
  8
0ALV_ROD
 10
715310.00
 20
8660779.00
  0
VERTEX
  8
0ALV_ROD
 10
715237.50
 20
8660628.00
  0
VERTEX
  8
0ALV_ROD
 10
715166.69
 20
8660378.00
  0
VERTEX
  8
0ALV_ROD
 10
715092.50
 20
8660327.00
  0
VERTEX
  8
0ALV_ROD
 10
714920.50
 20
8660149.00
  0
VERTEX
  8
0ALV_ROD
 10
714745.44
 20
8660146.00
  0
VERTEX
  8
0ALV_ROD
 10
714595.50
 20
8660143.00
  0
VERTEX
  8
0ALV_ROD
 10
714445.13
 20
8660165.00
  0
VERTEX
  8
0ALV_ROD
 10
714269.69
 20
8660187.00
  0
VERTEX
  8
0ALV_ROD
 10
713994.75
 20
8660182.00
  0
VERTEX
  8
0ALV_ROD
 10
713844.75
 20
8660179.00
  0
VERTEX
  8
0ALV_ROD
 10
713669.38
 20
8660201.00
  0
VERTEX
  8
0ALV_ROD
 10
713394.38
 20
8660196.00
  0
VERTEX
  8
0ALV_ROD
 10
713143.56
 20
8660241.00
  0
VERTEX
  8
0ALV_ROD
 10
712993.56
 20
8660238.00
  0
VERTEX
  8
0ALV_ROD
 10
712843.63
 20
8660235.00
  0
VERTEX
  8
0ALV_ROD
 10
712769.00
 20
8660209.00
  0
VERTEX
  8
0ALV_ROD
 10
712595.31
 20
8660131.00
  0
VERTEX
  8
0ALV_ROD
 10
712421.56
 20
8660053.00
  0
VERTEX
  8
0ALV_ROD
 10
712147.81
 20
8659974.00
  0
VERTEX
  8
0ALV_ROD
 10
711974.13
 20
8659896.00
  0
VERTEX
  8
0ALV_ROD
 10
711825.38
 20
8659818.00
  0
VERTEX
  8
0ALV_ROD
 10
711751.25
 20
8659767.00
  0
VERTEX
  8
0ALV_ROD
 10
711701.25
 20
8659766.00
  0
VERTEX
  8
0ALV_ROD
 10
711629.13
 20
8659590.00
  0
VERTEX
  8
0ALV_ROD
 10
711484.56
 20
8659264.00
  0
VERTEX
  8
0ALV_ROD
 10
711166.25
 20
8658860.00
  0
VERTEX
  8
0ALV_ROD
 10
710946.75
 20
8658532.00
  0
VERTEX
  8
0ALV_ROD
 10
710801.75
 20
8658231.00
  0
VERTEX
  8
0ALV_ROD
 10
710627.63
 20
8658177.00
  0
VERTEX
  8
0ALV_ROD
 10
710605.50
 20
8658003.00
  0
VERTEX
  8
0ALV_ROD
 10
710433.00
 20
8657850.00
  0
VERTEX
  8
0ALV_ROD
 10
710358.88
 20
8657799.00
  0
VERTEX
  8
0ALV_ROD
 10
710286.38
 20
8657648.00
  0
VERTEX
  8
0ALV_ROD
 10
710137.63
 20
8657571.00
  0
VERTEX
  8
0ALV_ROD
 10
710013.94
 20
8657494.00
  0
VERTEX
  8
0ALV_ROD
 10
709715.19
 20
8657414.00
  0
VERTEX
  8
0ALV_ROD
 10
709540.63
 20
8657385.00
  0
VERTEX
  8
0ALV_ROD
 10
709240.69
 20
8657380.00
  0
VERTEX
  8
0ALV_ROD
 10
709090.69
 20
8657377.00
  0
VERTEX
  8
0ALV_ROD
 10
708915.25
 20
8657399.00
  0
VERTEX
  8
0ALV_ROD
 10
708889.88
 20
8657423.00
  0
VERTEX
  8
0ALV_ROD
 10
708714.06
 20
8657470.00
  0
VERTEX
  8
0ALV_ROD
 10
708638.25
 20
8657518.00
  0
VERTEX
  8
0ALV_ROD
 10
708588.25
 20
8657517.00
  0
VERTEX
  8
0ALV_ROD
 10
708435.31
 20
8657689.00
  0
VERTEX
  8
0ALV_ROD
 10
708259.13
 20
8657760.00
  0
VERTEX
  8
0ALV_ROD
 10
708082.88
 20
8657832.00
  0
VERTEX
  8
0ALV_ROD
 10
707906.63
 20
8657903.00
  0
VERTEX
  8
0ALV_ROD
 10
707830.44
 20
8657976.00
  0
VERTEX
  8
0ALV_ROD
 10
707679.19
 20
8658048.00
  0
VERTEX
  8
0ALV_ROD
 10
707527.94
 20
8658120.00
  0
VERTEX
  8
0ALV_ROD
 10
707377.13
 20
8658167.00
  0
VERTEX
  8
0ALV_ROD
 10
707076.38
 20
8658211.00
  0
VERTEX
  8
0ALV_ROD
 10
706876.38
 20
8658208.00
  0
VERTEX
  8
0ALV_ROD
 10
706601.38
 20
8658203.00
  0
VERTEX
  8
0ALV_ROD
 10
706451.44
 20
8658200.00
  0
VERTEX
  8
0ALV_ROD
 10
706301.00
 20
8658222.00
  0
VERTEX
  8
0ALV_ROD
 10
706225.63
 20
8658245.00
  0
VERTEX
  8
0ALV_ROD
 10
706099.81
 20
8658293.00
  0
VERTEX
  8
0ALV_ROD
 10
706048.94
 20
8658342.00
  0
VERTEX
  8
0ALV_ROD
 10
705873.56
 20
8658363.00
  0
VERTEX
  8
0ALV_ROD
 10
705698.19
 20
8658385.00
  0
VERTEX
  8
0ALV_ROD
 10
705547.31
 20
8658432.00
  0
VERTEX
  8
0ALV_ROD
 10
705496.50
 20
8658481.00
  0
VERTEX
  8
0ALV_ROD
 10
705346.13
 20
8658503.00
  0
VERTEX
  8
0ALV_ROD
 10
705070.31
 20
8658548.00
  0
VERTEX
  8
0ALV_ROD
 10
704919.50
 20
8658595.00
  0
VERTEX
  8
0ALV_ROD
 10
704719.13
 20
8658616.00
  0
VERTEX
  8
0ALV_ROD
 10
704543.31
 20
8658663.00
  0
VERTEX
  8
0ALV_ROD
 10
704267.50
 20
8658707.00
  0
VERTEX
  8
0ALV_ROD
 10
704092.13
 20
8658729.00
  0
VERTEX
  8
0ALV_ROD
 10
703742.13
 20
8658722.00
  0
VERTEX
  8
0ALV_ROD
 10
703517.19
 20
8658718.00
  0
VERTEX
  8
0ALV_ROD
 10
703117.19
 20
8658711.00
  0
VERTEX
  8
0ALV_ROD
 10
702742.25
 20
8658704.00
  0
VERTEX
  8
0ALV_ROD
 10
702342.31
 20
8658697.00
  0
VERTEX
  8
0ALV_ROD
 10
702117.31
 20
8658692.00
  0
VERTEX
  8
0ALV_ROD
 10
701792.38
 20
8658686.00
  0
VERTEX
  8
0ALV_ROD
 10
701592.38
 20
8658683.00
  0
VERTEX
  8
0ALV_ROD
 10
701392.38
 20
8658679.00
  0
VERTEX
  8
0ALV_ROD
 10
701117.44
 20
8658674.00
  0
VERTEX
  8
0ALV_ROD
 10
700917.88
 20
8658645.00
  0
VERTEX
  8
0ALV_ROD
 10
700768.75
 20
8658593.00
  0
VERTEX
  8
0ALV_ROD
 10
700645.00
 20
8658516.00
  0
VERTEX
  8
0ALV_ROD
 10
700445.44
 20
8658487.00
  0
VERTEX
  8
0ALV_ROD
 10
700148.38
 20
8658307.00
  0
VERTEX
  8
0ALV_ROD
 10
699333.56
 20
8658373.00
  0
SEQEND
  8
0ALV_ROD
  0
POLYLINE
  8
0ALV_ROD
 66
     1
  0
VERTEX
  8
0ALV_ROD
 10
795714.63
 20
8671016.00
  0
VERTEX
  8
0ALV_ROD
 10
795658.38
 20
8671005.00
  0
VERTEX
  8
0ALV_ROD
 10
795552.00
 20
8670994.00
  0
VERTEX
  8
0ALV_ROD
 10
795483.19
 20
8670982.00
  0
VERTEX
  8
0ALV_ROD
 10
795414.31
 20
8670971.00
  0
VERTEX
  8
0ALV_ROD
 10
795314.31
 20
8670966.00
  0
VERTEX
  8
0ALV_ROD
 10
795239.25
 20
8670960.00
  0
VERTEX
  8
0ALV_ROD
 10
795183.06
 20
8670961.00
  0
VERTEX
  8
0ALV_ROD
 10
795063.88
 20
8670925.00
  0
VERTEX
  8
0ALV_ROD
 10
794963.69
 20
8670907.00
  0
VERTEX
  8
0ALV_ROD
 10
794876.13
 20
8670896.00
  0
VERTEX
  8
0ALV_ROD
 10
794826.00
 20
8670884.00
  0
VERTEX
  8
0ALV_ROD
 10
794769.69
 20
8670878.00
  0
VERTEX
  8
0ALV_ROD
 10
794719.63
 20
8670873.00
  0
VERTEX
  8
0ALV_ROD
 10
794582.25
 20
8670874.00
  0
VERTEX
  8
0ALV_ROD
 10
794469.81
 20
8670876.00
  0
VERTEX
  8
0ALV_ROD
 10
794382.38
 20
8670877.00
  0
VERTEX
  8
0ALV_ROD
 10
794301.19
 20
8670878.00
  0
VERTEX
  8
0ALV_ROD
 10
794220.06
 20
8670879.00
  0
VERTEX
  8
0ALV_ROD
 10
794132.63
 20
8670880.00
  0
VERTEX
  8
0ALV_ROD
 10
794045.25
 20
8670887.00
  0
VERTEX
  8
0ALV_ROD
 10
793982.88
 20
8670894.00
  0
VERTEX
  8
0ALV_ROD
 10
793889.31
 20
8670902.00
  0
VERTEX
  8
0ALV_ROD
 10
793745.75
 20
8670910.00
  0
VERTEX
  8
0ALV_ROD
 10
793677.06
 20
8670911.00
  0
VERTEX
  8
0ALV_ROD
 10
793521.00
 20
8670919.00
  0
VERTEX
  8
0ALV_ROD
 10
793446.06
 20
8670920.00
  0
VERTEX
  8
0ALV_ROD
 10
793346.13
 20
8670921.00
  0
VERTEX
  8
0ALV_ROD
 10
793146.31
 20
8670924.00
  0
VERTEX
  8
0ALV_ROD
 10
793021.38
 20
8670925.00
  0
VERTEX
  8
0ALV_ROD
 10
792927.75
 20
8670926.00
  0
VERTEX
  8
0ALV_ROD
 10
792859.06
 20
8670927.00
  0
VERTEX
  8
0ALV_ROD
 10
792790.25
 20
8670922.00
  0
VERTEX
  8
0ALV_ROD
 10
792727.75
 20
8670916.00
  0
VERTEX
  8
0ALV_ROD
 10
792634.00
 20
8670917.00
  0
VERTEX
  8
0ALV_ROD
 10
792577.88
 20
8670918.00
  0
VERTEX
  8
0ALV_ROD
 10
792490.38
 20
8670919.00
  0
VERTEX
  8
0ALV_ROD
 10
788988.75
 20
8669261.00
  0
VERTEX
  8
0ALV_ROD
 10
788938.19
 20
8669218.00
  0
VERTEX
  8
0ALV_ROD
 10
788881.13
 20
8669156.00
  0
VERTEX
  8
0ALV_ROD
 10
788824.50
 20
8669125.00
  0
VERTEX
  8
0ALV_ROD
 10
788755.44
 20
8669101.00
  0
VERTEX
  8
0ALV_ROD
 10
788673.94
 20
8669076.00
  0
VERTEX
  8
0ALV_ROD
 10
788604.88
 20
8669052.00
  0
VERTEX
  8
0ALV_ROD
 10
788523.56
 20
8669041.00
  0
VERTEX
  8
0ALV_ROD
 10
788461.06
 20
8669041.00
  0
VERTEX
  8
0ALV_ROD
 10
788392.31
 20
8669036.00
  0
VERTEX
  8
0ALV_ROD
 10
788342.19
 20
8669024.00
  0
VERTEX
  8
0ALV_ROD
 10
788273.25
 20
8669006.00
  0
VERTEX
  8
0ALV_ROD
 10
788198.13
 20
8668995.00
  0
VERTEX
  8
0ALV_ROD
 10
788147.88
 20
8668976.00
  0
VERTEX
  8
0ALV_ROD
 10
788059.88
 20
8668933.00
  0
VERTEX
  8
0ALV_ROD
 10
787977.94
 20
8668878.00
  0
VERTEX
  8
0ALV_ROD
 10
787889.88
 20
8668835.00
  0
VERTEX
  8
0ALV_ROD
 10
787839.69
 20
8668817.00
  0
VERTEX
  8
0ALV_ROD
 10
787764.13
 20
8668774.00
  0
VERTEX
  8
0ALV_ROD
 10
787656.94
 20
8668700.00
  0
VERTEX
  8
0ALV_ROD
 10
787511.81
 20
8668595.00
  0
VERTEX
  8
0ALV_ROD
 10
787455.38
 20
8668577.00
  0
VERTEX
  8
0ALV_ROD
 10
787373.44
 20
8668521.00
  0
VERTEX
  8
0ALV_ROD
 10
785731.25
 20
8666268.00
  0
VERTEX
  8
0ALV_ROD
 10
785717.69
 20
8666187.00
  0
VERTEX
  8
0ALV_ROD
 10
785679.31
 20
8666125.00
  0
VERTEX
  8
0ALV_ROD
 10
785622.38
 20
8666069.00
  0
VERTEX
  8
0ALV_ROD
 10
785533.75
 20
8665982.00
  0
VERTEX
  8
0ALV_ROD
 10
785470.50
 20
8665926.00
  0
VERTEX
  8
0ALV_ROD
 10
785413.44
 20
8665864.00
  0
VERTEX
  8
0ALV_ROD
 10
785362.81
 20
8665815.00
  0
VERTEX
  8
0ALV_ROD
 10
785305.81
 20
8665759.00
  0
VERTEX
  8
0ALV_ROD
 10
785249.00
 20
8665716.00
  0
VERTEX
  8
0ALV_ROD
 10
783773.75
 20
8664710.00
  0
VERTEX
  8
0ALV_ROD
 10
781949.44
 20
8664677.00
  0
VERTEX
  8
0ALV_ROD
 10
780934.31
 20
8663063.00
  0
VERTEX
  8
0ALV_ROD
 10
780921.19
 20
8663013.00
  0
VERTEX
  8
0ALV_ROD
 10
780857.75
 20
8662944.00
  0
VERTEX
  8
0ALV_ROD
 10
780825.75
 20
8662888.00
  0
VERTEX
  8
0ALV_ROD
 10
780755.88
 20
8662801.00
  0
VERTEX
  8
0ALV_ROD
 10
780655.00
 20
8662733.00
  0
VERTEX
  8
0ALV_ROD
 10
780604.44
 20
8662690.00
  0
VERTEX
  8
0ALV_ROD
 10
780553.63
 20
8662628.00
  0
VERTEX
  8
0ALV_ROD
 10
780478.13
 20
8662585.00
  0
VERTEX
  8
0ALV_ROD
 10
780383.44
 20
8662511.00
  0
VERTEX
  8
0ALV_ROD
 10
780307.88
 20
8662468.00
  0
VERTEX
  8
0ALV_ROD
 10
780232.31
 20
8662425.00
  0
VERTEX
  8
0ALV_ROD
 10
780150.19
 20
8662357.00
  0
VERTEX
  8
0ALV_ROD
 10
780099.63
 20
8662313.00
  0
VERTEX
  8
0ALV_ROD
 10
779992.81
 20
8662264.00
  0
VERTEX
  8
0ALV_ROD
 10
779898.50
 20
8662222.00
  0
VERTEX
  8
0ALV_ROD
 10
779835.19
 20
8662160.00
  0
VERTEX
  8
0ALV_ROD
 10
779803.06
 20
8662091.00
  0
VERTEX
  8
0ALV_ROD
 10
779764.19
 20
8661991.00
  0
VERTEX
  8
0ALV_ROD
 10
779751.06
 20
8661941.00
  0
VERTEX
  8
0ALV_ROD
 10
779737.38
 20
8661853.00
  0
VERTEX
  8
0ALV_ROD
 10
779736.13
 20
8661765.00
  0
VERTEX
  8
0ALV_ROD
 10
779735.44
 20
8661715.00
  0
VERTEX
  8
0ALV_ROD
 10
779734.69
 20
8661659.00
  0
VERTEX
  8
0ALV_ROD
 10
779210.50
 20
8657106.00
  0
VERTEX
  8
0ALV_ROD
 10
779184.75
 20
8657050.00
  0
VERTEX
  8
0ALV_ROD
 10
779134.00
 20
8656994.00
  0
VERTEX
  8
0ALV_ROD
 10
779077.50
 20
8656970.00
  0
VERTEX
  8
0ALV_ROD
 10
779020.75
 20
8656933.00
  0
VERTEX
  8
0ALV_ROD
 10
778958.06
 20
8656915.00
  0
VERTEX
  8
0ALV_ROD
 10
778888.69
 20
8656865.00
  0
VERTEX
  8
0ALV_ROD
 10
778819.38
 20
8656822.00
  0
VERTEX
  8
0ALV_ROD
 10
778774.88
 20
8656766.00
  0
VERTEX
  8
0ALV_ROD
 10
778711.44
 20
8656692.00
  0
VERTEX
  8
0ALV_ROD
 10
778666.75
 20
8656623.00
  0
VERTEX
  8
0ALV_ROD
 10
778615.88
 20
8656555.00
  0
VERTEX
  8
0ALV_ROD
 10
778577.38
 20
8656480.00
  0
VERTEX
  8
0ALV_ROD
 10
778570.38
 20
8656423.00
  0
VERTEX
  8
0ALV_ROD
 10
778525.63
 20
8656349.00
  0
VERTEX
  8
0ALV_ROD
 10
778481.13
 20
8656293.00
  0
VERTEX
  8
0ALV_ROD
 10
778442.56
 20
8656211.00
  0
VERTEX
  8
0ALV_ROD
 10
778385.31
 20
8656137.00
  0
VERTEX
  8
0ALV_ROD
 10
778372.19
 20
8656111.00
  0
SEQEND
  8
0ALV_ROD
  0
POLYLINE
  8
0ALV_ROD
 66
     1
  0
VERTEX
  8
0ALV_ROD
 10
620902.31
 20
8659352.00
  0
VERTEX
  8
0ALV_ROD
 10
621161.31
 20
8659350.00
  0
VERTEX
  8
0ALV_ROD
 10
621218.06
 20
8659256.00
  0
VERTEX
  8
0ALV_ROD
 10
621293.19
 20
8659213.00
  0
VERTEX
  8
0ALV_ROD
 10
621349.50
 20
8659188.00
  0
VERTEX
  8
0ALV_ROD
 10
621449.56
 20
8659151.00
  0
VERTEX
  8
0ALV_ROD
 10
621505.81
 20
8659133.00
  0
VERTEX
  8
0ALV_ROD
 10
621587.13
 20
8659096.00
  0
VERTEX
  8
0ALV_ROD
 10
621643.56
 20
8659052.00
  0
VERTEX
  8
0ALV_ROD
 10
621731.19
 20
8659003.00
  0
VERTEX
  8
0ALV_ROD
 10
621825.31
 20
8658916.00
  0
VERTEX
  8
0ALV_ROD
 10
621969.56
 20
8658798.00
  0
VERTEX
  8
0ALV_ROD
 10
622088.69
 20
8658705.00
  0
VERTEX
  8
0ALV_ROD
 10
622145.25
 20
8658636.00
  0
VERTEX
  8
0ALV_ROD
 10
622233.06
 20
8658561.00
  0
VERTEX
  8
0ALV_ROD
 10
622252.25
 20
8658486.00
  0
VERTEX
  8
0ALV_ROD
 10
622296.50
 20
8658405.00
  0
VERTEX
  8
0ALV_ROD
 10
622296.94
 20
8658330.00
  0
VERTEX
  8
0ALV_ROD
 10
622297.44
 20
8658254.00
  0
VERTEX
  8
0ALV_ROD
 10
622260.63
 20
8658154.00
  0
VERTEX
  8
0ALV_ROD
 10
622217.69
 20
8658041.00
  0
VERTEX
  8
0ALV_ROD
 10
622137.44
 20
8657908.00
  0
VERTEX
  8
0ALV_ROD
 10
622063.13
 20
8657826.00
  0
VERTEX
  8
0ALV_ROD
 10
621994.88
 20
8657769.00
  0
VERTEX
  8
0ALV_ROD
 10
621864.44
 20
8657674.00
  0
VERTEX
  8
0ALV_ROD
 10
621765.19
 20
8657592.00
  0
VERTEX
  8
0ALV_ROD
 10
621690.56
 20
8657547.00
  0
VERTEX
  8
0ALV_ROD
 10
621628.44
 20
8657509.00
  0
VERTEX
  8
0ALV_ROD
 10
621560.13
 20
8657465.00
  0
VERTEX
  8
0ALV_ROD
 10
621516.94
 20
8657389.00
  0
VERTEX
  8
0ALV_ROD
 10
621436.25
 20
8657326.00
  0
VERTEX
  8
0ALV_ROD
 10
621405.50
 20
8657256.00
  0
VERTEX
  8
0ALV_ROD
 10
621375.13
 20
8657124.00
  0
VERTEX
  8
0ALV_ROD
 10
621313.38
 20
8657030.00
  0
VERTEX
  8
0ALV_ROD
 10
621295.19
 20
8656948.00
  0
VERTEX
  8
0ALV_ROD
 10
621289.56
 20
8656854.00
  0
VERTEX
  8
0ALV_ROD
 10
621246.38
 20
8656772.00
  0
VERTEX
  8
0ALV_ROD
 10
621234.69
 20
8656653.00
  0
VERTEX
  8
0ALV_ROD
 10
621191.69
 20
8656546.00
  0
VERTEX
  8
0ALV_ROD
 10
621155.50
 20
8656357.00
  0
VERTEX
  8
0ALV_ROD
 10
621112.38
 20
8656263.00
  0
VERTEX
  8
0ALV_ROD
 10
621075.75
 20
8656143.00
  0
VERTEX
  8
0ALV_ROD
 10
621013.94
 20
8656055.00
  0
VERTEX
  8
0ALV_ROD
 10
620983.19
 20
8655980.00
  0
VERTEX
  8
0ALV_ROD
 10
620964.81
 20
8655929.00
  0
VERTEX
  8
0ALV_ROD
 10
620952.75
 20
8655860.00
  0
VERTEX
  8
0ALV_ROD
 10
620953.31
 20
8655779.00
  0
VERTEX
  8
0ALV_ROD
 10
620953.63
 20
8655728.00
  0
VERTEX
  8
0ALV_ROD
 10
620954.13
 20
8655647.00
  0
VERTEX
  8
0ALV_ROD
 10
620960.94
 20
8655565.00
  0
SEQEND
  8
0ALV_ROD
  0
POLYLINE
  8
0ALV_ROD
 66
     1
  0
VERTEX
  8
0ALV_ROD
 10
776785.63
 20
8655174.00
  0
VERTEX
  8
0ALV_ROD
 10
775395.94
 20
8654485.00
  0
VERTEX
  8
0ALV_ROD
 10
767653.94
 20
8656095.00
  0
SEQEND
  8
0ALV_ROD
  0
POLYLINE
  8
0ALV_ROD
 66
     1
  0
VERTEX
  8
0ALV_ROD
 10
801790.44
 20
8655030.00
  0
VERTEX
  8
0ALV_ROD
 10
801423.44
 20
8655001.00
  0
VERTEX
  8
0ALV_ROD
 10
801001.38
 20
8654819.00
  0
VERTEX
  8
0ALV_ROD
 10
800778.94
 20
8654666.00
  0
VERTEX
  8
0ALV_ROD
 10
800313.94
 20
8654423.00
  0
SEQEND
  8
0ALV_ROD
  0
POLYLINE
  8
0ALV_ROD
 66
     1
  0
VERTEX
  8
0ALV_ROD
 10
800313.94
 20
8654423.00
  0
VERTEX
  8
0ALV_ROD
 10
799608.19
 20
8654395.00
  0
VERTEX
  8
0ALV_ROD
 10
799282.81
 20
8654414.00
  0
VERTEX
  8
0ALV_ROD
 10
799057.00
 20
8654459.00
  0
VERTEX
  8
0ALV_ROD
 10
798706.19
 20
8654503.00
  0
VERTEX
  8
0ALV_ROD
 10
798505.38
 20
8654549.00
  0
VERTEX
  8
0ALV_ROD
 10
798205.44
 20
8654543.00
  0
VERTEX
  8
0ALV_ROD
 10
797855.50
 20
8654537.00
  0
VERTEX
  8
0ALV_ROD
 10
797680.50
 20
8654534.00
  0
VERTEX
  8
0ALV_ROD
 10
797405.56
 20
8654528.00
  0
VERTEX
  8
0ALV_ROD
 10
797205.56
 20
8654525.00
  0
VERTEX
  8
0ALV_ROD
 10
797031.00
 20
8654497.00
  0
VERTEX
  8
0ALV_ROD
 10
796706.88
 20
8654441.00
  0
VERTEX
  8
0ALV_ROD
 10
796507.69
 20
8654387.00
  0
VERTEX
  8
0ALV_ROD
 10
796158.63
 20
8654331.00
  0
VERTEX
  8
0ALV_ROD
 10
795934.06
 20
8654302.00
  0
VERTEX
  8
0ALV_ROD
 10
795611.56
 20
8654147.00
  0
VERTEX
  8
0ALV_ROD
 10
795287.88
 20
8654066.00
  0
VERTEX
  8
0ALV_ROD
 10
794964.94
 20
8653935.00
  0
VERTEX
  8
0ALV_ROD
 10
794617.50
 20
8653780.00
  0
VERTEX
  8
0ALV_ROD
 10
794418.38
 20
8653726.00
  0
VERTEX
  8
0ALV_ROD
 10
794120.88
 20
8653571.00
  0
VERTEX
  8
0ALV_ROD
 10
793923.88
 20
8653393.00
  0
VERTEX
  8
0ALV_ROD
 10
793626.75
 20
8653214.00
  0
VERTEX
  8
0ALV_ROD
 10
793405.13
 20
8653010.00
  0
VERTEX
  8
0ALV_ROD
 10
793083.13
 20
8652830.00
  0
VERTEX
  8
0ALV_ROD
 10
792612.75
 20
8652547.00
  0
VERTEX
  8
0ALV_ROD
 10
792265.25
 20
8652392.00
  0
VERTEX
  8
0ALV_ROD
 10
792043.19
 20
8652213.00
  0
VERTEX
  8
0ALV_ROD
 10
791670.75
 20
8652057.00
  0
VERTEX
  8
0ALV_ROD
 10
791522.00
 20
8651979.00
  0
VERTEX
  8
0ALV_ROD
 10
791373.25
 20
8651902.00
  0
VERTEX
  8
0ALV_ROD
 10
791248.69
 20
8651875.00
  0
VERTEX
  8
0ALV_ROD
 10
791199.13
 20
8651849.00
  0
VERTEX
  8
0ALV_ROD
 10
791024.56
 20
8651821.00
  0
VERTEX
  8
0ALV_ROD
 10
790875.44
 20
8651768.00
  0
VERTEX
  8
0ALV_ROD
 10
790701.31
 20
8651715.00
  0
VERTEX
  8
0ALV_ROD
 10
790527.13
 20
8651662.00
  0
VERTEX
  8
0ALV_ROD
 10
790353.00
 20
8651609.00
  0
VERTEX
  8
0ALV_ROD
 10
790053.00
 20
8651604.00
  0
VERTEX
  8
0ALV_ROD
 10
789880.50
 20
8651451.00
  0
VERTEX
  8
0ALV_ROD
 10
789606.81
 20
8651371.00
  0
VERTEX
  8
0ALV_ROD
 10
789407.69
 20
8651318.00
  0
VERTEX
  8
0ALV_ROD
 10
789258.13
 20
8651290.00
  0
VERTEX
  8
0ALV_ROD
 10
788958.13
 20
8651285.00
  0
VERTEX
  8
0ALV_ROD
 10
788733.56
 20
8651256.00
  0
VERTEX
  8
0ALV_ROD
 10
788308.63
 20
8651248.00
  0
VERTEX
  8
0ALV_ROD
 10
787783.69
 20
8651238.00
  0
VERTEX
  8
0ALV_ROD
 10
787283.75
 20
8651229.00
  0
VERTEX
  8
0ALV_ROD
 10
786833.81
 20
8651220.00
  0
VERTEX
  8
0ALV_ROD
 10
786408.81
 20
8651213.00
  0
VERTEX
  8
0ALV_ROD
 10
786033.06
 20
8651255.00
  0
VERTEX
  8
0ALV_ROD
 10
785683.06
 20
8651249.00
  0
VERTEX
  8
0ALV_ROD
 10
785330.25
 20
8651417.00
  0
VERTEX
  8
0ALV_ROD
 10
785104.00
 20
8651487.00
  0
VERTEX
  8
0ALV_ROD
 10
784776.56
 20
8651631.00
  0
VERTEX
  8
0ALV_ROD
 10
784400.31
 20
8651698.00
  0
VERTEX
  8
0ALV_ROD
 10
784022.88
 20
8651841.00
  0
VERTEX
  8
0ALV_ROD
 10
783521.69
 20
8651906.00
  0
VERTEX
  8
0ALV_ROD
 10
782870.94
 20
8651944.00
  0
VERTEX
  8
0ALV_ROD
 10
782343.06
 20
8652108.00
  0
VERTEX
  8
0ALV_ROD
 10
781892.25
 20
8652150.00
  0
VERTEX
  8
0ALV_ROD
 10
781539.00
 20
8652343.00
  0
VERTEX
  8
0ALV_ROD
 10
781211.56
 20
8652486.00
  0
VERTEX
  8
0ALV_ROD
 10
780860.75
 20
8652529.00
  0
VERTEX
  8
0ALV_ROD
 10
780707.88
 20
8652701.00
  0
VERTEX
  8
0ALV_ROD
 10
780531.56
 20
8652772.00
  0
VERTEX
  8
0ALV_ROD
 10
780255.38
 20
8652842.00
  0
VERTEX
  8
0ALV_ROD
 10
780077.13
 20
8653038.00
  0
VERTEX
  8
0ALV_ROD
 10
779924.63
 20
8653184.00
  0
VERTEX
  8
0ALV_ROD
 10
779671.31
 20
8653379.00
  0
VERTEX
  8
0ALV_ROD
 10
779493.38
 20
8653550.00
  0
VERTEX
  8
0ALV_ROD
 10
779314.69
 20
8653771.00
  0
VERTEX
  8
0ALV_ROD
 10
779136.75
 20
8653942.00
  0
VERTEX
  8
0ALV_ROD
 10
779086.38
 20
8653966.00
  0
VERTEX
  8
0ALV_ROD
 10
778933.50
 20
8654137.00
  0
VERTEX
  8
0ALV_ROD
 10
778855.13
 20
8654335.00
  0
VERTEX
  8
0ALV_ROD
 10
778701.88
 20
8654531.00
  0
VERTEX
  8
0ALV_ROD
 10
778316.31
 20
8655244.00
  0
SEQEND
  8
0ALV_ROD
  0
POLYLINE
  8
0ALV_ROD
 66
     1
  0
VERTEX
  8
0ALV_ROD
 10
826215.50
 20
8643806.00
  0
VERTEX
  8
0ALV_ROD
 10
826190.44
 20
8643806.00
  0
VERTEX
  8
0ALV_ROD
 10
826140.44
 20
8643805.00
  0
VERTEX
  8
0ALV_ROD
 10
826090.50
 20
8643804.00
  0
VERTEX
  8
0ALV_ROD
 10
826015.50
 20
8643803.00
  0
VERTEX
  8
0ALV_ROD
 10
825965.06
 20
8643827.00
  0
VERTEX
  8
0ALV_ROD
 10
825914.69
 20
8643851.00
  0
VERTEX
  8
0ALV_ROD
 10
825889.25
 20
8643875.00
  0
VERTEX
  8
0ALV_ROD
 10
825863.81
 20
8643899.00
  0
VERTEX
  8
0ALV_ROD
 10
825813.38
 20
8643923.00
  0
VERTEX
  8
0ALV_ROD
 10
825737.63
 20
8643972.00
  0
VERTEX
  8
0ALV_ROD
 10
825712.19
 20
8643996.00
  0
VERTEX
  8
0ALV_ROD
 10
825661.75
 20
8644020.00
  0
VERTEX
  8
0ALV_ROD
 10
825611.38
 20
8644044.00
  0
VERTEX
  8
0ALV_ROD
 10
825536.38
 20
8644043.00
  0
VERTEX
  8
0ALV_ROD
 10
825485.94
 20
8644067.00
  0
VERTEX
  8
0ALV_ROD
 10
825410.56
 20
8644090.00
  0
VERTEX
  8
0ALV_ROD
 10
825385.13
 20
8644115.00
  0
VERTEX
  8
0ALV_ROD
 10
825334.75
 20
8644139.00
  0
VERTEX
  8
0ALV_ROD
 10
825284.31
 20
8644163.00
  0
VERTEX
  8
0ALV_ROD
 10
825233.94
 20
8644187.00
  0
VERTEX
  8
0ALV_ROD
 10
825208.06
 20
8644236.00
  0
VERTEX
  8
0ALV_ROD
 10
825157.25
 20
8644285.00
  0
VERTEX
  8
0ALV_ROD
 10
825103.94
 20
8644483.00
  0
VERTEX
  8
0ALV_ROD
 10
825078.06
 20
8644532.00
  0
VERTEX
  8
0ALV_ROD
 10
825050.56
 20
8644681.00
  0
VERTEX
  8
0ALV_ROD
 10
825021.88
 20
8644905.00
  0
VERTEX
  8
0ALV_ROD
 10
824996.00
 20
8644954.00
  0
VERTEX
  8
0ALV_ROD
 10
824968.50
 20
8645103.00
  0
VERTEX
  8
0ALV_ROD
 10
824942.31
 20
8645177.00
  0
VERTEX
  8
0ALV_ROD
 10
824888.94
 20
8645375.00
  0
VERTEX
  8
0ALV_ROD
 10
824861.00
 20
8645549.00
  0
VERTEX
  8
0ALV_ROD
 10
824833.13
 20
8645723.00
  0
VERTEX
  8
0ALV_ROD
 10
824805.25
 20
8645897.00
  0
VERTEX
  8
0ALV_ROD
 10
824727.31
 20
8646070.00
  0
VERTEX
  8
0ALV_ROD
 10
824701.94
 20
8646094.00
  0
VERTEX
  8
0ALV_ROD
 10
824649.38
 20
8646243.00
  0
VERTEX
  8
0ALV_ROD
 10
824621.50
 20
8646416.00
  0
VERTEX
  8
0ALV_ROD
 10
824593.56
 20
8646590.00
  0
VERTEX
  8
0ALV_ROD
 10
824562.75
 20
8646938.00
  0
VERTEX
  8
0ALV_ROD
 10
824534.88
 20
8647112.00
  0
VERTEX
  8
0ALV_ROD
 10
824502.38
 20
8647560.00
  0
VERTEX
  8
0ALV_ROD
 10
824497.75
 20
8647833.00
  0
VERTEX
  8
0ALV_ROD
 10
824490.69
 20
8648256.00
  0
VERTEX
  8
0ALV_ROD
 10
824487.38
 20
8648456.00
  0
VERTEX
  8
0ALV_ROD
 10
824482.38
 20
8648754.00
  0
VERTEX
  8
0ALV_ROD
 10
824479.44
 20
8648929.00
  0
VERTEX
  8
0ALV_ROD
 10
824473.63
 20
8649277.00
  0
VERTEX
  8
0ALV_ROD
 10
824444.88
 20
8649501.00
  0
VERTEX
  8
0ALV_ROD
 10
824417.38
 20
8649650.00
  0
VERTEX
  8
0ALV_ROD
 10
824386.19
 20
8650022.00
  0
VERTEX
  8
0ALV_ROD
 10
824382.38
 20
8650247.00
  0
VERTEX
  8
0ALV_ROD
 10
824352.00
 20
8650570.00
  0
VERTEX
  8
0ALV_ROD
 10
824324.06
 20
8650743.00
  0
VERTEX
  8
0ALV_ROD
 10
824294.06
 20
8651042.00
  0
VERTEX
  8
0ALV_ROD
 10
824266.13
 20
8651215.00
  0
VERTEX
  8
0ALV_ROD
 10
824237.88
 20
8651414.00
  0
VERTEX
  8
0ALV_ROD
 10
824209.50
 20
8651613.00
  0
VERTEX
  8
0ALV_ROD
 10
824156.19
 20
8651811.00
  0
VERTEX
  8
0ALV_ROD
 10
824078.31
 20
8651984.00
  0
VERTEX
  8
0ALV_ROD
 10
824000.38
 20
8652157.00
  0
VERTEX
  8
0ALV_ROD
 10
823922.88
 20
8652305.00
  0
VERTEX
  8
0ALV_ROD
 10
823847.06
 20
8652353.00
  0
VERTEX
  8
0ALV_ROD
 10
823668.75
 20
8652549.00
  0
VERTEX
  8
0ALV_ROD
 10
823491.25
 20
8652695.00
  0
VERTEX
  8
0ALV_ROD
 10
823315.06
 20
8652767.00
  0
VERTEX
  8
0ALV_ROD
 10
822988.81
 20
8652835.00
  0
VERTEX
  8
0ALV_ROD
 10
822813.44
 20
8652857.00
  0
VERTEX
  8
0ALV_ROD
 10
822563.50
 20
8652852.00
  0
VERTEX
  8
0ALV_ROD
 10
822388.50
 20
8652849.00
  0
VERTEX
  8
0ALV_ROD
 10
822238.50
 20
8652846.00
  0
VERTEX
  8
0ALV_ROD
 10
822088.50
 20
8652843.00
  0
VERTEX
  8
0ALV_ROD
 10
821938.56
 20
8652841.00
  0
VERTEX
  8
0ALV_ROD
 10
821663.56
 20
8652836.00
  0
VERTEX
  8
0ALV_ROD
 10
821488.19
 20
8652857.00
  0
VERTEX
  8
0ALV_ROD
 10
821287.31
 20
8652903.00
  0
VERTEX
  8
0ALV_ROD
 10
821087.38
 20
8652900.00
  0
VERTEX
  8
0ALV_ROD
 10
820934.06
 20
8653096.00
  0
VERTEX
  8
0ALV_ROD
 10
820881.56
 20
8653244.00
  0
VERTEX
  8
0ALV_ROD
 10
820703.69
 20
8653415.00
  0
VERTEX
  8
0ALV_ROD
 10
820550.38
 20
8653612.00
  0
VERTEX
  8
0ALV_ROD
 10
820472.00
 20
8653810.00
  0
VERTEX
  8
0ALV_ROD
 10
820318.75
 20
8654006.00
  0
VERTEX
  8
0ALV_ROD
 10
820240.81
 20
8654179.00
  0
VERTEX
  8
0ALV_ROD
 10
820090.00
 20
8654226.00
  0
VERTEX
  8
0ALV_ROD
 10
820037.13
 20
8654399.00
  0
VERTEX
  8
0ALV_ROD
 10
819859.19
 20
8654570.00
  0
VERTEX
  8
0ALV_ROD
 10
819704.25
 20
8654866.00
  0
VERTEX
  8
0ALV_ROD
 10
819551.75
 20
8655013.00
  0
VERTEX
  8
0ALV_ROD
 10
819496.75
 20
8655310.00
  0
VERTEX
  8
0ALV_ROD
 10
819318.81
 20
8655481.00
  0
VERTEX
  8
0ALV_ROD
 10
819163.06
 20
8655827.00
  0
VERTEX
  8
0ALV_ROD
 10
819083.88
 20
8656075.00
  0
VERTEX
  8
0ALV_ROD
 10
819002.69
 20
8656447.00
  0
VERTEX
  8
0ALV_ROD
 10
818849.31
 20
8656643.00
  0
VERTEX
  8
0ALV_ROD
 10
818768.50
 20
8656990.00
  0
VERTEX
  8
0ALV_ROD
 10
818690.19
 20
8657188.00
  0
VERTEX
  8
0ALV_ROD
 10
818611.50
 20
8657411.00
  0
VERTEX
  8
0ALV_ROD
 10
818458.56
 20
8657582.00
  0
VERTEX
  8
0ALV_ROD
 10
818306.06
 20
8657729.00
  0
VERTEX
  8
0ALV_ROD
 10
818152.75
 20
8657925.00
  0
VERTEX
  8
0ALV_ROD
 10
817999.88
 20
8658097.00
  0
VERTEX
  8
0ALV_ROD
 10
817847.00
 20
8658268.00
  0
VERTEX
  8
0ALV_ROD
 10
817644.06
 20
8658439.00
  0
VERTEX
  8
0ALV_ROD
 10
817518.25
 20
8658486.00
  0
VERTEX
  8
0ALV_ROD
 10
817339.94
 20
8658682.00
  0
VERTEX
  8
0ALV_ROD
 10
817337.06
 20
8658856.00
  0
VERTEX
  8
0ALV_ROD
 10
817336.19
 20
8658906.00
  0
VERTEX
  8
0ALV_ROD
 10
817358.31
 20
8659081.00
  0
VERTEX
  8
0ALV_ROD
 10
817430.38
 20
8659256.00
  0
VERTEX
  8
0ALV_ROD
 10
817627.00
 20
8659459.00
  0
VERTEX
  8
0ALV_ROD
 10
817823.69
 20
8659662.00
  0
VERTEX
  8
0ALV_ROD
 10
818195.69
 20
8659843.00
  0
VERTEX
  8
0ALV_ROD
 10
818417.75
 20
8660022.00
  0
VERTEX
  8
0ALV_ROD
 10
818611.50
 20
8660399.00
  0
VERTEX
  8
0ALV_ROD
 10
818607.75
 20
8660623.00
  0
VERTEX
  8
0ALV_ROD
 10
818602.31
 20
8660946.00
  0
VERTEX
  8
0ALV_ROD
 10
818576.06
 20
8661020.00
  0
VERTEX
  8
0ALV_ROD
 10
818500.25
 20
8661069.00
  0
VERTEX
  8
0ALV_ROD
 10
818424.88
 20
8661092.00
  0
VERTEX
  8
0ALV_ROD
 10
818374.44
 20
8661116.00
  0
VERTEX
  8
0ALV_ROD
 10
818049.50
 20
8661110.00
  0
VERTEX
  8
0ALV_ROD
 10
817874.06
 20
8661132.00
  0
VERTEX
  8
0ALV_ROD
 10
817523.25
 20
8661175.00
  0
VERTEX
  8
0ALV_ROD
 10
817297.88
 20
8661196.00
  0
VERTEX
  8
0ALV_ROD
 10
816970.00
 20
8661364.00
  0
VERTEX
  8
0ALV_ROD
 10
816569.25
 20
8661407.00
  0
VERTEX
  8
0ALV_ROD
 10
816243.44
 20
8661450.00
  0
VERTEX
  8
0ALV_ROD
 10
815917.63
 20
8661494.00
  0
VERTEX
  8
0ALV_ROD
 10
815741.81
 20
8661541.00
  0
VERTEX
  8
0ALV_ROD
 10
815466.00
 20
8661585.00
  0
VERTEX
  8
0ALV_ROD
 10
815316.06
 20
8661583.00
  0
VERTEX
  8
0ALV_ROD
 10
815162.75
 20
8661779.00
  0
VERTEX
  8
0ALV_ROD
 10
814986.94
 20
8661826.00
  0
VERTEX
  8
0ALV_ROD
 10
814833.63
 20
8662022.00
  0
VERTEX
  8
0ALV_ROD
 10
814679.88
 20
8662243.00
  0
VERTEX
  8
0ALV_ROD
 10
814404.94
 20
8662238.00
  0
VERTEX
  8
0ALV_ROD
 10
814180.38
 20
8662209.00
  0
VERTEX
  8
0ALV_ROD
 10
813981.63
 20
8662131.00
  0
VERTEX
  8
0ALV_ROD
 10
813834.13
 20
8661979.00
  0
VERTEX
  8
0ALV_ROD
 10
813787.50
 20
8661779.00
  0
VERTEX
  8
0ALV_ROD
 10
813617.88
 20
8661452.00
  0
VERTEX
  8
0ALV_ROD
 10
813595.81
 20
8661277.00
  0
VERTEX
  8
0ALV_ROD
 10
813575.81
 20
8660978.00
  0
VERTEX
  8
0ALV_ROD
 10
813578.31
 20
8660828.00
  0
VERTEX
  8
0ALV_ROD
 10
813556.25
 20
8660654.00
  0
VERTEX
  8
0ALV_ROD
 10
813532.06
 20
8660603.00
  0
VERTEX
  8
0ALV_ROD
 10
813459.56
 20
8660453.00
  0
VERTEX
  8
0ALV_ROD
 10
813412.06
 20
8660302.00
  0
VERTEX
  8
0ALV_ROD
 10
813264.56
 20
8660150.00
  0
VERTEX
  8
0ALV_ROD
 10
812967.13
 20
8659995.00
  0
VERTEX
  8
0ALV_ROD
 10
812793.38
 20
8659918.00
  0
VERTEX
  8
0ALV_ROD
 10
812493.44
 20
8659912.00
  0
VERTEX
  8
0ALV_ROD
 10
812343.44
 20
8659909.00
  0
VERTEX
  8
0ALV_ROD
 10
812068.06
 20
8659929.00
  0
VERTEX
  8
0ALV_ROD
 10
811892.25
 20
8659976.00
  0
VERTEX
  8
0ALV_ROD
 10
811642.25
 20
8659971.00
  0
VERTEX
  8
0ALV_ROD
 10
811492.31
 20
8659968.00
  0
VERTEX
  8
0ALV_ROD
 10
811167.31
 20
8659962.00
  0
VERTEX
  8
0ALV_ROD
 10
810968.63
 20
8659884.00
  0
VERTEX
  8
0ALV_ROD
 10
810619.88
 20
8659803.00
  0
VERTEX
  8
0ALV_ROD
 10
810422.00
 20
8659674.00
  0
VERTEX
  8
0ALV_ROD
 10
810098.31
 20
8659594.00
  0
VERTEX
  8
0ALV_ROD
 10
809925.81
 20
8659441.00
  0
VERTEX
  8
0ALV_ROD
 10
809852.06
 20
8659365.00
  0
VERTEX
  8
0ALV_ROD
 10
809779.56
 20
8659214.00
  0
VERTEX
  8
0ALV_ROD
 10
809705.81
 20
8659138.00
  0
VERTEX
  8
0ALV_ROD
 10
809633.31
 20
8658988.00
  0
VERTEX
  8
0ALV_ROD
 10
809586.25
 20
8658812.00
  0
VERTEX
  8
0ALV_ROD
 10
809416.25
 20
8658510.00
  0
VERTEX
  8
0ALV_ROD
 10
809269.63
 20
8658309.00
  0
VERTEX
  8
0ALV_ROD
 10
809199.63
 20
8658008.00
  0
VERTEX
  8
0ALV_ROD
 10
809177.56
 20
8657834.00
  0
VERTEX
  8
0ALV_ROD
 10
809182.94
 20
8657510.00
  0
VERTEX
  8
0ALV_ROD
 10
809190.44
 20
8657062.00
  0
VERTEX
  8
0ALV_ROD
 10
809170.06
 20
8656788.00
  0
VERTEX
  8
0ALV_ROD
 10
809175.06
 20
8656489.00
  0
VERTEX
  8
0ALV_ROD
 10
809005.06
 20
8656187.00
  0
VERTEX
  8
0ALV_ROD
 10
808860.88
 20
8655836.00
  0
VERTEX
  8
0ALV_ROD
 10
808713.81
 20
8655659.00
  0
VERTEX
  8
0ALV_ROD
 10
808514.25
 20
8655630.00
  0
VERTEX
  8
0ALV_ROD
 10
808189.31
 20
8655624.00
  0
VERTEX
  8
0ALV_ROD
 10
808063.88
 20
8655647.00
  0
VERTEX
  8
0ALV_ROD
 10
807762.69
 20
8655716.00
  0
VERTEX
  8
0ALV_ROD
 10
807586.44
 20
8655787.00
  0
VERTEX
  8
0ALV_ROD
 10
807411.50
 20
8655784.00
  0
VERTEX
  8
0ALV_ROD
 10
807286.50
 20
8655782.00
  0
VERTEX
  8
0ALV_ROD
 10
807036.94
 20
8655752.00
  0
VERTEX
  8
0ALV_ROD
 10
806988.19
 20
8655677.00
  0
VERTEX
  8
0ALV_ROD
 10
806815.69
 20
8655524.00
  0
VERTEX
  8
0ALV_ROD
 10
806743.19
 20
8655373.00
  0
VERTEX
  8
0ALV_ROD
 10
806720.69
 20
8655224.00
  0
VERTEX
  8
0ALV_ROD
 10
806721.94
 20
8655149.00
  0
VERTEX
  8
0ALV_ROD
 10
806722.81
 20
8655099.00
  0
VERTEX
  8
0ALV_ROD
 10
806698.63
 20
8655049.00
  0
VERTEX
  8
0ALV_ROD
 10
806676.13
 20
8654899.00
  0
VERTEX
  8
0ALV_ROD
 10
806628.63
 20
8654749.00
  0
VERTEX
  8
0ALV_ROD
 10
806479.88
 20
8654671.00
  0
VERTEX
  8
0ALV_ROD
 10
806304.94
 20
8654668.00
  0
VERTEX
  8
0ALV_ROD
 10
806229.94
 20
8654667.00
  0
VERTEX
  8
0ALV_ROD
 10
806179.94
 20
8654666.00
  0
VERTEX
  8
0ALV_ROD
 10
806104.94
 20
8654664.00
  0
VERTEX
  8
0ALV_ROD
 10
806030.00
 20
8654663.00
  0
VERTEX
  8
0ALV_ROD
 10
805954.94
 20
8654662.00
  0
VERTEX
  8
0ALV_ROD
 10
805880.38
 20
8654635.00
  0
VERTEX
  8
0ALV_ROD
 10
805831.63
 20
8654560.00
  0
VERTEX
  8
0ALV_ROD
 10
805657.94
 20
8654482.00
  0
VERTEX
  8
0ALV_ROD
 10
805584.19
 20
8654406.00
  0
VERTEX
  8
0ALV_ROD
 10
805535.44
 20
8654330.00
  0
VERTEX
  8
0ALV_ROD
 10
805511.25
 20
8654280.00
  0
VERTEX
  8
0ALV_ROD
 10
805461.69
 20
8654254.00
  0
VERTEX
  8
0ALV_ROD
 10
805414.63
 20
8654079.00
  0
VERTEX
  8
0ALV_ROD
 10
805266.69
 20
8653952.00
  0
VERTEX
  8
0ALV_ROD
 10
805219.19
 20
8653801.00
  0
VERTEX
  8
0ALV_ROD
 10
805046.31
 20
8653674.00
  0
VERTEX
  8
0ALV_ROD
 10
804871.31
 20
8653670.00
  0
VERTEX
  8
0ALV_ROD
 10
804796.38
 20
8653669.00
  0
VERTEX
  8
0ALV_ROD
 10
804746.31
 20
8653668.00
  0
VERTEX
  8
0ALV_ROD
 10
804696.38
 20
8653667.00
  0
VERTEX
  8
0ALV_ROD
 10
804618.44
 20
8653840.00
  0
VERTEX
  8
0ALV_ROD
 10
804540.56
 20
8654013.00
  0
VERTEX
  8
0ALV_ROD
 10
804487.19
 20
8654211.00
  0
VERTEX
  8
0ALV_ROD
 10
804334.31
 20
8654383.00
  0
VERTEX
  8
0ALV_ROD
 10
804281.44
 20
8654556.00
  0
VERTEX
  8
0ALV_ROD
 10
804128.50
 20
8654727.00
  0
VERTEX
  8
0ALV_ROD
 10
803975.63
 20
8654899.00
  0
VERTEX
  8
0ALV_ROD
 10
803798.13
 20
8655045.00
  0
VERTEX
  8
0ALV_ROD
 10
803496.94
 20
8655114.00
  0
VERTEX
  8
0ALV_ROD
 10
803431.00
 20
8655110.00
  0
SEQEND
  8
0ALV_ROD
  0
POLYLINE
  8
0ALV_ROD
 66
     1
  0
VERTEX
  8
0ALV_ROD
 10
768493.50
 20
8660914.00
  0
VERTEX
  8
0ALV_ROD
 10
768536.75
 20
8660379.00
  0
VERTEX
  8
0ALV_ROD
 10
767680.44
 20
8656666.00
  0
VERTEX
  8
0ALV_ROD
 10
767673.50
 20
8656616.00
  0
VERTEX
  8
0ALV_ROD
 10
767660.19
 20
8656553.00
  0
VERTEX
  8
0ALV_ROD
 10
767653.25
 20
8656503.00
  0
VERTEX
  8
0ALV_ROD
 10
767646.25
 20
8656446.00
  0
VERTEX
  8
0ALV_ROD
 10
767633.06
 20
8656396.00
  0
VERTEX
  8
0ALV_ROD
 10
767619.63
 20
8656327.00
  0
VERTEX
  8
0ALV_ROD
 10
767606.00
 20
8656246.00
  0
VERTEX
  8
0ALV_ROD
 10
767592.88
 20
8656196.00
  0
VERTEX
  8
0ALV_ROD
 10
767585.50
 20
8656114.00
  0
VERTEX
  8
0ALV_ROD
 10
767578.56
 20
8656064.00
  0
VERTEX
  8
0ALV_ROD
 10
767577.88
 20
8656014.00
  0
VERTEX
  8
0ALV_ROD
 10
767577.00
 20
8655951.00
  0
VERTEX
  8
0ALV_ROD
 10
767576.13
 20
8655882.00
  0
VERTEX
  8
0ALV_ROD
 10
767594.06
 20
8655825.00
  0
VERTEX
  8
0ALV_ROD
 10
766632.69
 20
8653570.00
  0
VERTEX
  8
0ALV_ROD
 10
756906.38
 20
8635108.00
  0
SEQEND
  8
0ALV_ROD
  0
POLYLINE
  8
0ALV_ROD
 66
     1
  0
VERTEX
  8
0ALV_ROD
 10
756906.38
 20
8635108.00
  0
VERTEX
  8
0ALV_ROD
 10
755996.56
 20
8633457.00
  0
VERTEX
  8
0ALV_ROD
 10
752433.63
 20
8631799.00
  0
SEQEND
  8
0ALV_ROD
  0
POLYLINE
  8
0ALV_ROD
 66
     1
  0
VERTEX
  8
0ALV_ROD
 10
750716.44
 20
8630999.00
  0
VERTEX
  8
0ALV_ROD
 10
749427.75
 20
8630399.00
  0
VERTEX
  8
0ALV_ROD
 10
749358.63
 20
8630369.00
  0
VERTEX
  8
0ALV_ROD
 10
749144.31
 20
8630227.00
  0
SEQEND
  8
0ALV_ROD
  0
POLYLINE
  8
0ALV_ROD
 66
     1
  0
VERTEX
  8
0ALV_ROD
 10
699148.81
 20
8658181.00
  0
VERTEX
  8
0ALV_ROD
 10
700546.94
 20
8652968.00
  0
VERTEX
  8
0ALV_ROD
 10
699944.00
 20
8641257.00
  0
VERTEX
  8
0ALV_ROD
 10
701276.56
 20
8636826.00
  0
VERTEX
  8
0ALV_ROD
 10
700841.50
 20
8634232.00
  0
VERTEX
  8
0ALV_ROD
 10
702659.38
 20
8630121.00
  0
SEQEND
  8
0ALV_ROD
  0
POLYLINE
  8
0ALV_ROD
 66
     1
  0
VERTEX
  8
0ALV_ROD
 10
749144.31
 20
8630227.00
  0
VERTEX
  8
0ALV_ROD
 10
749022.63
 20
8629968.00
  0
VERTEX
  8
0ALV_ROD
 10
748958.50
 20
8629905.00
  0
VERTEX
  8
0ALV_ROD
 10
748926.06
 20
8629842.00
  0
VERTEX
  8
0ALV_ROD
 10
748893.31
 20
8629747.00
  0
VERTEX
  8
0ALV_ROD
 10
748860.94
 20
8629683.00
  0
VERTEX
  8
0ALV_ROD
 10
748860.25
 20
8629620.00
  0
VERTEX
  8
0ALV_ROD
 10
748859.19
 20
8629524.00
  0
VERTEX
  8
0ALV_ROD
 10
748858.56
 20
8629460.00
  0
VERTEX
  8
0ALV_ROD
 10
748826.13
 20
8629397.00
  0
VERTEX
  8
0ALV_ROD
 10
748825.44
 20
8629333.00
  0
VERTEX
  8
0ALV_ROD
 10
748824.44
 20
8629238.00
  0
VERTEX
  8
0ALV_ROD
 10
748823.75
 20
8629174.00
  0
VERTEX
  8
0ALV_ROD
 10
748823.06
 20
8629110.00
  0
VERTEX
  8
0ALV_ROD
 10
748790.69
 20
8629047.00
  0
VERTEX
  8
0ALV_ROD
 10
748758.25
 20
8628983.00
  0
VERTEX
  8
0ALV_ROD
 10
748694.44
 20
8628952.00
  0
VERTEX
  8
0ALV_ROD
 10
748662.06
 20
8628889.00
  0
VERTEX
  8
0ALV_ROD
 10
748629.63
 20
8628826.00
  0
VERTEX
  8
0ALV_ROD
 10
748534.13
 20
8628795.00
  0
VERTEX
  8
0ALV_ROD
 10
748470.31
 20
8628764.00
  0
VERTEX
  8
0ALV_ROD
 10
748406.50
 20
8628732.00
  0
VERTEX
  8
0ALV_ROD
 10
748342.75
 20
8628701.00
  0
VERTEX
  8
0ALV_ROD
 10
748247.56
 20
8628702.00
  0
VERTEX
  8
0ALV_ROD
 10
748184.06
 20
8628703.00
  0
VERTEX
  8
0ALV_ROD
 10
747763.44
 20
8628844.00
  0
SEQEND
  8
0ALV_ROD
  0
POLYLINE
  8
0ALV_ROD
 66
     1
  0
VERTEX
  8
0ALV_ROD
 10
757844.38
 20
8626715.00
  0
VERTEX
  8
0ALV_ROD
 10
757836.06
 20
8626830.00
  0
VERTEX
  8
0ALV_ROD
 10
757778.56
 20
8627277.00
  0
VERTEX
  8
0ALV_ROD
 10
757699.81
 20
8627500.00
  0
VERTEX
  8
0ALV_ROD
 10
757618.19
 20
8627896.00
  0
VERTEX
  8
0ALV_ROD
 10
757539.44
 20
8628119.00
  0
VERTEX
  8
0ALV_ROD
 10
757458.63
 20
8628466.00
  0
VERTEX
  8
0ALV_ROD
 10
757379.88
 20
8628689.00
  0
VERTEX
  8
0ALV_ROD
 10
757347.38
 20
8629136.00
  0
VERTEX
  8
0ALV_ROD
 10
757292.81
 20
8629409.00
  0
VERTEX
  8
0ALV_ROD
 10
757234.94
 20
8629881.00
  0
VERTEX
  8
0ALV_ROD
 10
757152.81
 20
8630303.00
  0
VERTEX
  8
0ALV_ROD
 10
757071.19
 20
8630700.00
  0
VERTEX
  8
0ALV_ROD
 10
756989.50
 20
8631097.00
  0
VERTEX
  8
0ALV_ROD
 10
756960.38
 20
8631345.00
  0
VERTEX
  8
0ALV_ROD
 10
756955.38
 20
8631644.00
  0
VERTEX
  8
0ALV_ROD
 10
756952.06
 20
8631843.00
  0
VERTEX
  8
0ALV_ROD
 10
756970.38
 20
8632242.00
  0
VERTEX
  8
0ALV_ROD
 10
756992.06
 20
8632442.00
  0
VERTEX
  8
0ALV_ROD
 10
756986.63
 20
8632765.00
  0
VERTEX
  8
0ALV_ROD
 10
756982.88
 20
8632989.00
  0
VERTEX
  8
0ALV_ROD
 10
756980.38
 20
8633139.00
  0
VERTEX
  8
0ALV_ROD
 10
756906.38
 20
8635108.00
  0
SEQEND
  8
0ALV_ROD
  0
POLYLINE
  8
0ALV_ROD
 66
     1
  0
VERTEX
  8
0ALV_ROD
 10
621270.06
 20
8654037.00
  0
VERTEX
  8
0ALV_ROD
 10
621276.81
 20
8653962.00
  0
VERTEX
  8
0ALV_ROD
 10
621289.94
 20
8653862.00
  0
VERTEX
  8
0ALV_ROD
 10
621309.31
 20
8653755.00
  0
VERTEX
  8
0ALV_ROD
 10
621353.75
 20
8653636.00
  0
VERTEX
  8
0ALV_ROD
 10
621404.50
 20
8653511.00
  0
VERTEX
  8
0ALV_ROD
 10
621448.88
 20
8653399.00
  0
VERTEX
  8
0ALV_ROD
 10
621493.13
 20
8653305.00
  0
VERTEX
  8
0ALV_ROD
 10
621537.44
 20
8653199.00
  0
VERTEX
  8
0ALV_ROD
 10
621587.75
 20
8653143.00
  0
VERTEX
  8
0ALV_ROD
 10
621625.75
 20
8653049.00
  0
VERTEX
  8
0ALV_ROD
 10
621707.63
 20
8652930.00
  0
VERTEX
  8
0ALV_ROD
 10
621757.88
 20
8652874.00
  0
VERTEX
  8
0ALV_ROD
 10
621764.50
 20
8652811.00
  0
VERTEX
  8
0ALV_ROD
 10
621814.69
 20
8652768.00
  0
VERTEX
  8
0ALV_ROD
 10
621833.75
 20
8652718.00
  0
VERTEX
  8
0ALV_ROD
 10
621871.81
 20
8652612.00
  0
VERTEX
  8
0ALV_ROD
 10
621885.06
 20
8652499.00
  0
VERTEX
  8
0ALV_ROD
 10
621891.81
 20
8652411.00
  0
VERTEX
  8
0ALV_ROD
 10
621910.94
 20
8652355.00
  0
VERTEX
  8
0ALV_ROD
 10
621961.25
 20
8652286.00
  0
VERTEX
  8
0ALV_ROD
 10
622074.19
 20
8652187.00
  0
VERTEX
  8
0ALV_ROD
 10
622130.94
 20
8652087.00
  0
VERTEX
  8
0ALV_ROD
 10
622218.88
 20
8651993.00
  0
VERTEX
  8
0ALV_ROD
 10
622275.38
 20
8651943.00
  0
VERTEX
  8
0ALV_ROD
 10
622363.25
 20
8651856.00
  0
VERTEX
  8
0ALV_ROD
 10
622420.13
 20
8651744.00
  0
VERTEX
  8
0ALV_ROD
 10
622507.88
 20
8651675.00
  0
VERTEX
  8
0ALV_ROD
 10
622552.13
 20
8651582.00
  0
VERTEX
  8
0ALV_ROD
 10
622602.88
 20
8651450.00
  0
VERTEX
  8
0ALV_ROD
 10
622678.69
 20
8651300.00
  0
VERTEX
  8
0ALV_ROD
 10
622716.88
 20
8651182.00
  0
VERTEX
  8
0ALV_ROD
 10
622767.50
 20
8651075.00
  0
VERTEX
  8
0ALV_ROD
 10
622817.63
 20
8651038.00
  0
VERTEX
  8
0ALV_ROD
 10
622861.81
 20
8650963.00
  0
VERTEX
  8
0ALV_ROD
 10
622924.63
 20
8650895.00
  0
VERTEX
  8
0ALV_ROD
 10
623049.88
 20
8650814.00
  0
VERTEX
  8
0ALV_ROD
 10
623193.63
 20
8650771.00
  0
VERTEX
  8
0ALV_ROD
 10
623324.63
 20
8650772.00
  0
VERTEX
  8
0ALV_ROD
 10
623380.75
 20
8650779.00
  0
VERTEX
  8
0ALV_ROD
 10
623474.19
 20
8650798.00
  0
VERTEX
  8
0ALV_ROD
 10
623561.25
 20
8650843.00
  0
VERTEX
  8
0ALV_ROD
 10
623617.19
 20
8650869.00
  0
VERTEX
  8
0ALV_ROD
 10
623666.81
 20
8650919.00
  0
VERTEX
  8
0ALV_ROD
 10
623722.81
 20
8650938.00
  0
VERTEX
  8
0ALV_ROD
 10
623810.19
 20
8650933.00
  0
VERTEX
  8
0ALV_ROD
 10
623885.19
 20
8650915.00
  0
VERTEX
  8
0ALV_ROD
 10
623935.31
 20
8650877.00
  0
VERTEX
  8
0ALV_ROD
 10
624010.63
 20
8650803.00
  0
VERTEX
  8
0ALV_ROD
 10
624104.75
 20
8650722.00
  0
VERTEX
  8
0ALV_ROD
 10
624192.13
 20
8650710.00
  0
VERTEX
  8
0ALV_ROD
 10
624285.69
 20
8650711.00
  0
VERTEX
  8
0ALV_ROD
 10
624391.75
 20
8650712.00
  0
VERTEX
  8
0ALV_ROD
 10
624479.19
 20
8650693.00
  0
VERTEX
  8
0ALV_ROD
 10
624591.56
 20
8650682.00
  0
VERTEX
  8
0ALV_ROD
 10
624641.81
 20
8650632.00
  0
VERTEX
  8
0ALV_ROD
 10
624717.19
 20
8650551.00
  0
VERTEX
  8
0ALV_ROD
 10
624767.38
 20
8650507.00
  0
VERTEX
  8
0ALV_ROD
 10
624805.25
 20
8650432.00
  0
VERTEX
  8
0ALV_ROD
 10
624836.81
 20
8650376.00
  0
VERTEX
  8
0ALV_ROD
 10
624856.00
 20
8650301.00
  0
VERTEX
  8
0ALV_ROD
 10
624869.13
 20
8650195.00
  0
VERTEX
  8
0ALV_ROD
 10
624919.81
 20
8650076.00
  0
VERTEX
  8
0ALV_ROD
 10
624957.75
 20
8650001.00
  0
VERTEX
  8
0ALV_ROD
 10
624995.88
 20
8649888.00
  0
VERTEX
  8
0ALV_ROD
 10
625077.63
 20
8649788.00
  0
VERTEX
  8
0ALV_ROD
 10
625121.88
 20
8649695.00
  0
VERTEX
  8
0ALV_ROD
 10
625197.31
 20
8649601.00
  0
VERTEX
  8
0ALV_ROD
 10
625247.75
 20
8649520.00
  0
VERTEX
  8
0ALV_ROD
 10
625335.44
 20
8649471.00
  0
VERTEX
  8
0ALV_ROD
 10
625385.81
 20
8649389.00
  0
VERTEX
  8
0ALV_ROD
 10
625473.44
 20
8649352.00
  0
VERTEX
  8
0ALV_ROD
 10
625523.75
 20
8649284.00
  0
VERTEX
  8
0ALV_ROD
 10
625667.50
 20
8649241.00
  0
VERTEX
  8
0ALV_ROD
 10
625749.06
 20
8649173.00
  0
VERTEX
  8
0ALV_ROD
 10
625880.38
 20
8649117.00
  0
VERTEX
  8
0ALV_ROD
 10
625949.56
 20
8649030.00
  0
VERTEX
  8
0ALV_ROD
 10
626050.00
 20
8648937.00
  0
VERTEX
  8
0ALV_ROD
 10
626094.13
 20
8648862.00
  0
VERTEX
  8
0ALV_ROD
 10
626175.75
 20
8648781.00
  0
VERTEX
  8
0ALV_ROD
 10
626225.94
 20
8648737.00
  0
VERTEX
  8
0ALV_ROD
 10
626313.75
 20
8648663.00
  0
VERTEX
  8
0ALV_ROD
 10
626363.88
 20
8648625.00
  0
VERTEX
  8
0ALV_ROD
 10
626414.13
 20
8648576.00
  0
VERTEX
  8
0ALV_ROD
 10
626495.69
 20
8648501.00
  0
VERTEX
  8
0ALV_ROD
 10
626614.81
 20
8648408.00
  0
VERTEX
  8
0ALV_ROD
 10
626683.69
 20
8648371.00
  0
VERTEX
  8
0ALV_ROD
 10
626733.81
 20
8648333.00
  0
VERTEX
  8
0ALV_ROD
 10
626821.50
 20
8648278.00
  0
VERTEX
  8
0ALV_ROD
 10
626877.94
 20
8648234.00
  0
VERTEX
  8
0ALV_ROD
 10
626940.88
 20
8648147.00
  0
VERTEX
  8
0ALV_ROD
 10
627053.44
 20
8648098.00
  0
VERTEX
  8
0ALV_ROD
 10
627103.94
 20
8648010.00
  0
VERTEX
  8
0ALV_ROD
 10
627116.75
 20
8647960.00
  0
VERTEX
  8
0ALV_ROD
 10
627167.06
 20
8647891.00
  0
VERTEX
  8
0ALV_ROD
 10
627186.13
 20
8647841.00
  0
VERTEX
  8
0ALV_ROD
 10
627192.81
 20
8647766.00
  0
VERTEX
  8
0ALV_ROD
 10
627231.06
 20
8647641.00
  0
VERTEX
  8
0ALV_ROD
 10
627244.31
 20
8647516.00
  0
VERTEX
  8
0ALV_ROD
 10
627288.69
 20
8647409.00
  0
VERTEX
  8
0ALV_ROD
 10
627301.81
 20
8647309.00
  0
VERTEX
  8
0ALV_ROD
 10
627346.00
 20
8647222.00
  0
VERTEX
  8
0ALV_ROD
 10
627396.44
 20
8647140.00
  0
VERTEX
  8
0ALV_ROD
 10
627471.88
 20
8647053.00
  0
VERTEX
  8
0ALV_ROD
 10
627516.13
 20
8646966.00
  0
VERTEX
  8
0ALV_ROD
 10
627597.56
 20
8646910.00
  0
VERTEX
  8
0ALV_ROD
 10
627641.69
 20
8646835.00
  0
VERTEX
  8
0ALV_ROD
 10
627723.13
 20
8646785.00
  0
VERTEX
  8
0ALV_ROD
 10
627779.88
 20
8646692.00
  0
VERTEX
  8
0ALV_ROD
 10
627854.88
 20
8646667.00
  0
VERTEX
  8
0ALV_ROD
 10
627905.25
 20
8646592.00
  0
VERTEX
  8
0ALV_ROD
 10
627955.38
 20
8646555.00
  0
VERTEX
  8
0ALV_ROD
 10
628005.50
 20
8646524.00
  0
VERTEX
  8
0ALV_ROD
 10
628055.63
 20
8646487.00
  0
VERTEX
  8
0ALV_ROD
 10
628068.63
 20
8646412.00
  0
VERTEX
  8
0ALV_ROD
 10
628112.69
 20
8646349.00
  0
VERTEX
  8
0ALV_ROD
 10
628163.19
 20
8646256.00
  0
VERTEX
  8
0ALV_ROD
 10
628207.25
 20
8646187.00
  0
VERTEX
  8
0ALV_ROD
 10
628257.50
 20
8646137.00
  0
VERTEX
  8
0ALV_ROD
 10
628270.63
 20
8646037.00
  0
VERTEX
  8
0ALV_ROD
 10
628321.06
 20
8645949.00
  0
VERTEX
  8
0ALV_ROD
 10
628340.50
 20
8645843.00
  0
VERTEX
  8
0ALV_ROD
 10
628353.38
 20
8645780.00
  0
VERTEX
  8
0ALV_ROD
 10
628372.75
 20
8645674.00
  0
VERTEX
  8
0ALV_ROD
 10
628385.69
 20
8645599.00
  0
VERTEX
  8
0ALV_ROD
 10
628392.63
 20
8645492.00
  0
VERTEX
  8
0ALV_ROD
 10
628405.75
 20
8645385.00
  0
VERTEX
  8
0ALV_ROD
 10
628419.13
 20
8645254.00
  0
VERTEX
  8
0ALV_ROD
 10
628426.50
 20
8645066.00
  0
VERTEX
  8
0ALV_ROD
 10
628433.94
 20
8644884.00
  0
VERTEX
  8
0ALV_ROD
 10
628447.38
 20
8644733.00
  0
VERTEX
  8
0ALV_ROD
 10
628454.25
 20
8644639.00
  0
VERTEX
  8
0ALV_ROD
 10
628479.88
 20
8644527.00
  0
VERTEX
  8
0ALV_ROD
 10
628492.81
 20
8644451.00
  0
VERTEX
  8
0ALV_ROD
 10
628499.44
 20
8644395.00
  0
VERTEX
  8
0ALV_ROD
 10
628549.94
 20
8644308.00
  0
VERTEX
  8
0ALV_ROD
 10
628600.38
 20
8644214.00
  0
VERTEX
  8
0ALV_ROD
 10
628688.06
 20
8644171.00
  0
VERTEX
  8
0ALV_ROD
 10
628775.44
 20
8644159.00
  0
VERTEX
  8
0ALV_ROD
 10
628862.81
 20
8644153.00
  0
VERTEX
  8
0ALV_ROD
 10
628919.00
 20
8644147.00
  0
VERTEX
  8
0ALV_ROD
 10
629000.13
 20
8644135.00
  0
VERTEX
  8
0ALV_ROD
 10
629093.81
 20
8644124.00
  0
VERTEX
  8
0ALV_ROD
 10
629187.50
 20
8644112.00
  0
VERTEX
  8
0ALV_ROD
 10
629268.63
 20
8644100.00
  0
VERTEX
  8
0ALV_ROD
 10
629343.56
 20
8644088.00
  0
VERTEX
  8
0ALV_ROD
 10
629443.44
 20
8644082.00
  0
VERTEX
  8
0ALV_ROD
 10
629549.50
 20
8644077.00
  0
VERTEX
  8
0ALV_ROD
 10
629630.63
 20
8644071.00
  0
VERTEX
  8
0ALV_ROD
 10
629711.88
 20
8644047.00
  0
VERTEX
  8
0ALV_ROD
 10
629762.13
 20
8643997.00
  0
VERTEX
  8
0ALV_ROD
 10
629856.19
 20
8643923.00
  0
VERTEX
  8
0ALV_ROD
 10
629931.56
 20
8643835.00
  0
VERTEX
  8
0ALV_ROD
 10
630013.19
 20
8643754.00
  0
VERTEX
  8
0ALV_ROD
 10
630057.38
 20
8643673.00
  0
VERTEX
  8
0ALV_ROD
 10
630139.06
 20
8643586.00
  0
VERTEX
  8
0ALV_ROD
 10
630189.19
 20
8643542.00
  0
VERTEX
  8
0ALV_ROD
 10
630233.31
 20
8643480.00
  0
VERTEX
  8
0ALV_ROD
 10
630283.44
 20
8643437.00
  0
VERTEX
  8
0ALV_ROD
 10
630302.69
 20
8643355.00
  0
VERTEX
  8
0ALV_ROD
 10
630303.13
 20
8643292.00
  0
VERTEX
  8
0ALV_ROD
 10
630278.56
 20
8643229.00
  0
VERTEX
  8
0ALV_ROD
 10
630241.69
 20
8643141.00
  0
VERTEX
  8
0ALV_ROD
 10
630223.44
 20
8643072.00
  0
VERTEX
  8
0ALV_ROD
 10
630173.94
 20
8643003.00
  0
VERTEX
  8
0ALV_ROD
 10
630124.38
 20
8642946.00
  0
VERTEX
  8
0ALV_ROD
 10
630056.44
 20
8642845.00
  0
VERTEX
  8
0ALV_ROD
 10
630013.06
 20
8642795.00
  0
VERTEX
  8
0ALV_ROD
 10
629963.88
 20
8642681.00
  0
VERTEX
  8
0ALV_ROD
 10
629902.06
 20
8642593.00
  0
VERTEX
  8
0ALV_ROD
 10
629852.69
 20
8642511.00
  0
VERTEX
  8
0ALV_ROD
 10
629815.94
 20
8642410.00
  0
VERTEX
  8
0ALV_ROD
 10
629735.38
 20
8642322.00
  0
VERTEX
  8
0ALV_ROD
 10
629698.38
 20
8642253.00
  0
VERTEX
  8
0ALV_ROD
 10
629680.00
 20
8642202.00
  0
VERTEX
  8
0ALV_ROD
 10
629605.88
 20
8642089.00
  0
VERTEX
  8
0ALV_ROD
 10
629469.31
 20
8641981.00
  0
VERTEX
  8
0ALV_ROD
 10
629376.25
 20
8641905.00
  0
VERTEX
  8
0ALV_ROD
 10
629270.81
 20
8641804.00
  0
VERTEX
  8
0ALV_ROD
 10
629146.75
 20
8641690.00
  0
VERTEX
  8
0ALV_ROD
 10
629084.69
 20
8641646.00
  0
VERTEX
  8
0ALV_ROD
 10
629035.13
 20
8641595.00
  0
VERTEX
  8
0ALV_ROD
 10
628986.06
 20
8641463.00
  0
VERTEX
  8
0ALV_ROD
 10
628906.06
 20
8641287.00
  0
VERTEX
  8
0ALV_ROD
 10
628831.94
 20
8641173.00
  0
VERTEX
  8
0ALV_ROD
 10
628789.00
 20
8641060.00
  0
VERTEX
  8
0ALV_ROD
 10
628721.19
 20
8640934.00
  0
VERTEX
  8
0ALV_ROD
 10
628671.81
 20
8640852.00
  0
VERTEX
  8
0ALV_ROD
 10
628653.63
 20
8640770.00
  0
VERTEX
  8
0ALV_ROD
 10
628654.25
 20
8640664.00
  0
VERTEX
  8
0ALV_ROD
 10
628660.88
 20
8640607.00
  0
VERTEX
  8
0ALV_ROD
 10
628680.06
 20
8640532.00
  0
VERTEX
  8
0ALV_ROD
 10
628686.81
 20
8640457.00
  0
VERTEX
  8
0ALV_ROD
 10
628687.25
 20
8640388.00
  0
VERTEX
  8
0ALV_ROD
 10
628675.25
 20
8640306.00
  0
VERTEX
  8
0ALV_ROD
 10
628656.88
 20
8640256.00
  0
VERTEX
  8
0ALV_ROD
 10
628619.94
 20
8640180.00
  0
VERTEX
  8
0ALV_ROD
 10
628589.25
 20
8640099.00
  0
VERTEX
  8
0ALV_ROD
 10
628558.63
 20
8640010.00
  0
VERTEX
  8
0ALV_ROD
 10
628484.38
 20
8639922.00
  0
VERTEX
  8
0ALV_ROD
 10
628447.25
 20
8639872.00
  0
VERTEX
  8
0ALV_ROD
 10
628397.75
 20
8639802.00
  0
VERTEX
  8
0ALV_ROD
 10
628360.81
 20
8639733.00
  0
VERTEX
  8
0ALV_ROD
 10
628323.75
 20
8639676.00
  0
VERTEX
  8
0ALV_ROD
 10
628274.13
 20
8639626.00
  0
VERTEX
  8
0ALV_ROD
 10
628262.00
 20
8639575.00
  0
VERTEX
  8
0ALV_ROD
 10
628206.31
 20
8639500.00
  0
VERTEX
  8
0ALV_ROD
 10
628187.94
 20
8639449.00
  0
VERTEX
  8
0ALV_ROD
 10
628176.00
 20
8639361.00
  0
VERTEX
  8
0ALV_ROD
 10
628176.56
 20
8639280.00
  0
VERTEX
  8
0ALV_ROD
 10
628177.13
 20
8639192.00
  0
VERTEX
  8
0ALV_ROD
 10
628177.69
 20
8639104.00
  0
VERTEX
  8
0ALV_ROD
 10
628190.75
 20
8639004.00
  0
VERTEX
  8
0ALV_ROD
 10
628210.38
 20
8638866.00
  0
VERTEX
  8
0ALV_ROD
 10
628217.56
 20
8638722.00
  0
VERTEX
  8
0ALV_ROD
 10
628267.94
 20
8638647.00
  0
VERTEX
  8
0ALV_ROD
 10
628306.00
 20
8638541.00
  0
VERTEX
  8
0ALV_ROD
 10
628325.44
 20
8638428.00
  0
VERTEX
  8
0ALV_ROD
 10
628369.75
 20
8638334.00
  0
VERTEX
  8
0ALV_ROD
 10
628389.06
 20
8638240.00
  0
VERTEX
  8
0ALV_ROD
 10
628408.44
 20
8638134.00
  0
VERTEX
  8
0ALV_ROD
 10
628408.81
 20
8638071.00
  0
VERTEX
  8
0ALV_ROD
 10
628409.38
 20
8637983.00
  0
VERTEX
  8
0ALV_ROD
 10
628409.94
 20
8637901.00
  0
VERTEX
  8
0ALV_ROD
 10
628410.38
 20
8637833.00
  0
VERTEX
  8
0ALV_ROD
 10
628404.56
 20
8637763.00
  0
VERTEX
  8
0ALV_ROD
 10
628405.44
 20
8637632.00
  0
VERTEX
  8
0ALV_ROD
 10
628393.81
 20
8637487.00
  0
VERTEX
  8
0ALV_ROD
 10
628394.44
 20
8637393.00
  0
VERTEX
  8
0ALV_ROD
 10
628382.56
 20
8637305.00
  0
VERTEX
  8
0ALV_ROD
 10
628370.56
 20
8637224.00
  0
VERTEX
  8
0ALV_ROD
 10
628352.38
 20
8637142.00
  0
VERTEX
  8
0ALV_ROD
 10
628334.19
 20
8637060.00
  0
VERTEX
  8
0ALV_ROD
 10
628303.38
 20
8636997.00
  0
VERTEX
  8
0ALV_ROD
 10
628266.50
 20
8636915.00
  0
VERTEX
  8
0ALV_ROD
 10
628223.44
 20
8636821.00
  0
VERTEX
  8
0ALV_ROD
 10
628192.56
 20
8636771.00
  0
VERTEX
  8
0ALV_ROD
 10
628136.94
 20
8636695.00
  0
VERTEX
  8
0ALV_ROD
 10
628062.31
 20
8636650.00
  0
VERTEX
  8
0ALV_ROD
 10
627975.50
 20
8636574.00
  0
VERTEX
  8
0ALV_ROD
 10
627894.63
 20
8636536.00
  0
VERTEX
  8
0ALV_ROD
 10
627820.00
 20
8636498.00
  0
VERTEX
  8
0ALV_ROD
 10
627745.25
 20
8636479.00
  0
VERTEX
  8
0ALV_ROD
 10
627670.56
 20
8636459.00
  0
VERTEX
  8
0ALV_ROD
 10
627583.31
 20
8636446.00
  0
VERTEX
  8
0ALV_ROD
 10
627502.25
 20
8636439.00
  0
VERTEX
  8
0ALV_ROD
 10
627415.06
 20
8636413.00
  0
VERTEX
  8
0ALV_ROD
 10
627340.25
 20
8636400.00
  0
VERTEX
  8
0ALV_ROD
 10
627271.69
 20
8636393.00
  0
VERTEX
  8
0ALV_ROD
 10
627184.56
 20
8636368.00
  0
VERTEX
  8
0ALV_ROD
 10
627103.56
 20
8636348.00
  0
VERTEX
  8
0ALV_ROD
 10
626991.38
 20
8636328.00
  0
VERTEX
  8
0ALV_ROD
 10
626879.19
 20
8636315.00
  0
VERTEX
  8
0ALV_ROD
 10
626761.00
 20
8636270.00
  0
VERTEX
  8
0ALV_ROD
 10
626655.13
 20
8636232.00
  0
VERTEX
  8
0ALV_ROD
 10
626530.88
 20
8636155.00
  0
VERTEX
  8
0ALV_ROD
 10
626443.88
 20
8636105.00
  0
VERTEX
  8
0ALV_ROD
 10
626388.31
 20
8636010.00
  0
VERTEX
  8
0ALV_ROD
 10
626295.31
 20
8635921.00
  0
VERTEX
  8
0ALV_ROD
 10
626233.50
 20
8635839.00
  0
VERTEX
  8
0ALV_ROD
 10
626159.13
 20
8635757.00
  0
VERTEX
  8
0ALV_ROD
 10
626147.00
 20
8635707.00
  0
VERTEX
  8
0ALV_ROD
 10
626110.06
 20
8635631.00
  0
VERTEX
  8
0ALV_ROD
 10
626072.94
 20
8635581.00
  0
VERTEX
  8
0ALV_ROD
 10
626042.38
 20
8635480.00
  0
VERTEX
  8
0ALV_ROD
 10
625999.00
 20
8635430.00
  0
VERTEX
  8
0ALV_ROD
 10
625987.06
 20
8635348.00
  0
VERTEX
  8
0ALV_ROD
 10
625950.13
 20
8635273.00
  0
VERTEX
  8
0ALV_ROD
 10
625901.19
 20
8635122.00
  0
VERTEX
  8
0ALV_ROD
 10
625852.06
 20
8634996.00
  0
VERTEX
  8
0ALV_ROD
 10
625809.19
 20
8634870.00
  0
VERTEX
  8
0ALV_ROD
 10
625759.94
 20
8634776.00
  0
VERTEX
  8
0ALV_ROD
 10
625710.56
 20
8634694.00
  0
VERTEX
  8
0ALV_ROD
 10
625661.31
 20
8634587.00
  0
VERTEX
  8
0ALV_ROD
 10
625587.13
 20
8634486.00
  0
VERTEX
  8
0ALV_ROD
 10
625550.00
 20
8634435.00
  0
VERTEX
  8
0ALV_ROD
 10
625500.56
 20
8634360.00
  0
VERTEX
  8
0ALV_ROD
 10
625419.88
 20
8634290.00
  0
VERTEX
  8
0ALV_ROD
 10
625333.00
 20
8634220.00
  0
VERTEX
  8
0ALV_ROD
 10
625283.44
 20
8634170.00
  0
VERTEX
  8
0ALV_ROD
 10
625190.38
 20
8634094.00
  0
VERTEX
  8
0ALV_ROD
 10
625122.25
 20
8634012.00
  0
VERTEX
  8
0ALV_ROD
 10
625029.19
 20
8633936.00
  0
VERTEX
  8
0ALV_ROD
 10
624973.75
 20
8633822.00
  0
VERTEX
  8
0ALV_ROD
 10
624905.75
 20
8633721.00
  0
VERTEX
  8
0ALV_ROD
 10
624856.38
 20
8633646.00
  0
VERTEX
  8
0ALV_ROD
 10
624782.13
 20
8633551.00
  0
VERTEX
  8
0ALV_ROD
 10
624739.06
 20
8633450.00
  0
VERTEX
  8
0ALV_ROD
 10
624671.00
 20
8633362.00
  0
VERTEX
  8
0ALV_ROD
 10
624627.75
 20
8633305.00
  0
VERTEX
  8
0ALV_ROD
 10
624553.50
 20
8633198.00
  0
VERTEX
  8
0ALV_ROD
 10
624547.88
 20
8633110.00
  0
VERTEX
  8
0ALV_ROD
 10
624548.44
 20
8633016.00
  0
VERTEX
  8
0ALV_ROD
 10
624555.44
 20
8632897.00
  0
VERTEX
  8
0ALV_ROD
 10
624555.81
 20
8632840.00
  0
VERTEX
  8
0ALV_ROD
 10
624556.44
 20
8632740.00
  0
VERTEX
  8
0ALV_ROD
 10
624557.44
 20
8632589.00
  0
VERTEX
  8
0ALV_ROD
 10
624558.13
 20
8632477.00
  0
VERTEX
  8
0ALV_ROD
 10
624558.94
 20
8632351.00
  0
VERTEX
  8
0ALV_ROD
 10
624559.81
 20
8632219.00
  0
VERTEX
  8
0ALV_ROD
 10
624547.88
 20
8632131.00
  0
VERTEX
  8
0ALV_ROD
 10
624529.69
 20
8632050.00
  0
VERTEX
  8
0ALV_ROD
 10
624492.56
 20
8631999.00
  0
VERTEX
  8
0ALV_ROD
 10
624455.69
 20
8631917.00
  0
VERTEX
  8
0ALV_ROD
 10
624362.63
 20
8631835.00
  0
VERTEX
  8
0ALV_ROD
 10
624275.88
 20
8631740.00
  0
VERTEX
  8
0ALV_ROD
 10
624232.56
 20
8631690.00
  0
VERTEX
  8
0ALV_ROD
 10
624151.75
 20
8631639.00
  0
VERTEX
  8
0ALV_ROD
 10
624102.38
 20
8631557.00
  0
VERTEX
  8
0ALV_ROD
 10
624015.38
 20
8631506.00
  0
VERTEX
  8
0ALV_ROD
 10
623966.13
 20
8631405.00
  0
VERTEX
  8
0ALV_ROD
 10
623886.00
 20
8631254.00
  0
VERTEX
  8
0ALV_ROD
 10
623805.88
 20
8631103.00
  0
VERTEX
  8
0ALV_ROD
 10
623725.63
 20
8630964.00
  0
VERTEX
  8
0ALV_ROD
 10
623689.00
 20
8630845.00
  0
VERTEX
  8
0ALV_ROD
 10
623645.69
 20
8630788.00
  0
VERTEX
  8
0ALV_ROD
 10
623627.50
 20
8630700.00
  0
VERTEX
  8
0ALV_ROD
 10
623609.50
 20
8630593.00
  0
VERTEX
  8
0ALV_ROD
 10
623591.25
 20
8630518.00
  0
VERTEX
  8
0ALV_ROD
 10
623573.06
 20
8630430.00
  0
VERTEX
  8
0ALV_ROD
 10
623548.81
 20
8630329.00
  0
VERTEX
  8
0ALV_ROD
 10
623536.69
 20
8630273.00
  0
VERTEX
  8
0ALV_ROD
 10
623494.06
 20
8630103.00
  0
VERTEX
  8
0ALV_ROD
 10
623451.44
 20
8629946.00
  0
VERTEX
  8
0ALV_ROD
 10
623414.50
 20
8629864.00
  0
VERTEX
  8
0ALV_ROD
 10
623309.06
 20
8629769.00
  0
VERTEX
  8
0ALV_ROD
 10
623209.56
 20
8629725.00
  0
VERTEX
  8
0ALV_ROD
 10
623103.75
 20
8629680.00
  0
VERTEX
  8
0ALV_ROD
 10
622991.88
 20
8629623.00
  0
VERTEX
  8
0ALV_ROD
 10
622904.75
 20
8629584.00
  0
VERTEX
  8
0ALV_ROD
 10
622842.44
 20
8629571.00
  0
VERTEX
  8
0ALV_ROD
 10
622793.06
 20
8629496.00
  0
VERTEX
  8
0ALV_ROD
 10
622724.75
 20
8629445.00
  0
VERTEX
  8
0ALV_ROD
 10
622687.63
 20
8629394.00
  0
VERTEX
  8
0ALV_ROD
 10
622650.81
 20
8629300.00
  0
VERTEX
  8
0ALV_ROD
 10
622613.88
 20
8629224.00
  0
VERTEX
  8
0ALV_ROD
 10
622595.69
 20
8629136.00
  0
VERTEX
  8
0ALV_ROD
 10
622559.31
 20
8628973.00
  0
VERTEX
  8
0ALV_ROD
 10
622516.75
 20
8628803.00
  0
VERTEX
  8
0ALV_ROD
 10
622480.25
 20
8628659.00
  0
VERTEX
  8
0ALV_ROD
 10
622425.00
 20
8628520.00
  0
VERTEX
  8
0ALV_ROD
 10
622326.13
 20
8628375.00
  0
VERTEX
  8
0ALV_ROD
 10
622220.44
 20
8628312.00
  0
VERTEX
  8
0ALV_ROD
 10
622152.31
 20
8628236.00
  0
VERTEX
  8
0ALV_ROD
 10
622021.56
 20
8628197.00
  0
VERTEX
  8
0ALV_ROD
 10
621921.94
 20
8628165.00
  0
VERTEX
  8
0ALV_ROD
 10
621841.06
 20
8628133.00
  0
VERTEX
  8
0ALV_ROD
 10
621741.38
 20
8628113.00
  0
VERTEX
  8
0ALV_ROD
 10
621623.13
 20
8628069.00
  0
VERTEX
  8
0ALV_ROD
 10
621536.13
 20
8628018.00
  0
VERTEX
  8
0ALV_ROD
 10
621467.56
 20
8628005.00
  0
VERTEX
  8
0ALV_ROD
 10
621393.06
 20
8627954.00
  0
VERTEX
  8
0ALV_ROD
 10
621299.69
 20
8627922.00
  0
VERTEX
  8
0ALV_ROD
 10
621231.31
 20
8627877.00
  0
VERTEX
  8
0ALV_ROD
 10
621144.31
 20
8627833.00
  0
VERTEX
  8
0ALV_ROD
 10
621069.94
 20
8627757.00
  0
VERTEX
  8
0ALV_ROD
 10
620995.31
 20
8627719.00
  0
VERTEX
  8
0ALV_ROD
 10
620945.88
 20
8627643.00
  0
VERTEX
  8
0ALV_ROD
 10
620859.38
 20
8627517.00
  0
VERTEX
  8
0ALV_ROD
 10
620803.56
 20
8627460.00
  0
VERTEX
  8
0ALV_ROD
 10
620710.81
 20
8627334.00
  0
VERTEX
  8
0ALV_ROD
 10
620655.38
 20
8627220.00
  0
VERTEX
  8
0ALV_ROD
 10
620618.38
 20
8627151.00
  0
VERTEX
  8
0ALV_ROD
 10
620550.50
 20
8627038.00
  0
VERTEX
  8
0ALV_ROD
 10
620513.56
 20
8626956.00
  0
VERTEX
  8
0ALV_ROD
 10
620501.75
 20
8626855.00
  0
VERTEX
  8
0ALV_ROD
 10
620458.56
 20
8626780.00
  0
VERTEX
  8
0ALV_ROD
 10
620440.38
 20
8626698.00
  0
VERTEX
  8
0ALV_ROD
 10
620422.13
 20
8626629.00
  0
VERTEX
  8
0ALV_ROD
 10
620404.06
 20
8626522.00
  0
VERTEX
  8
0ALV_ROD
 10
620391.94
 20
8626466.00
  0
VERTEX
  8
0ALV_ROD
 10
620380.06
 20
8626378.00
  0
VERTEX
  8
0ALV_ROD
 10
620368.06
 20
8626296.00
  0
VERTEX
  8
0ALV_ROD
 10
620356.44
 20
8626164.00
  0
VERTEX
  8
0ALV_ROD
 10
620338.69
 20
8626020.00
  0
VERTEX
  8
0ALV_ROD
 10
620320.69
 20
8625907.00
  0
VERTEX
  8
0ALV_ROD
 10
620302.56
 20
8625813.00
  0
VERTEX
  8
0ALV_ROD
 10
620297.19
 20
8625674.00
  0
VERTEX
  8
0ALV_ROD
 10
620260.69
 20
8625536.00
  0
VERTEX
  8
0ALV_ROD
 10
620211.38
 20
8625435.00
  0
VERTEX
  8
0ALV_ROD
 10
620168.19
 20
8625360.00
  0
VERTEX
  8
0ALV_ROD
 10
620118.81
 20
8625278.00
  0
VERTEX
  8
0ALV_ROD
 10
620044.50
 20
8625196.00
  0
SEQEND
  8
0ALV_ROD
  0
POLYLINE
  8
0ALV_ROD
 66
     1
  0
VERTEX
  8
0ALV_ROD
 10
702659.38
 20
8630121.00
  0
VERTEX
  8
0ALV_ROD
 10
703283.25
 20
8628780.00
  0
VERTEX
  8
0ALV_ROD
 10
704121.31
 20
8624581.00
  0
SEQEND
  8
0ALV_ROD
  0
POLYLINE
  8
0ALV_ROD
 66
     1
  0
VERTEX
  8
0ALV_ROD
 10
704289.06
 20
8623002.00
  0
VERTEX
  8
0ALV_ROD
 10
704539.06
 20
8621566.00
  0
VERTEX
  8
0ALV_ROD
 10
704506.69
 20
8621503.00
  0
VERTEX
  8
0ALV_ROD
 10
704506.00
 20
8621439.00
  0
VERTEX
  8
0ALV_ROD
 10
704473.56
 20
8621376.00
  0
VERTEX
  8
0ALV_ROD
 10
704472.88
 20
8621312.00
  0
VERTEX
  8
0ALV_ROD
 10
704472.25
 20
8621248.00
  0
VERTEX
  8
0ALV_ROD
 10
704439.81
 20
8621185.00
  0
VERTEX
  8
0ALV_ROD
 10
704439.13
 20
8621121.00
  0
VERTEX
  8
0ALV_ROD
 10
704406.75
 20
8621058.00
  0
VERTEX
  8
0ALV_ROD
 10
704406.06
 20
8620994.00
  0
VERTEX
  8
0ALV_ROD
 10
704405.38
 20
8620930.00
  0
VERTEX
  8
0ALV_ROD
 10
704404.69
 20
8620867.00
  0
VERTEX
  8
0ALV_ROD
 10
704372.31
 20
8620803.00
  0
VERTEX
  8
0ALV_ROD
 10
704371.63
 20
8620739.00
  0
VERTEX
  8
0ALV_ROD
 10
704370.94
 20
8620676.00
  0
VERTEX
  8
0ALV_ROD
 10
704370.25
 20
8620612.00
  0
VERTEX
  8
0ALV_ROD
 10
704369.19
 20
8620516.00
  0
VERTEX
  8
0ALV_ROD
 10
704432.69
 20
8620516.00
  0
VERTEX
  8
0ALV_ROD
 10
704432.00
 20
8620452.00
  0
VERTEX
  8
0ALV_ROD
 10
704431.00
 20
8620356.00
  0
VERTEX
  8
0ALV_ROD
 10
704430.31
 20
8620293.00
  0
VERTEX
  8
0ALV_ROD
 10
704493.06
 20
8620228.00
  0
VERTEX
  8
0ALV_ROD
 10
704492.38
 20
8620165.00
  0
VERTEX
  8
0ALV_ROD
 10
704491.69
 20
8620101.00
  0
VERTEX
  8
0ALV_ROD
 10
704490.69
 20
8620005.00
  0
SEQEND
  8
0ALV_ROD
  0
LINE
  8
0ALV_ROD
 10
706987.75
 20
8619089.00
 11
704490.69
 21
8620005.00
  0
POLYLINE
  8
0ALV_ROD
 66
     1
  0
VERTEX
  8
0ALV_ROD
 10
703945.19
 20
8619438.00
  0
VERTEX
  8
0ALV_ROD
 10
703722.44
 20
8619377.00
  0
VERTEX
  8
0ALV_ROD
 10
703690.00
 20
8619313.00
  0
VERTEX
  8
0ALV_ROD
 10
703625.88
 20
8619250.00
  0
VERTEX
  8
0ALV_ROD
 10
703562.06
 20
8619219.00
  0
VERTEX
  8
0ALV_ROD
 10
703498.25
 20
8619188.00
  0
VERTEX
  8
0ALV_ROD
 10
703465.88
 20
8619125.00
  0
VERTEX
  8
0ALV_ROD
 10
703465.19
 20
8619061.00
  0
VERTEX
  8
0ALV_ROD
 10
703432.75
 20
8618997.00
  0
VERTEX
  8
0ALV_ROD
 10
703400.38
 20
8618934.00
  0
VERTEX
  8
0ALV_ROD
 10
703367.94
 20
8618871.00
  0
VERTEX
  8
0ALV_ROD
 10
703335.56
 20
8618807.00
  0
VERTEX
  8
0ALV_ROD
 10
703334.88
 20
8618744.00
  0
VERTEX
  8
0ALV_ROD
 10
703302.44
 20
8618680.00
  0
VERTEX
  8
0ALV_ROD
 10
703301.44
 20
8618585.00
  0
VERTEX
  8
0ALV_ROD
 10
703269.06
 20
8618521.00
  0
VERTEX
  8
0ALV_ROD
 10
703236.63
 20
8618458.00
  0
VERTEX
  8
0ALV_ROD
 10
703204.19
 20
8618395.00
  0
VERTEX
  8
0ALV_ROD
 10
703140.44
 20
8618363.00
  0
VERTEX
  8
0ALV_ROD
 10
703076.63
 20
8618332.00
  0
VERTEX
  8
0ALV_ROD
 10
703013.19
 20
8618333.00
  0
VERTEX
  8
0ALV_ROD
 10
702950.06
 20
8618366.00
  0
VERTEX
  8
0ALV_ROD
 10
702886.56
 20
8618366.00
  0
VERTEX
  8
0ALV_ROD
 10
702823.13
 20
8618367.00
  0
VERTEX
  8
0ALV_ROD
 10
702760.00
 20
8618399.00
  0
VERTEX
  8
0ALV_ROD
 10
702665.19
 20
8618432.00
  0
VERTEX
  8
0ALV_ROD
 10
702602.06
 20
8618465.00
  0
VERTEX
  8
0ALV_ROD
 10
702538.94
 20
8618497.00
  0
VERTEX
  8
0ALV_ROD
 10
702475.50
 20
8618498.00
  0
VERTEX
  8
0ALV_ROD
 10
702411.69
 20
8618467.00
  0
VERTEX
  8
0ALV_ROD
 10
702379.25
 20
8618404.00
  0
VERTEX
  8
0ALV_ROD
 10
702346.88
 20
8618340.00
  0
VERTEX
  8
0ALV_ROD
 10
702346.19
 20
8618277.00
  0
VERTEX
  8
0ALV_ROD
 10
702345.13
 20
8618181.00
  0
VERTEX
  8
0ALV_ROD
 10
702312.38
 20
8618086.00
  0
VERTEX
  8
0ALV_ROD
 10
702280.00
 20
8618022.00
  0
VERTEX
  8
0ALV_ROD
 10
702261.13
 20
8618004.00
  0
SEQEND
  8
0ALV_ROD
  0
POLYLINE
  8
0ALV_ROD
 66
     1
  0
VERTEX
  8
0ALV_ROD
 10
746103.38
 20
8629398.00
  0
VERTEX
  8
0ALV_ROD
 10
744832.38
 20
8629823.00
  0
VERTEX
  8
0ALV_ROD
 10
739468.81
 20
8629754.00
  0
VERTEX
  8
0ALV_ROD
 10
739436.44
 20
8629691.00
  0
VERTEX
  8
0ALV_ROD
 10
739340.88
 20
8629660.00
  0
VERTEX
  8
0ALV_ROD
 10
739277.13
 20
8629629.00
  0
VERTEX
  8
0ALV_ROD
 10
739181.25
 20
8629566.00
  0
VERTEX
  8
0ALV_ROD
 10
739117.75
 20
8629567.00
  0
VERTEX
  8
0ALV_ROD
 10
739054.00
 20
8629536.00
  0
VERTEX
  8
0ALV_ROD
 10
738990.50
 20
8629536.00
  0
VERTEX
  8
0ALV_ROD
 10
738926.38
 20
8629473.00
  0
VERTEX
  8
0ALV_ROD
 10
738862.88
 20
8629474.00
  0
VERTEX
  8
0ALV_ROD
 10
738799.13
 20
8629443.00
  0
VERTEX
  8
0ALV_ROD
 10
738735.69
 20
8629444.00
  0
VERTEX
  8
0ALV_ROD
 10
738639.81
 20
8629381.00
  0
VERTEX
  8
0ALV_ROD
 10
738543.94
 20
8629318.00
  0
VERTEX
  8
0ALV_ROD
 10
738480.13
 20
8629287.00
  0
VERTEX
  8
0ALV_ROD
 10
738416.69
 20
8629288.00
  0
VERTEX
  8
0ALV_ROD
 10
738352.88
 20
8629257.00
  0
VERTEX
  8
0ALV_ROD
 10
738289.06
 20
8629225.00
  0
VERTEX
  8
0ALV_ROD
 10
738193.56
 20
8629195.00
  0
VERTEX
  8
0ALV_ROD
 10
738130.13
 20
8629195.00
  0
VERTEX
  8
0ALV_ROD
 10
738034.56
 20
8629164.00
  0
VERTEX
  8
0ALV_ROD
 10
737939.38
 20
8629166.00
  0
VERTEX
  8
0ALV_ROD
 10
737843.88
 20
8629135.00
  0
VERTEX
  8
0ALV_ROD
 10
737748.69
 20
8629136.00
  0
VERTEX
  8
0ALV_ROD
 10
737684.88
 20
8629105.00
  0
VERTEX
  8
0ALV_ROD
 10
737621.44
 20
8629105.00
  0
VERTEX
  8
0ALV_ROD
 10
737557.25
 20
8629042.00
  0
VERTEX
  8
0ALV_ROD
 10
737493.81
 20
8629043.00
  0
VERTEX
  8
0ALV_ROD
 10
737430.00
 20
8629012.00
  0
VERTEX
  8
0ALV_ROD
 10
737366.25
 20
8628981.00
  0
VERTEX
  8
0ALV_ROD
 10
737302.44
 20
8628949.00
  0
VERTEX
  8
0ALV_ROD
 10
737238.94
 20
8628950.00
  0
VERTEX
  8
0ALV_ROD
 10
737175.19
 20
8628919.00
  0
VERTEX
  8
0ALV_ROD
 10
737111.38
 20
8628888.00
  0
VERTEX
  8
0ALV_ROD
 10
737047.94
 20
8628889.00
  0
VERTEX
  8
0ALV_ROD
 10
737015.50
 20
8628825.00
  0
VERTEX
  8
0ALV_ROD
 10
736920.00
 20
8628794.00
  0
VERTEX
  8
0ALV_ROD
 10
736855.81
 20
8628731.00
  0
VERTEX
  8
0ALV_ROD
 10
736760.31
 20
8628701.00
  0
VERTEX
  8
0ALV_ROD
 10
736727.88
 20
8628637.00
  0
VERTEX
  8
0ALV_ROD
 10
736664.44
 20
8628638.00
  0
VERTEX
  8
0ALV_ROD
 10
736568.94
 20
8628607.00
  0
VERTEX
  8
0ALV_ROD
 10
736568.25
 20
8628543.00
  0
VERTEX
  8
0ALV_ROD
 10
736472.38
 20
8628481.00
  0
VERTEX
  8
0ALV_ROD
 10
736408.56
 20
8628450.00
  0
VERTEX
  8
0ALV_ROD
 10
736344.75
 20
8628418.00
  0
VERTEX
  8
0ALV_ROD
 10
736281.00
 20
8628387.00
  0
VERTEX
  8
0ALV_ROD
 10
736248.56
 20
8628324.00
  0
VERTEX
  8
0ALV_ROD
 10
736184.44
 20
8628261.00
  0
VERTEX
  8
0ALV_ROD
 10
736120.31
 20
8628198.00
  0
VERTEX
  8
0ALV_ROD
 10
736056.50
 20
8628167.00
  0
VERTEX
  8
0ALV_ROD
 10
735992.38
 20
8628104.00
  0
VERTEX
  8
0ALV_ROD
 10
735991.69
 20
8628040.00
  0
VERTEX
  8
0ALV_ROD
 10
735928.25
 20
8628041.00
  0
VERTEX
  8
0ALV_ROD
 10
735895.81
 20
8627977.00
  0
VERTEX
  8
0ALV_ROD
 10
735863.44
 20
8627914.00
  0
VERTEX
  8
0ALV_ROD
 10
735799.94
 20
8627915.00
  0
VERTEX
  8
0ALV_ROD
 10
735799.25
 20
8627851.00
  0
VERTEX
  8
0ALV_ROD
 10
735703.75
 20
8627820.00
  0
VERTEX
  8
0ALV_ROD
 10
735671.31
 20
8627757.00
  0
VERTEX
  8
0ALV_ROD
 10
735607.56
 20
8627725.00
  0
VERTEX
  8
0ALV_ROD
 10
735543.75
 20
8627694.00
  0
VERTEX
  8
0ALV_ROD
 10
735479.94
 20
8627663.00
  0
VERTEX
  8
0ALV_ROD
 10
735416.13
 20
8627632.00
  0
VERTEX
  8
0ALV_ROD
 10
735352.38
 20
8627601.00
  0
VERTEX
  8
0ALV_ROD
 10
735288.56
 20
8627570.00
  0
VERTEX
  8
0ALV_ROD
 10
735224.75
 20
8627539.00
  0
VERTEX
  8
0ALV_ROD
 10
735160.94
 20
8627507.00
  0
VERTEX
  8
0ALV_ROD
 10
735097.50
 20
8627508.00
  0
VERTEX
  8
0ALV_ROD
 10
735065.06
 20
8627445.00
  0
VERTEX
  8
0ALV_ROD
 10
735001.63
 20
8627445.00
  0
VERTEX
  8
0ALV_ROD
 10
734937.50
 20
8627382.00
  0
VERTEX
  8
0ALV_ROD
 10
734874.06
 20
8627383.00
  0
VERTEX
  8
0ALV_ROD
 10
734809.94
 20
8627320.00
  0
VERTEX
  8
0ALV_ROD
 10
734746.06
 20
8627289.00
  0
VERTEX
  8
0ALV_ROD
 10
734681.94
 20
8627226.00
  0
VERTEX
  8
0ALV_ROD
 10
734618.19
 20
8627195.00
  0
VERTEX
  8
0ALV_ROD
 10
734522.31
 20
8627132.00
  0
VERTEX
  8
0ALV_ROD
 10
734489.88
 20
8627069.00
  0
VERTEX
  8
0ALV_ROD
 10
734426.06
 20
8627037.00
  0
VERTEX
  8
0ALV_ROD
 10
734393.69
 20
8626974.00
  0
VERTEX
  8
0ALV_ROD
 10
734329.88
 20
8626943.00
  0
VERTEX
  8
0ALV_ROD
 10
734297.50
 20
8626880.00
  0
VERTEX
  8
0ALV_ROD
 10
734233.31
 20
8626817.00
  0
VERTEX
  8
0ALV_ROD
 10
734137.50
 20
8626754.00
  0
VERTEX
  8
0ALV_ROD
 10
734136.81
 20
8626690.00
  0
VERTEX
  8
0ALV_ROD
 10
734041.25
 20
8626659.00
  0
VERTEX
  8
0ALV_ROD
 10
734008.88
 20
8626596.00
  0
VERTEX
  8
0ALV_ROD
 10
733976.44
 20
8626533.00
  0
VERTEX
  8
0ALV_ROD
 10
733880.56
 20
8626470.00
  0
VERTEX
  8
0ALV_ROD
 10
733816.44
 20
8626407.00
  0
VERTEX
  8
0ALV_ROD
 10
733752.31
 20
8626344.00
  0
VERTEX
  8
0ALV_ROD
 10
733688.19
 20
8626281.00
  0
VERTEX
  8
0ALV_ROD
 10
733655.75
 20
8626218.00
  0
VERTEX
  8
0ALV_ROD
 10
733591.63
 20
8626155.00
  0
VERTEX
  8
0ALV_ROD
 10
733559.25
 20
8626091.00
  0
VERTEX
  8
0ALV_ROD
 10
733463.00
 20
8625997.00
  0
VERTEX
  8
0ALV_ROD
 10
733398.88
 20
8625934.00
  0
VERTEX
  8
0ALV_ROD
 10
733366.50
 20
8625870.00
  0
VERTEX
  8
0ALV_ROD
 10
733303.00
 20
8625871.00
  0
VERTEX
  8
0ALV_ROD
 10
733238.88
 20
8625808.00
  0
VERTEX
  8
0ALV_ROD
 10
733175.06
 20
8625777.00
  0
VERTEX
  8
0ALV_ROD
 10
733111.63
 20
8625777.00
  0
VERTEX
  8
0ALV_ROD
 10
727082.69
 20
8619854.00
  0
VERTEX
  8
0ALV_ROD
 10
718586.25
 20
8617621.00
  0
VERTEX
  8
0ALV_ROD
 10
718522.81
 20
8617622.00
  0
VERTEX
  8
0ALV_ROD
 10
718459.38
 20
8617622.00
  0
VERTEX
  8
0ALV_ROD
 10
718395.88
 20
8617623.00
  0
VERTEX
  8
0ALV_ROD
 10
718332.44
 20
8617624.00
  0
VERTEX
  8
0ALV_ROD
 10
718237.63
 20
8617657.00
  0
VERTEX
  8
0ALV_ROD
 10
718142.75
 20
8617690.00
  0
VERTEX
  8
0ALV_ROD
 10
718079.63
 20
8617722.00
  0
VERTEX
  8
0ALV_ROD
 10
717984.75
 20
8617755.00
  0
VERTEX
  8
0ALV_ROD
 10
717890.25
 20
8617820.00
  0
VERTEX
  8
0ALV_ROD
 10
717826.81
 20
8617820.00
  0
VERTEX
  8
0ALV_ROD
 10
717763.69
 20
8617853.00
  0
VERTEX
  8
0ALV_ROD
 10
717668.88
 20
8617886.00
  0
VERTEX
  8
0ALV_ROD
 10
717605.06
 20
8617855.00
  0
VERTEX
  8
0ALV_ROD
 10
717541.63
 20
8617855.00
  0
VERTEX
  8
0ALV_ROD
 10
717446.06
 20
8617825.00
  0
VERTEX
  8
0ALV_ROD
 10
717350.56
 20
8617794.00
  0
VERTEX
  8
0ALV_ROD
 10
717287.06
 20
8617794.00
  0
VERTEX
  8
0ALV_ROD
 10
717223.31
 20
8617763.00
  0
VERTEX
  8
0ALV_ROD
 10
717127.75
 20
8617733.00
  0
VERTEX
  8
0ALV_ROD
 10
717032.25
 20
8617702.00
  0
VERTEX
  8
0ALV_ROD
 10
716937.06
 20
8617703.00
  0
VERTEX
  8
0ALV_ROD
 10
716841.88
 20
8617704.00
  0
VERTEX
  8
0ALV_ROD
 10
716778.38
 20
8617704.00
  0
VERTEX
  8
0ALV_ROD
 10
716714.94
 20
8617705.00
  0
VERTEX
  8
0ALV_ROD
 10
716619.75
 20
8617706.00
  0
VERTEX
  8
0ALV_ROD
 10
716524.56
 20
8617707.00
  0
VERTEX
  8
0ALV_ROD
 10
716461.13
 20
8617708.00
  0
VERTEX
  8
0ALV_ROD
 10
716397.69
 20
8617709.00
  0
VERTEX
  8
0ALV_ROD
 10
716334.19
 20
8617709.00
  0
VERTEX
  8
0ALV_ROD
 10
716270.75
 20
8617710.00
  0
VERTEX
  8
0ALV_ROD
 10
716207.63
 20
8617743.00
  0
VERTEX
  8
0ALV_ROD
 10
716112.44
 20
8617744.00
  0
VERTEX
  8
0ALV_ROD
 10
716049.00
 20
8617744.00
  0
VERTEX
  8
0ALV_ROD
 10
715953.81
 20
8617745.00
  0
VERTEX
  8
0ALV_ROD
 10
715858.63
 20
8617746.00
  0
VERTEX
  8
0ALV_ROD
 10
715795.13
 20
8617747.00
  0
VERTEX
  8
0ALV_ROD
 10
715699.63
 20
8617716.00
  0
VERTEX
  8
0ALV_ROD
 10
715636.19
 20
8617717.00
  0
VERTEX
  8
0ALV_ROD
 10
715572.69
 20
8617718.00
  0
VERTEX
  8
0ALV_ROD
 10
715477.50
 20
8617719.00
  0
VERTEX
  8
0ALV_ROD
 10
715414.06
 20
8617719.00
  0
VERTEX
  8
0ALV_ROD
 10
715350.63
 20
8617720.00
  0
VERTEX
  8
0ALV_ROD
 10
715287.13
 20
8617721.00
  0
VERTEX
  8
0ALV_ROD
 10
715223.69
 20
8617721.00
  0
VERTEX
  8
0ALV_ROD
 10
715128.50
 20
8617723.00
  0
VERTEX
  8
0ALV_ROD
 10
715065.06
 20
8617723.00
  0
VERTEX
  8
0ALV_ROD
 10
715001.25
 20
8617692.00
  0
VERTEX
  8
0ALV_ROD
 10
714937.44
 20
8617661.00
  0
VERTEX
  8
0ALV_ROD
 10
714842.25
 20
8617662.00
  0
VERTEX
  8
0ALV_ROD
 10
714778.81
 20
8617663.00
  0
VERTEX
  8
0ALV_ROD
 10
714715.38
 20
8617663.00
  0
VERTEX
  8
0ALV_ROD
 10
714651.56
 20
8617632.00
  0
VERTEX
  8
0ALV_ROD
 10
714588.06
 20
8617633.00
  0
VERTEX
  8
0ALV_ROD
 10
714524.63
 20
8617634.00
  0
VERTEX
  8
0ALV_ROD
 10
714460.81
 20
8617602.00
  0
VERTEX
  8
0ALV_ROD
 10
714397.38
 20
8617603.00
  0
VERTEX
  8
0ALV_ROD
 10
714333.94
 20
8617604.00
  0
VERTEX
  8
0ALV_ROD
 10
714270.44
 20
8617604.00
  0
VERTEX
  8
0ALV_ROD
 10
714206.31
 20
8617541.00
  0
VERTEX
  8
0ALV_ROD
 10
714142.88
 20
8617542.00
  0
VERTEX
  8
0ALV_ROD
 10
714047.31
 20
8617511.00
  0
VERTEX
  8
0ALV_ROD
 10
713983.56
 20
8617480.00
  0
VERTEX
  8
0ALV_ROD
 10
713919.06
 20
8617385.00
  0
VERTEX
  8
0ALV_ROD
 10
713823.19
 20
8617323.00
  0
VERTEX
  8
0ALV_ROD
 10
713727.31
 20
8617260.00
  0
VERTEX
  8
0ALV_ROD
 10
713663.19
 20
8617197.00
  0
VERTEX
  8
0ALV_ROD
 10
713567.31
 20
8617134.00
  0
VERTEX
  8
0ALV_ROD
 10
713503.50
 20
8617103.00
  0
VERTEX
  8
0ALV_ROD
 10
713439.38
 20
8617040.00
  0
VERTEX
  8
0ALV_ROD
 10
713343.88
 20
8617009.00
  0
VERTEX
  8
0ALV_ROD
 10
713248.38
 20
8616978.00
  0
VERTEX
  8
0ALV_ROD
 10
713184.88
 20
8616979.00
  0
VERTEX
  8
0ALV_ROD
 10
713121.44
 20
8616980.00
  0
VERTEX
  8
0ALV_ROD
 10
713026.25
 20
8616981.00
  0
VERTEX
  8
0ALV_ROD
 10
712962.81
 20
8616982.00
  0
VERTEX
  8
0ALV_ROD
 10
712867.63
 20
8616983.00
  0
VERTEX
  8
0ALV_ROD
 10
712772.06
 20
8616952.00
  0
VERTEX
  8
0ALV_ROD
 10
712708.63
 20
8616953.00
  0
VERTEX
  8
0ALV_ROD
 10
712645.13
 20
8616953.00
  0
VERTEX
  8
0ALV_ROD
 10
712549.94
 20
8616954.00
  0
VERTEX
  8
0ALV_ROD
 10
712486.88
 20
8616987.00
  0
VERTEX
  8
0ALV_ROD
 10
712423.38
 20
8616987.00
  0
VERTEX
  8
0ALV_ROD
 10
712360.25
 20
8617020.00
  0
VERTEX
  8
0ALV_ROD
 10
712297.19
 20
8617053.00
  0
VERTEX
  8
0ALV_ROD
 10
712234.06
 20
8617085.00
  0
VERTEX
  8
0ALV_ROD
 10
712170.56
 20
8617086.00
  0
VERTEX
  8
0ALV_ROD
 10
712107.13
 20
8617087.00
  0
VERTEX
  8
0ALV_ROD
 10
712044.00
 20
8617119.00
  0
VERTEX
  8
0ALV_ROD
 10
711980.88
 20
8617152.00
  0
VERTEX
  8
0ALV_ROD
 10
711917.75
 20
8617184.00
  0
VERTEX
  8
0ALV_ROD
 10
711886.75
 20
8617248.00
  0
VERTEX
  8
0ALV_ROD
 10
711791.56
 20
8617249.00
  0
VERTEX
  8
0ALV_ROD
 10
711697.00
 20
8617314.00
  0
VERTEX
  8
0ALV_ROD
 10
711633.94
 20
8617347.00
  0
VERTEX
  8
0ALV_ROD
 10
711570.81
 20
8617379.00
  0
VERTEX
  8
0ALV_ROD
 10
711507.31
 20
8617380.00
  0
VERTEX
  8
0ALV_ROD
 10
711443.88
 20
8617381.00
  0
VERTEX
  8
0ALV_ROD
 10
711380.44
 20
8617381.00
  0
VERTEX
  8
0ALV_ROD
 10
711381.13
 20
8617445.00
  0
VERTEX
  8
0ALV_ROD
 10
711317.63
 20
8617446.00
  0
VERTEX
  8
0ALV_ROD
 10
711254.88
 20
8617510.00
  0
VERTEX
  8
0ALV_ROD
 10
711160.00
 20
8617543.00
  0
VERTEX
  8
0ALV_ROD
 10
711096.56
 20
8617544.00
  0
VERTEX
  8
0ALV_ROD
 10
711065.50
 20
8617608.00
  0
VERTEX
  8
0ALV_ROD
 10
711002.06
 20
8617608.00
  0
VERTEX
  8
0ALV_ROD
 10
710938.94
 20
8617641.00
  0
VERTEX
  8
0ALV_ROD
 10
710875.50
 20
8617642.00
  0
VERTEX
  8
0ALV_ROD
 10
708389.25
 20
8618567.00
  0
SEQEND
  8
0ALV_ROD
  0
POLYLINE
  8
0ALV_ROD
 66
     1
  0
VERTEX
  8
0ALV_ROD
 10
704490.69
 20
8620005.00
  0
VERTEX
  8
0ALV_ROD
 10
704659.31
 20
8617965.00
  0
VERTEX
  8
0ALV_ROD
 10
705928.63
 20
8614918.00
  0
SEQEND
  8
0ALV_ROD
  0
POLYLINE
  8
0ALV_ROD
 66
     1
  0
VERTEX
  8
0ALV_ROD
 10
618338.19
 20
8624731.00
  0
VERTEX
  8
0ALV_ROD
 10
618263.50
 20
8624699.00
  0
VERTEX
  8
0ALV_ROD
 10
618157.56
 20
8624685.00
  0
VERTEX
  8
0ALV_ROD
 10
618076.56
 20
8624672.00
  0
VERTEX
  8
0ALV_ROD
 10
617995.50
 20
8624659.00
  0
VERTEX
  8
0ALV_ROD
 10
617927.06
 20
8624640.00
  0
VERTEX
  8
0ALV_ROD
 10
617827.25
 20
8624639.00
  0
VERTEX
  8
0ALV_ROD
 10
617758.69
 20
8624626.00
  0
VERTEX
  8
0ALV_ROD
 10
617665.19
 20
8624619.00
  0
VERTEX
  8
0ALV_ROD
 10
617559.13
 20
8624612.00
  0
VERTEX
  8
0ALV_ROD
 10
617459.38
 20
8624611.00
  0
VERTEX
  8
0ALV_ROD
 10
617334.56
 20
8624610.00
  0
VERTEX
  8
0ALV_ROD
 10
617241.06
 20
8624603.00
  0
VERTEX
  8
0ALV_ROD
 10
617172.44
 20
8624603.00
  0
VERTEX
  8
0ALV_ROD
 10
617091.38
 20
8624602.00
  0
VERTEX
  8
0ALV_ROD
 10
617010.25
 20
8624601.00
  0
VERTEX
  8
0ALV_ROD
 10
616941.69
 20
8624594.00
  0
VERTEX
  8
0ALV_ROD
 10
616885.56
 20
8624594.00
  0
VERTEX
  8
0ALV_ROD
 10
616785.75
 20
8624587.00
  0
VERTEX
  8
0ALV_ROD
 10
616679.75
 20
8624580.00
  0
VERTEX
  8
0ALV_ROD
 10
616598.69
 20
8624573.00
  0
VERTEX
  8
0ALV_ROD
 10
616542.63
 20
8624566.00
  0
VERTEX
  8
0ALV_ROD
 10
616461.63
 20
8624553.00
  0
VERTEX
  8
0ALV_ROD
 10
616374.44
 20
8624527.00
  0
VERTEX
  8
0ALV_ROD
 10
616293.63
 20
8624483.00
  0
VERTEX
  8
0ALV_ROD
 10
616250.25
 20
8624432.00
  0
VERTEX
  8
0ALV_ROD
 10
616194.38
 20
8624394.00
  0
VERTEX
  8
0ALV_ROD
 10
616176.00
 20
8624344.00
  0
VERTEX
  8
0ALV_ROD
 10
616151.31
 20
8624293.00
  0
VERTEX
  8
0ALV_ROD
 10
616133.19
 20
8624205.00
  0
VERTEX
  8
0ALV_ROD
 10
616096.13
 20
8624149.00
  0
VERTEX
  8
0ALV_ROD
 10
616077.88
 20
8624080.00
  0
VERTEX
  8
0ALV_ROD
 10
616034.69
 20
8623998.00
  0
VERTEX
  8
0ALV_ROD
 10
616022.69
 20
8623922.00
  0
VERTEX
  8
0ALV_ROD
 10
615960.88
 20
8623834.00
  0
VERTEX
  8
0ALV_ROD
 10
615924.06
 20
8623746.00
  0
VERTEX
  8
0ALV_ROD
 10
615887.06
 20
8623677.00
  0
VERTEX
  8
0ALV_ROD
 10
615800.31
 20
8623582.00
  0
VERTEX
  8
0ALV_ROD
 10
615713.50
 20
8623500.00
  0
VERTEX
  8
0ALV_ROD
 10
615632.88
 20
8623424.00
  0
VERTEX
  8
0ALV_ROD
 10
615558.50
 20
8623348.00
  0
VERTEX
  8
0ALV_ROD
 10
615465.19
 20
8623309.00
  0
VERTEX
  8
0ALV_ROD
 10
615384.50
 20
8623240.00
  0
VERTEX
  8
0ALV_ROD
 10
615303.75
 20
8623189.00
  0
VERTEX
  8
0ALV_ROD
 10
615223.13
 20
8623119.00
  0
VERTEX
  8
0ALV_ROD
 10
615148.63
 20
8623062.00
  0
VERTEX
  8
0ALV_ROD
 10
615043.06
 20
8622980.00
  0
VERTEX
  8
0ALV_ROD
 10
614962.31
 20
8622935.00
  0
VERTEX
  8
0ALV_ROD
 10
614900.38
 20
8622860.00
  0
VERTEX
  8
0ALV_ROD
 10
614819.50
 20
8622821.00
  0
VERTEX
  8
0ALV_ROD
 10
614763.63
 20
8622783.00
  0
VERTEX
  8
0ALV_ROD
 10
614670.63
 20
8622695.00
  0
VERTEX
  8
0ALV_ROD
 10
614583.63
 20
8622644.00
  0
VERTEX
  8
0ALV_ROD
 10
614540.38
 20
8622575.00
  0
VERTEX
  8
0ALV_ROD
 10
614503.69
 20
8622455.00
  0
VERTEX
  8
0ALV_ROD
 10
614491.81
 20
8622361.00
  0
VERTEX
  8
0ALV_ROD
 10
614492.44
 20
8622267.00
  0
VERTEX
  8
0ALV_ROD
 10
614493.06
 20
8622166.00
  0
VERTEX
  8
0ALV_ROD
 10
614493.44
 20
8622110.00
  0
VERTEX
  8
0ALV_ROD
 10
614506.50
 20
8622016.00
  0
VERTEX
  8
0ALV_ROD
 10
614519.31
 20
8621966.00
  0
VERTEX
  8
0ALV_ROD
 10
614538.56
 20
8621885.00
  0
VERTEX
  8
0ALV_ROD
 10
614551.50
 20
8621809.00
  0
VERTEX
  8
0ALV_ROD
 10
614639.38
 20
8621728.00
  0
VERTEX
  8
0ALV_ROD
 10
614739.38
 20
8621692.00
  0
VERTEX
  8
0ALV_ROD
 10
614826.94
 20
8621661.00
  0
VERTEX
  8
0ALV_ROD
 10
614908.13
 20
8621643.00
  0
VERTEX
  8
0ALV_ROD
 10
614983.19
 20
8621618.00
  0
VERTEX
  8
0ALV_ROD
 10
615058.25
 20
8621587.00
  0
VERTEX
  8
0ALV_ROD
 10
615139.63
 20
8621538.00
  0
VERTEX
  8
0ALV_ROD
 10
615221.00
 20
8621501.00
  0
VERTEX
  8
0ALV_ROD
 10
615271.13
 20
8621464.00
  0
VERTEX
  8
0ALV_ROD
 10
615365.00
 20
8621414.00
  0
VERTEX
  8
0ALV_ROD
 10
615409.13
 20
8621339.00
  0
VERTEX
  8
0ALV_ROD
 10
615422.19
 20
8621252.00
  0
VERTEX
  8
0ALV_ROD
 10
615466.69
 20
8621120.00
  0
VERTEX
  8
0ALV_ROD
 10
615517.06
 20
8621045.00
  0
VERTEX
  8
0ALV_ROD
 10
615523.94
 20
8620951.00
  0
VERTEX
  8
0ALV_ROD
 10
615524.44
 20
8620863.00
  0
VERTEX
  8
0ALV_ROD
 10
615525.00
 20
8620776.00
  0
VERTEX
  8
0ALV_ROD
 10
615519.50
 20
8620669.00
  0
VERTEX
  8
0ALV_ROD
 10
615520.00
 20
8620587.00
  0
VERTEX
  8
0ALV_ROD
 10
615508.06
 20
8620499.00
  0
VERTEX
  8
0ALV_ROD
 10
615502.19
 20
8620449.00
  0
VERTEX
  8
0ALV_ROD
 10
615496.56
 20
8620349.00
  0
VERTEX
  8
0ALV_ROD
 10
615497.25
 20
8620242.00
  0
VERTEX
  8
0ALV_ROD
 10
615498.00
 20
8620129.00
  0
VERTEX
  8
0ALV_ROD
 10
615498.75
 20
8620004.00
  0
VERTEX
  8
0ALV_ROD
 10
615543.25
 20
8619879.00
  0
VERTEX
  8
0ALV_ROD
 10
615556.25
 20
8619797.00
  0
VERTEX
  8
0ALV_ROD
 10
615637.94
 20
8619704.00
  0
VERTEX
  8
0ALV_ROD
 10
615682.19
 20
8619610.00
  0
VERTEX
  8
0ALV_ROD
 10
615769.88
 20
8619560.00
  0
VERTEX
  8
0ALV_ROD
 10
615820.13
 20
8619498.00
  0
VERTEX
  8
0ALV_ROD
 10
615895.25
 20
8619461.00
  0
VERTEX
  8
0ALV_ROD
 10
615945.38
 20
8619424.00
  0
VERTEX
  8
0ALV_ROD
 10
616026.75
 20
8619387.00
  0
VERTEX
  8
0ALV_ROD
 10
616076.88
 20
8619350.00
  0
VERTEX
  8
0ALV_ROD
 10
616158.44
 20
8619275.00
  0
VERTEX
  8
0ALV_ROD
 10
616246.00
 20
8619244.00
  0
VERTEX
  8
0ALV_ROD
 10
616296.19
 20
8619201.00
  0
VERTEX
  8
0ALV_ROD
 10
616377.50
 20
8619164.00
  0
VERTEX
  8
0ALV_ROD
 10
616427.56
 20
8619133.00
  0
VERTEX
  8
0ALV_ROD
 10
616508.81
 20
8619115.00
  0
VERTEX
  8
0ALV_ROD
 10
616608.81
 20
8619090.00
  0
VERTEX
  8
0ALV_ROD
 10
616696.25
 20
8619072.00
  0
VERTEX
  8
0ALV_ROD
 10
616789.81
 20
8619067.00
  0
VERTEX
  8
0ALV_ROD
 10
616852.25
 20
8619061.00
  0
VERTEX
  8
0ALV_ROD
 10
616958.31
 20
8619062.00
  0
VERTEX
  8
0ALV_ROD
 10
617051.94
 20
8619056.00
  0
VERTEX
  8
0ALV_ROD
 10
617108.13
 20
8619050.00
  0
VERTEX
  8
0ALV_ROD
 10
617208.00
 20
8619038.00
  0
VERTEX
  8
0ALV_ROD
 10
617258.00
 20
8619020.00
  0
VERTEX
  8
0ALV_ROD
 10
617351.81
 20
8618989.00
  0
VERTEX
  8
0ALV_ROD
 10
617414.63
 20
8618921.00
  0
VERTEX
  8
0ALV_ROD
 10
617502.25
 20
8618871.00
  0
VERTEX
  8
0ALV_ROD
 10
617540.19
 20
8618796.00
  0
VERTEX
  8
0ALV_ROD
 10
617621.88
 20
8618697.00
  0
VERTEX
  8
0ALV_ROD
 10
617672.31
 20
8618615.00
  0
VERTEX
  8
0ALV_ROD
 10
617747.50
 20
8618566.00
  0
VERTEX
  8
0ALV_ROD
 10
617841.19
 20
8618548.00
  0
VERTEX
  8
0ALV_ROD
 10
617916.00
 20
8618548.00
  0
VERTEX
  8
0ALV_ROD
 10
617997.13
 20
8618549.00
  0
VERTEX
  8
0ALV_ROD
 10
618078.25
 20
8618550.00
  0
VERTEX
  8
0ALV_ROD
 10
618178.00
 20
8618550.00
  0
VERTEX
  8
0ALV_ROD
 10
618271.69
 20
8618539.00
  0
VERTEX
  8
0ALV_ROD
 10
618359.06
 20
8618533.00
  0
VERTEX
  8
0ALV_ROD
 10
618446.56
 20
8618509.00
  0
VERTEX
  8
0ALV_ROD
 10
618527.81
 20
8618484.00
  0
VERTEX
  8
0ALV_ROD
 10
618577.81
 20
8618466.00
  0
VERTEX
  8
0ALV_ROD
 10
618627.94
 20
8618428.00
  0
VERTEX
  8
0ALV_ROD
 10
618634.63
 20
8618366.00
  0
VERTEX
  8
0ALV_ROD
 10
618634.94
 20
8618309.00
  0
VERTEX
  8
0ALV_ROD
 10
618629.19
 20
8618240.00
  0
VERTEX
  8
0ALV_ROD
 10
618623.44
 20
8618165.00
  0
VERTEX
  8
0ALV_ROD
 10
618617.63
 20
8618096.00
  0
VERTEX
  8
0ALV_ROD
 10
618599.50
 20
8618002.00
  0
VERTEX
  8
0ALV_ROD
 10
618587.44
 20
8617933.00
  0
VERTEX
  8
0ALV_ROD
 10
618569.13
 20
8617876.00
  0
VERTEX
  8
0ALV_ROD
 10
618550.88
 20
8617801.00
  0
VERTEX
  8
0ALV_ROD
 10
618532.63
 20
8617731.00
  0
VERTEX
  8
0ALV_ROD
 10
618514.25
 20
8617675.00
  0
VERTEX
  8
0ALV_ROD
 10
618477.50
 20
8617568.00
  0
VERTEX
  8
0ALV_ROD
 10
618465.81
 20
8617442.00
  0
VERTEX
  8
0ALV_ROD
 10
618416.63
 20
8617335.00
  0
VERTEX
  8
0ALV_ROD
 10
618398.38
 20
8617266.00
  0
VERTEX
  8
0ALV_ROD
 10
618367.69
 20
8617184.00
  0
VERTEX
  8
0ALV_ROD
 10
618324.81
 20
8617059.00
  0
VERTEX
  8
0ALV_ROD
 10
618306.69
 20
8616964.00
  0
VERTEX
  8
0ALV_ROD
 10
618269.75
 20
8616889.00
  0
VERTEX
  8
0ALV_ROD
 10
618233.06
 20
8616775.00
  0
VERTEX
  8
0ALV_ROD
 10
618215.00
 20
8616669.00
  0
VERTEX
  8
0ALV_ROD
 10
618172.13
 20
8616543.00
  0
VERTEX
  8
0ALV_ROD
 10
618135.56
 20
8616411.00
  0
VERTEX
  8
0ALV_ROD
 10
618124.50
 20
8616191.00
  0
VERTEX
  8
0ALV_ROD
 10
618081.88
 20
8616028.00
  0
VERTEX
  8
0ALV_ROD
 10
618076.13
 20
8615946.00
  0
VERTEX
  8
0ALV_ROD
 10
618070.38
 20
8615871.00
  0
VERTEX
  8
0ALV_ROD
 10
618058.25
 20
8615814.00
  0
VERTEX
  8
0ALV_ROD
 10
618021.38
 20
8615726.00
  0
VERTEX
  8
0ALV_ROD
 10
618003.25
 20
8615638.00
  0
VERTEX
  8
0ALV_ROD
 10
617984.88
 20
8615588.00
  0
VERTEX
  8
0ALV_ROD
 10
617941.75
 20
8615500.00
  0
VERTEX
  8
0ALV_ROD
 10
617892.31
 20
8615424.00
  0
VERTEX
  8
0ALV_ROD
 10
617811.75
 20
8615342.00
  0
VERTEX
  8
0ALV_ROD
 10
617731.19
 20
8615260.00
  0
VERTEX
  8
0ALV_ROD
 10
617681.69
 20
8615190.00
  0
VERTEX
  8
0ALV_ROD
 10
617613.56
 20
8615115.00
  0
VERTEX
  8
0ALV_ROD
 10
617595.38
 20
8615039.00
  0
VERTEX
  8
0ALV_ROD
 10
617577.63
 20
8614882.00
  0
VERTEX
  8
0ALV_ROD
 10
617559.63
 20
8614775.00
  0
VERTEX
  8
0ALV_ROD
 10
617547.81
 20
8614669.00
  0
VERTEX
  8
0ALV_ROD
 10
617529.63
 20
8614581.00
  0
VERTEX
  8
0ALV_ROD
 10
617511.44
 20
8614505.00
  0
VERTEX
  8
0ALV_ROD
 10
617499.31
 20
8614449.00
  0
VERTEX
  8
0ALV_ROD
 10
617437.25
 20
8614398.00
  0
VERTEX
  8
0ALV_ROD
 10
617381.63
 20
8614322.00
  0
VERTEX
  8
0ALV_ROD
 10
617307.00
 20
8614284.00
  0
VERTEX
  8
0ALV_ROD
 10
617213.63
 20
8614252.00
  0
VERTEX
  8
0ALV_ROD
 10
617165.88
 20
8614242.00
  0
SEQEND
  8
0ALV_ROD
  0
POLYLINE
  8
0ALV_ROD
 66
     1
  0
VERTEX
  8
0ALV_ROD
 10
664874.50
 20
8606803.00
  0
VERTEX
  8
0ALV_ROD
 10
664842.75
 20
8606803.00
  0
VERTEX
  8
0ALV_ROD
 10
664747.94
 20
8606836.00
  0
VERTEX
  8
0ALV_ROD
 10
664684.50
 20
8606837.00
  0
VERTEX
  8
0ALV_ROD
 10
664621.00
 20
8606837.00
  0
VERTEX
  8
0ALV_ROD
 10
664557.88
 20
8606870.00
  0
VERTEX
  8
0ALV_ROD
 10
664494.44
 20
8606871.00
  0
VERTEX
  8
0ALV_ROD
 10
664495.13
 20
8606934.00
  0
VERTEX
  8
0ALV_ROD
 10
664432.00
 20
8606967.00
  0
VERTEX
  8
0ALV_ROD
 10
664369.25
 20
8607031.00
  0
VERTEX
  8
0ALV_ROD
 10
664338.50
 20
8607127.00
  0
VERTEX
  8
0ALV_ROD
 10
664307.44
 20
8607191.00
  0
VERTEX
  8
0ALV_ROD
 10
664244.38
 20
8607224.00
  0
VERTEX
  8
0ALV_ROD
 10
664181.56
 20
8607288.00
  0
VERTEX
  8
0ALV_ROD
 10
664150.50
 20
8607352.00
  0
VERTEX
  8
0ALV_ROD
 10
664087.38
 20
8607385.00
  0
VERTEX
  8
0ALV_ROD
 10
664024.63
 20
8607449.00
  0
VERTEX
  8
0ALV_ROD
 10
663961.19
 20
8607450.00
  0
VERTEX
  8
0ALV_ROD
 10
663897.69
 20
8607451.00
  0
VERTEX
  8
0ALV_ROD
 10
663834.25
 20
8607451.00
  0
VERTEX
  8
0ALV_ROD
 10
663770.81
 20
8607452.00
  0
VERTEX
  8
0ALV_ROD
 10
663707.00
 20
8607421.00
  0
VERTEX
  8
0ALV_ROD
 10
663643.19
 20
8607390.00
  0
VERTEX
  8
0ALV_ROD
 10
663579.75
 20
8607390.00
  0
VERTEX
  8
0ALV_ROD
 10
663547.31
 20
8607327.00
  0
VERTEX
  8
0ALV_ROD
 10
663483.88
 20
8607328.00
  0
VERTEX
  8
0ALV_ROD
 10
663420.06
 20
8607297.00
  0
VERTEX
  8
0ALV_ROD
 10
663356.63
 20
8607297.00
  0
VERTEX
  8
0ALV_ROD
 10
663292.81
 20
8607266.00
  0
VERTEX
  8
0ALV_ROD
 10
663229.38
 20
8607267.00
  0
VERTEX
  8
0ALV_ROD
 10
663165.88
 20
8607268.00
  0
VERTEX
  8
0ALV_ROD
 10
663102.44
 20
8607268.00
  0
VERTEX
  8
0ALV_ROD
 10
663039.00
 20
8607269.00
  0
VERTEX
  8
0ALV_ROD
 10
662975.50
 20
8607270.00
  0
VERTEX
  8
0ALV_ROD
 10
662912.06
 20
8607270.00
  0
SEQEND
  8
0ALV_ROD
  0
POLYLINE
  8
0ALV_ROD
 66
     1
  0
VERTEX
  8
0ALV_ROD
 10
825962.25
 20
8605697.00
  0
VERTEX
  8
0ALV_ROD
 10
825906.06
 20
8605698.00
  0
VERTEX
  8
0ALV_ROD
 10
825825.00
 20
8605711.00
  0
VERTEX
  8
0ALV_ROD
 10
825756.56
 20
8605731.00
  0
VERTEX
  8
0ALV_ROD
 10
825675.56
 20
8605745.00
  0
VERTEX
  8
0ALV_ROD
 10
825619.44
 20
8605752.00
  0
VERTEX
  8
0ALV_ROD
 10
825551.00
 20
8605771.00
  0
VERTEX
  8
0ALV_ROD
 10
825476.25
 20
8605785.00
  0
VERTEX
  8
0ALV_ROD
 10
825401.63
 20
8605811.00
  0
VERTEX
  8
0ALV_ROD
 10
825345.69
 20
8605830.00
  0
VERTEX
  8
0ALV_ROD
 10
825271.06
 20
8605856.00
  0
VERTEX
  8
0ALV_ROD
 10
825196.13
 20
8605857.00
  0
VERTEX
  8
0ALV_ROD
 10
825139.94
 20
8605858.00
  0
VERTEX
  8
0ALV_ROD
 10
825071.25
 20
8605859.00
  0
VERTEX
  8
0ALV_ROD
 10
824952.63
 20
8605860.00
  0
VERTEX
  8
0ALV_ROD
 10
824871.31
 20
8605855.00
  0
VERTEX
  8
0ALV_ROD
 10
824796.31
 20
8605850.00
  0
VERTEX
  8
0ALV_ROD
 10
824708.44
 20
8605820.00
  0
VERTEX
  8
0ALV_ROD
 10
824658.19
 20
8605801.00
  0
VERTEX
  8
0ALV_ROD
 10
824595.50
 20
8605783.00
  0
VERTEX
  8
0ALV_ROD
 10
824545.31
 20
8605765.00
  0
VERTEX
  8
0ALV_ROD
 10
824482.63
 20
8605747.00
  0
VERTEX
  8
0ALV_ROD
 10
824401.13
 20
8605729.00
  0
VERTEX
  8
0ALV_ROD
 10
824338.44
 20
8605711.00
  0
VERTEX
  8
0ALV_ROD
 10
824263.31
 20
8605699.00
  0
VERTEX
  8
0ALV_ROD
 10
824188.38
 20
8605700.00
  0
VERTEX
  8
0ALV_ROD
 10
824125.94
 20
8605701.00
  0
VERTEX
  8
0ALV_ROD
 10
824069.75
 20
8605702.00
  0
VERTEX
  8
0ALV_ROD
 10
824001.13
 20
8605709.00
  0
VERTEX
  8
0ALV_ROD
 10
823851.31
 20
8605717.00
  0
VERTEX
  8
0ALV_ROD
 10
823670.31
 20
8605726.00
  0
VERTEX
  8
0ALV_ROD
 10
823595.44
 20
8605733.00
  0
VERTEX
  8
0ALV_ROD
 10
823508.00
 20
8605734.00
  0
VERTEX
  8
0ALV_ROD
 10
823420.69
 20
8605741.00
  0
VERTEX
  8
0ALV_ROD
 10
823352.00
 20
8605742.00
  0
VERTEX
  8
0ALV_ROD
 10
823264.56
 20
8605743.00
  0
VERTEX
  8
0ALV_ROD
 10
823183.44
 20
8605751.00
  0
VERTEX
  8
0ALV_ROD
 10
823096.19
 20
8605764.00
  0
VERTEX
  8
0ALV_ROD
 10
823002.75
 20
8605784.00
  0
VERTEX
  8
0ALV_ROD
 10
822921.75
 20
8605798.00
  0
VERTEX
  8
0ALV_ROD
 10
822865.75
 20
8605811.00
  0
VERTEX
  8
0ALV_ROD
 10
822772.13
 20
8605819.00
  0
VERTEX
  8
0ALV_ROD
 10
822697.19
 20
8605819.00
  0
VERTEX
  8
0ALV_ROD
 10
822628.50
 20
8605820.00
  0
VERTEX
  8
0ALV_ROD
 10
822534.94
 20
8605828.00
  0
VERTEX
  8
0ALV_ROD
 10
822453.81
 20
8605835.00
  0
VERTEX
  8
0ALV_ROD
 10
822379.00
 20
8605842.00
  0
VERTEX
  8
0ALV_ROD
 10
822291.94
 20
8605875.00
  0
VERTEX
  8
0ALV_ROD
 10
822198.69
 20
8605907.00
  0
VERTEX
  8
0ALV_ROD
 10
822117.75
 20
8605927.00
  0
VERTEX
  8
0ALV_ROD
 10
822068.50
 20
8605978.00
  0
VERTEX
  8
0ALV_ROD
 10
822012.88
 20
8606023.00
  0
VERTEX
  8
0ALV_ROD
 10
821939.00
 20
8606099.00
  0
VERTEX
  8
0ALV_ROD
 10
821858.56
 20
8606156.00
  0
VERTEX
  8
0ALV_ROD
 10
821796.25
 20
8606170.00
  0
VERTEX
  8
0ALV_ROD
 10
821779.19
 20
8606289.00
  0
VERTEX
  8
0ALV_ROD
 10
821761.56
 20
8606371.00
  0
VERTEX
  8
0ALV_ROD
 10
821762.25
 20
8606421.00
  0
VERTEX
  8
0ALV_ROD
 10
821763.00
 20
8606478.00
  0
VERTEX
  8
0ALV_ROD
 10
821763.75
 20
8606534.00
  0
VERTEX
  8
0ALV_ROD
 10
821764.44
 20
8606585.00
  0
VERTEX
  8
0ALV_ROD
 10
821765.19
 20
8606641.00
  0
VERTEX
  8
0ALV_ROD
 10
821760.00
 20
8606717.00
  0
VERTEX
  8
0ALV_ROD
 10
821748.69
 20
8606805.00
  0
VERTEX
  8
0ALV_ROD
 10
821737.31
 20
8606886.00
  0
VERTEX
  8
0ALV_ROD
 10
821732.13
 20
8606962.00
  0
VERTEX
  8
0ALV_ROD
 10
821727.00
 20
8607043.00
  0
VERTEX
  8
0ALV_ROD
 10
821728.19
 20
8607131.00
  0
VERTEX
  8
0ALV_ROD
 10
821729.44
 20
8607226.00
  0
VERTEX
  8
0ALV_ROD
 10
821724.19
 20
8607295.00
  0
VERTEX
  8
0ALV_ROD
 10
821718.94
 20
8607370.00
  0
VERTEX
  8
0ALV_ROD
 10
821688.81
 20
8607452.00
  0
VERTEX
  8
0ALV_ROD
 10
821652.06
 20
8607503.00
  0
VERTEX
  8
0ALV_ROD
 10
821596.06
 20
8607522.00
  0
VERTEX
  8
0ALV_ROD
 10
821513.69
 20
8607435.00
  0
VERTEX
  8
0ALV_ROD
 10
821475.25
 20
8607367.00
  0
VERTEX
  8
0ALV_ROD
 10
821417.63
 20
8607261.00
  0
VERTEX
  8
0ALV_ROD
 10
821397.88
 20
8607186.00
  0
VERTEX
  8
0ALV_ROD
 10
821359.38
 20
8607111.00
  0
VERTEX
  8
0ALV_ROD
 10
821339.63
 20
8607036.00
  0
VERTEX
  8
0ALV_ROD
 10
821313.50
 20
8606954.00
  0
VERTEX
  8
0ALV_ROD
 10
821306.50
 20
8606898.00
  0
VERTEX
  8
0ALV_ROD
 10
821262.00
 20
8606842.00
  0
VERTEX
  8
0ALV_ROD
 10
821204.31
 20
8606730.00
  0
VERTEX
  8
0ALV_ROD
 10
821129.19
 20
8606718.00
  0
VERTEX
  8
0ALV_ROD
 10
821079.13
 20
8606712.00
  0
VERTEX
  8
0ALV_ROD
 10
821016.69
 20
8606713.00
  0
VERTEX
  8
0ALV_ROD
 10
820954.31
 20
8606720.00
  0
VERTEX
  8
0ALV_ROD
 10
820861.50
 20
8606784.00
  0
VERTEX
  8
0ALV_ROD
 10
820812.31
 20
8606841.00
  0
VERTEX
  8
0ALV_ROD
 10
820788.00
 20
8606892.00
  0
VERTEX
  8
0ALV_ROD
 10
820738.75
 20
8606943.00
  0
VERTEX
  8
0ALV_ROD
 10
820683.56
 20
8607019.00
  0
VERTEX
  8
0ALV_ROD
 10
820647.13
 20
8607095.00
  0
VERTEX
  8
0ALV_ROD
 10
820616.75
 20
8607158.00
  0
VERTEX
  8
0ALV_ROD
 10
820605.44
 20
8607246.00
  0
VERTEX
  8
0ALV_ROD
 10
820556.31
 20
8607309.00
  0
VERTEX
  8
0ALV_ROD
 10
820538.25
 20
8607360.00
  0
VERTEX
  8
0ALV_ROD
 10
820495.25
 20
8607410.00
  0
VERTEX
  8
0ALV_ROD
 10
820477.19
 20
8607461.00
  0
VERTEX
  8
0ALV_ROD
 10
820434.19
 20
8607512.00
  0
VERTEX
  8
0ALV_ROD
 10
820397.38
 20
8607562.00
  0
VERTEX
  8
0ALV_ROD
 10
820348.69
 20
8607657.00
  0
VERTEX
  8
0ALV_ROD
 10
820299.44
 20
8607708.00
  0
VERTEX
  8
0ALV_ROD
 10
820244.06
 20
8607772.00
  0
VERTEX
  8
0ALV_ROD
 10
820213.50
 20
8607822.00
  0
VERTEX
  8
0ALV_ROD
 10
820158.13
 20
8607879.00
  0
VERTEX
  8
0ALV_ROD
 10
820127.75
 20
8607943.00
  0
VERTEX
  8
0ALV_ROD
 10
820072.31
 20
8608000.00
  0
VERTEX
  8
0ALV_ROD
 10
820010.88
 20
8608076.00
  0
VERTEX
  8
0ALV_ROD
 10
819961.56
 20
8608127.00
  0
VERTEX
  8
0ALV_ROD
 10
819919.06
 20
8608215.00
  0
VERTEX
  8
0ALV_ROD
 10
819876.06
 20
8608266.00
  0
VERTEX
  8
0ALV_ROD
 10
819801.19
 20
8608273.00
  0
VERTEX
  8
0ALV_ROD
 10
819726.19
 20
8608268.00
  0
VERTEX
  8
0ALV_ROD
 10
819676.06
 20
8608256.00
  0
VERTEX
  8
0ALV_ROD
 10
819625.88
 20
8608244.00
  0
VERTEX
  8
0ALV_ROD
 10
819544.50
 20
8608232.00
  0
VERTEX
  8
0ALV_ROD
 10
819494.44
 20
8608220.00
  0
VERTEX
  8
0ALV_ROD
 10
819444.38
 20
8608215.00
  0
VERTEX
  8
0ALV_ROD
 10
819369.06
 20
8608191.00
  0
VERTEX
  8
0ALV_ROD
 10
819318.88
 20
8608172.00
  0
VERTEX
  8
0ALV_ROD
 10
819237.25
 20
8608142.00
  0
VERTEX
  8
0ALV_ROD
 10
819155.63
 20
8608112.00
  0
VERTEX
  8
0ALV_ROD
 10
819080.25
 20
8608081.00
  0
VERTEX
  8
0ALV_ROD
 10
819005.31
 20
8608082.00
  0
VERTEX
  8
0ALV_ROD
 10
818948.50
 20
8608039.00
  0
VERTEX
  8
0ALV_ROD
 10
818848.44
 20
8608028.00
  0
VERTEX
  8
0ALV_ROD
 10
818767.06
 20
8608016.00
  0
VERTEX
  8
0ALV_ROD
 10
818673.13
 20
8607998.00
  0
VERTEX
  8
0ALV_ROD
 10
818610.44
 20
8607980.00
  0
VERTEX
  8
0ALV_ROD
 10
818516.50
 20
8607963.00
  0
VERTEX
  8
0ALV_ROD
 10
818428.88
 20
8607951.00
  0
VERTEX
  8
0ALV_ROD
 10
818353.63
 20
8607927.00
  0
VERTEX
  8
0ALV_ROD
 10
818284.75
 20
8607915.00
  0
VERTEX
  8
0ALV_ROD
 10
818197.06
 20
8607897.00
  0
VERTEX
  8
0ALV_ROD
 10
818121.88
 20
8607880.00
  0
VERTEX
  8
0ALV_ROD
 10
818071.75
 20
8607868.00
  0
VERTEX
  8
0ALV_ROD
 10
818021.50
 20
8607849.00
  0
VERTEX
  8
0ALV_ROD
 10
817971.31
 20
8607831.00
  0
VERTEX
  8
0ALV_ROD
 10
817896.13
 20
8607813.00
  0
VERTEX
  8
0ALV_ROD
 10
817845.94
 20
8607795.00
  0
VERTEX
  8
0ALV_ROD
 10
817776.94
 20
8607777.00
  0
VERTEX
  8
0ALV_ROD
 10
817720.38
 20
8607753.00
  0
VERTEX
  8
0ALV_ROD
 10
817645.19
 20
8607735.00
  0
VERTEX
  8
0ALV_ROD
 10
817595.06
 20
8607723.00
  0
VERTEX
  8
0ALV_ROD
 10
817544.81
 20
8607705.00
  0
VERTEX
  8
0ALV_ROD
 10
817476.00
 20
8607693.00
  0
VERTEX
  8
0ALV_ROD
 10
817419.69
 20
8607687.00
  0
VERTEX
  8
0ALV_ROD
 10
817369.56
 20
8607675.00
  0
VERTEX
  8
0ALV_ROD
 10
817319.44
 20
8607664.00
  0
VERTEX
  8
0ALV_ROD
 10
817269.19
 20
8607645.00
  0
VERTEX
  8
0ALV_ROD
 10
817219.00
 20
8607627.00
  0
VERTEX
  8
0ALV_ROD
 10
817137.81
 20
8607628.00
  0
VERTEX
  8
0ALV_ROD
 10
817056.63
 20
8607629.00
  0
VERTEX
  8
0ALV_ROD
 10
816975.69
 20
8607649.00
  0
VERTEX
  8
0ALV_ROD
 10
816919.94
 20
8607681.00
  0
VERTEX
  8
0ALV_ROD
 10
816863.94
 20
8607701.00
  0
VERTEX
  8
0ALV_ROD
 10
816789.19
 20
8607714.00
  0
VERTEX
  8
0ALV_ROD
 10
816701.94
 20
8607728.00
  0
VERTEX
  8
0ALV_ROD
 10
816608.44
 20
8607741.00
  0
VERTEX
  8
0ALV_ROD
 10
816533.69
 20
8607755.00
  0
VERTEX
  8
0ALV_ROD
 10
816465.06
 20
8607762.00
  0
VERTEX
  8
0ALV_ROD
 10
816390.25
 20
8607776.00
  0
VERTEX
  8
0ALV_ROD
 10
816278.06
 20
8607790.00
  0
VERTEX
  8
0ALV_ROD
 10
816196.94
 20
8607797.00
  0
VERTEX
  8
0ALV_ROD
 10
816109.50
 20
8607798.00
  0
VERTEX
  8
0ALV_ROD
 10
816040.81
 20
8607799.00
  0
VERTEX
  8
0ALV_ROD
 10
815959.63
 20
8607800.00
  0
VERTEX
  8
0ALV_ROD
 10
814985.69
 20
8607784.00
  0
SEQEND
  8
0ALV_ROD
  0
POLYLINE
  8
0ALV_ROD
 66
     1
  0
VERTEX
  8
0ALV_ROD
 10
700680.63
 20
8616829.00
  0
VERTEX
  8
0ALV_ROD
 10
700616.50
 20
8616766.00
  0
VERTEX
  8
0ALV_ROD
 10
700552.69
 20
8616735.00
  0
VERTEX
  8
0ALV_ROD
 10
700488.56
 20
8616672.00
  0
VERTEX
  8
0ALV_ROD
 10
700425.13
 20
8616673.00
  0
VERTEX
  8
0ALV_ROD
 10
700361.63
 20
8616673.00
  0
VERTEX
  8
0ALV_ROD
 10
700297.50
 20
8616610.00
  0
VERTEX
  8
0ALV_ROD
 10
700233.69
 20
8616579.00
  0
VERTEX
  8
0ALV_ROD
 10
700169.94
 20
8616548.00
  0
VERTEX
  8
0ALV_ROD
 10
700106.13
 20
8616517.00
  0
VERTEX
  8
0ALV_ROD
 10
700042.00
 20
8616454.00
  0
VERTEX
  8
0ALV_ROD
 10
699978.19
 20
8616423.00
  0
VERTEX
  8
0ALV_ROD
 10
699914.75
 20
8616423.00
  0
VERTEX
  8
0ALV_ROD
 10
699850.56
 20
8616360.00
  0
VERTEX
  8
0ALV_ROD
 10
699787.13
 20
8616361.00
  0
VERTEX
  8
0ALV_ROD
 10
699723.00
 20
8616298.00
  0
VERTEX
  8
0ALV_ROD
 10
699627.44
 20
8616267.00
  0
VERTEX
  8
0ALV_ROD
 10
699563.69
 20
8616236.00
  0
VERTEX
  8
0ALV_ROD
 10
699499.88
 20
8616205.00
  0
VERTEX
  8
0ALV_ROD
 10
699436.44
 20
8616206.00
  0
VERTEX
  8
0ALV_ROD
 10
699372.94
 20
8616206.00
  0
VERTEX
  8
0ALV_ROD
 10
699309.50
 20
8616207.00
  0
VERTEX
  8
0ALV_ROD
 10
699246.06
 20
8616208.00
  0
VERTEX
  8
0ALV_ROD
 10
699182.56
 20
8616208.00
  0
VERTEX
  8
0ALV_ROD
 10
699087.38
 20
8616209.00
  0
VERTEX
  8
0ALV_ROD
 10
699023.63
 20
8616178.00
  0
VERTEX
  8
0ALV_ROD
 10
698960.13
 20
8616179.00
  0
VERTEX
  8
0ALV_ROD
 10
698896.69
 20
8616180.00
  0
VERTEX
  8
0ALV_ROD
 10
698864.25
 20
8616116.00
  0
VERTEX
  8
0ALV_ROD
 10
698800.81
 20
8616117.00
  0
VERTEX
  8
0ALV_ROD
 10
698737.38
 20
8616118.00
  0
VERTEX
  8
0ALV_ROD
 10
698642.19
 20
8616119.00
  0
VERTEX
  8
0ALV_ROD
 10
698578.38
 20
8616088.00
  0
VERTEX
  8
0ALV_ROD
 10
698514.94
 20
8616088.00
  0
VERTEX
  8
0ALV_ROD
 10
698451.44
 20
8616089.00
  0
VERTEX
  8
0ALV_ROD
 10
698388.00
 20
8616090.00
  0
VERTEX
  8
0ALV_ROD
 10
698324.19
 20
8616059.00
  0
VERTEX
  8
0ALV_ROD
 10
698229.00
 20
8616060.00
  0
VERTEX
  8
0ALV_ROD
 10
698165.56
 20
8616060.00
  0
VERTEX
  8
0ALV_ROD
 10
698101.75
 20
8616029.00
  0
VERTEX
  8
0ALV_ROD
 10
698038.31
 20
8616030.00
  0
VERTEX
  8
0ALV_ROD
 10
697974.50
 20
8615999.00
  0
VERTEX
  8
0ALV_ROD
 10
697911.06
 20
8615999.00
  0
VERTEX
  8
0ALV_ROD
 10
697847.63
 20
8616000.00
  0
VERTEX
  8
0ALV_ROD
 10
697784.13
 20
8616001.00
  0
VERTEX
  8
0ALV_ROD
 10
697751.75
 20
8615937.00
  0
VERTEX
  8
0ALV_ROD
 10
697687.94
 20
8615906.00
  0
VERTEX
  8
0ALV_ROD
 10
697623.81
 20
8615843.00
  0
VERTEX
  8
0ALV_ROD
 10
697527.56
 20
8615749.00
  0
VERTEX
  8
0ALV_ROD
 10
697463.81
 20
8615717.00
  0
VERTEX
  8
0ALV_ROD
 10
697431.38
 20
8615654.00
  0
VERTEX
  8
0ALV_ROD
 10
697399.00
 20
8615591.00
  0
VERTEX
  8
0ALV_ROD
 10
697335.19
 20
8615560.00
  0
VERTEX
  8
0ALV_ROD
 10
697271.06
 20
8615497.00
  0
VERTEX
  8
0ALV_ROD
 10
697206.88
 20
8615434.00
  0
VERTEX
  8
0ALV_ROD
 10
697142.75
 20
8615371.00
  0
VERTEX
  8
0ALV_ROD
 10
697078.63
 20
8615307.00
  0
VERTEX
  8
0ALV_ROD
 10
697046.19
 20
8615244.00
  0
VERTEX
  8
0ALV_ROD
 10
696982.44
 20
8615213.00
  0
VERTEX
  8
0ALV_ROD
 10
696950.00
 20
8615150.00
  0
VERTEX
  8
0ALV_ROD
 10
696885.88
 20
8615087.00
  0
VERTEX
  8
0ALV_ROD
 10
696822.06
 20
8615055.00
  0
VERTEX
  8
0ALV_ROD
 10
696726.56
 20
8615025.00
  0
VERTEX
  8
0ALV_ROD
 10
696663.06
 20
8615025.00
  0
VERTEX
  8
0ALV_ROD
 10
696598.94
 20
8614962.00
  0
VERTEX
  8
0ALV_ROD
 10
696535.50
 20
8614963.00
  0
VERTEX
  8
0ALV_ROD
 10
696503.06
 20
8614900.00
  0
VERTEX
  8
0ALV_ROD
 10
696407.88
 20
8614901.00
  0
VERTEX
  8
0ALV_ROD
 10
696344.13
 20
8614869.00
  0
VERTEX
  8
0ALV_ROD
 10
696280.31
 20
8614838.00
  0
VERTEX
  8
0ALV_ROD
 10
696216.88
 20
8614839.00
  0
VERTEX
  8
0ALV_ROD
 10
696153.38
 20
8614840.00
  0
VERTEX
  8
0ALV_ROD
 10
696057.88
 20
8614809.00
  0
VERTEX
  8
0ALV_ROD
 10
695994.38
 20
8614810.00
  0
VERTEX
  8
0ALV_ROD
 10
695930.94
 20
8614810.00
  0
VERTEX
  8
0ALV_ROD
 10
695867.50
 20
8614811.00
  0
VERTEX
  8
0ALV_ROD
 10
695771.94
 20
8614780.00
  0
VERTEX
  8
0ALV_ROD
 10
695708.50
 20
8614781.00
  0
VERTEX
  8
0ALV_ROD
 10
695676.13
 20
8614717.00
  0
VERTEX
  8
0ALV_ROD
 10
695612.31
 20
8614686.00
  0
VERTEX
  8
0ALV_ROD
 10
695548.50
 20
8614655.00
  0
VERTEX
  8
0ALV_ROD
 10
695484.00
 20
8614560.00
  0
VERTEX
  8
0ALV_ROD
 10
695388.50
 20
8614529.00
  0
VERTEX
  8
0ALV_ROD
 10
695324.69
 20
8614498.00
  0
VERTEX
  8
0ALV_ROD
 10
695324.00
 20
8614435.00
  0
VERTEX
  8
0ALV_ROD
 10
695228.50
 20
8614404.00
  0
VERTEX
  8
0ALV_ROD
 10
695164.69
 20
8614373.00
  0
VERTEX
  8
0ALV_ROD
 10
695100.88
 20
8614341.00
  0
VERTEX
  8
0ALV_ROD
 10
695037.13
 20
8614310.00
  0
VERTEX
  8
0ALV_ROD
 10
694973.31
 20
8614279.00
  0
VERTEX
  8
0ALV_ROD
 10
694909.50
 20
8614248.00
  0
VERTEX
  8
0ALV_ROD
 10
694814.00
 20
8614217.00
  0
VERTEX
  8
0ALV_ROD
 10
694750.50
 20
8614218.00
  0
VERTEX
  8
0ALV_ROD
 10
694686.69
 20
8614187.00
  0
VERTEX
  8
0ALV_ROD
 10
694623.25
 20
8614187.00
  0
VERTEX
  8
0ALV_ROD
 10
694559.44
 20
8614156.00
  0
VERTEX
  8
0ALV_ROD
 10
694496.00
 20
8614157.00
  0
VERTEX
  8
0ALV_ROD
 10
694400.81
 20
8614158.00
  0
VERTEX
  8
0ALV_ROD
 10
694337.38
 20
8614159.00
  0
VERTEX
  8
0ALV_ROD
 10
694273.88
 20
8614159.00
  0
VERTEX
  8
0ALV_ROD
 10
694210.44
 20
8614160.00
  0
VERTEX
  8
0ALV_ROD
 10
694115.25
 20
8614161.00
  0
VERTEX
  8
0ALV_ROD
 10
694051.81
 20
8614162.00
  0
VERTEX
  8
0ALV_ROD
 10
693988.00
 20
8614131.00
  0
VERTEX
  8
0ALV_ROD
 10
693924.56
 20
8614131.00
  0
VERTEX
  8
0ALV_ROD
 10
693860.75
 20
8614100.00
  0
VERTEX
  8
0ALV_ROD
 10
693797.31
 20
8614101.00
  0
VERTEX
  8
0ALV_ROD
 10
693733.50
 20
8614070.00
  0
VERTEX
  8
0ALV_ROD
 10
693669.69
 20
8614039.00
  0
VERTEX
  8
0ALV_ROD
 10
693605.88
 20
8614007.00
  0
VERTEX
  8
0ALV_ROD
 10
693542.13
 20
8613976.00
  0
VERTEX
  8
0ALV_ROD
 10
693478.31
 20
8613945.00
  0
VERTEX
  8
0ALV_ROD
 10
693414.50
 20
8613914.00
  0
VERTEX
  8
0ALV_ROD
 10
693350.69
 20
8613883.00
  0
VERTEX
  8
0ALV_ROD
 10
693286.94
 20
8613852.00
  0
VERTEX
  8
0ALV_ROD
 10
693223.13
 20
8613820.00
  0
VERTEX
  8
0ALV_ROD
 10
693159.31
 20
8613789.00
  0
VERTEX
  8
0ALV_ROD
 10
693064.13
 20
8613790.00
  0
VERTEX
  8
0ALV_ROD
 10
693000.69
 20
8613791.00
  0
VERTEX
  8
0ALV_ROD
 10
692905.50
 20
8613792.00
  0
VERTEX
  8
0ALV_ROD
 10
692842.00
 20
8613793.00
  0
VERTEX
  8
0ALV_ROD
 10
692746.88
 20
8613794.00
  0
VERTEX
  8
0ALV_ROD
 10
692683.38
 20
8613794.00
  0
VERTEX
  8
0ALV_ROD
 10
692619.94
 20
8613795.00
  0
VERTEX
  8
0ALV_ROD
 10
692556.81
 20
8613828.00
  0
VERTEX
  8
0ALV_ROD
 10
692493.38
 20
8613828.00
  0
VERTEX
  8
0ALV_ROD
 10
692429.88
 20
8613829.00
  0
VERTEX
  8
0ALV_ROD
 10
692366.06
 20
8613798.00
  0
VERTEX
  8
0ALV_ROD
 10
692270.56
 20
8613767.00
  0
VERTEX
  8
0ALV_ROD
 10
692207.13
 20
8613768.00
  0
VERTEX
  8
0ALV_ROD
 10
692111.94
 20
8613769.00
  0
VERTEX
  8
0ALV_ROD
 10
692048.13
 20
8613738.00
  0
VERTEX
  8
0ALV_ROD
 10
691984.69
 20
8613738.00
  0
VERTEX
  8
0ALV_ROD
 10
691889.13
 20
8613708.00
  0
VERTEX
  8
0ALV_ROD
 10
691825.31
 20
8613676.00
  0
VERTEX
  8
0ALV_ROD
 10
691761.88
 20
8613677.00
  0
VERTEX
  8
0ALV_ROD
 10
691698.44
 20
8613678.00
  0
VERTEX
  8
0ALV_ROD
 10
691634.63
 20
8613647.00
  0
VERTEX
  8
0ALV_ROD
 10
691571.19
 20
8613647.00
  0
VERTEX
  8
0ALV_ROD
 10
691507.69
 20
8613648.00
  0
VERTEX
  8
0ALV_ROD
 10
691443.94
 20
8613617.00
  0
VERTEX
  8
0ALV_ROD
 10
691380.44
 20
8613618.00
  0
VERTEX
  8
0ALV_ROD
 10
691317.00
 20
8613618.00
  0
VERTEX
  8
0ALV_ROD
 10
691221.50
 20
8613587.00
  0
VERTEX
  8
0ALV_ROD
 10
691158.00
 20
8613588.00
  0
VERTEX
  8
0ALV_ROD
 10
691094.56
 20
8613589.00
  0
VERTEX
  8
0ALV_ROD
 10
691031.13
 20
8613590.00
  0
VERTEX
  8
0ALV_ROD
 10
690967.63
 20
8613590.00
  0
VERTEX
  8
0ALV_ROD
 10
690904.19
 20
8613591.00
  0
VERTEX
  8
0ALV_ROD
 10
690840.38
 20
8613560.00
  0
VERTEX
  8
0ALV_ROD
 10
690776.94
 20
8613560.00
  0
VERTEX
  8
0ALV_ROD
 10
690713.50
 20
8613561.00
  0
VERTEX
  8
0ALV_ROD
 10
690650.00
 20
8613562.00
  0
VERTEX
  8
0ALV_ROD
 10
690586.56
 20
8613562.00
  0
VERTEX
  8
0ALV_ROD
 10
690523.13
 20
8613563.00
  0
VERTEX
  8
0ALV_ROD
 10
690459.63
 20
8613564.00
  0
VERTEX
  8
0ALV_ROD
 10
690396.50
 20
8613596.00
  0
VERTEX
  8
0ALV_ROD
 10
690333.06
 20
8613597.00
  0
VERTEX
  8
0ALV_ROD
 10
690269.63
 20
8613598.00
  0
VERTEX
  8
0ALV_ROD
 10
690206.13
 20
8613599.00
  0
VERTEX
  8
0ALV_ROD
 10
690142.69
 20
8613599.00
  0
VERTEX
  8
0ALV_ROD
 10
690079.56
 20
8613632.00
  0
VERTEX
  8
0ALV_ROD
 10
690016.44
 20
8613664.00
  0
VERTEX
  8
0ALV_ROD
 10
689953.00
 20
8613665.00
  0
VERTEX
  8
0ALV_ROD
 10
689889.56
 20
8613666.00
  0
VERTEX
  8
0ALV_ROD
 10
689826.06
 20
8613666.00
  0
VERTEX
  8
0ALV_ROD
 10
689762.63
 20
8613667.00
  0
VERTEX
  8
0ALV_ROD
 10
689699.19
 20
8613668.00
  0
VERTEX
  8
0ALV_ROD
 10
689635.69
 20
8613668.00
  0
VERTEX
  8
0ALV_ROD
 10
689572.56
 20
8613701.00
  0
VERTEX
  8
0ALV_ROD
 10
689509.13
 20
8613702.00
  0
VERTEX
  8
0ALV_ROD
 10
689445.69
 20
8613702.00
  0
VERTEX
  8
0ALV_ROD
 10
689350.50
 20
8613703.00
  0
VERTEX
  8
0ALV_ROD
 10
689287.00
 20
8613704.00
  0
VERTEX
  8
0ALV_ROD
 10
689223.56
 20
8613705.00
  0
VERTEX
  8
0ALV_ROD
 10
689160.13
 20
8613706.00
  0
VERTEX
  8
0ALV_ROD
 10
689096.31
 20
8613674.00
  0
VERTEX
  8
0ALV_ROD
 10
689032.88
 20
8613675.00
  0
VERTEX
  8
0ALV_ROD
 10
688969.06
 20
8613644.00
  0
VERTEX
  8
0ALV_ROD
 10
688905.63
 20
8613645.00
  0
VERTEX
  8
0ALV_ROD
 10
688842.13
 20
8613645.00
  0
VERTEX
  8
0ALV_ROD
 10
688746.63
 20
8613614.00
  0
VERTEX
  8
0ALV_ROD
 10
688682.81
 20
8613583.00
  0
VERTEX
  8
0ALV_ROD
 10
688619.00
 20
8613552.00
  0
VERTEX
  8
0ALV_ROD
 10
688555.25
 20
8613521.00
  0
VERTEX
  8
0ALV_ROD
 10
688491.75
 20
8613522.00
  0
VERTEX
  8
0ALV_ROD
 10
688427.63
 20
8613459.00
  0
VERTEX
  8
0ALV_ROD
 10
688332.13
 20
8613428.00
  0
VERTEX
  8
0ALV_ROD
 10
688268.00
 20
8613365.00
  0
VERTEX
  8
0ALV_ROD
 10
688204.19
 20
8613334.00
  0
VERTEX
  8
0ALV_ROD
 10
688140.38
 20
8613303.00
  0
VERTEX
  8
0ALV_ROD
 10
688107.94
 20
8613239.00
  0
VERTEX
  8
0ALV_ROD
 10
688043.81
 20
8613176.00
  0
VERTEX
  8
0ALV_ROD
 10
687979.38
 20
8613081.00
  0
VERTEX
  8
0ALV_ROD
 10
687946.94
 20
8613018.00
  0
VERTEX
  8
0ALV_ROD
 10
687882.81
 20
8612955.00
  0
VERTEX
  8
0ALV_ROD
 10
687850.38
 20
8612892.00
  0
VERTEX
  8
0ALV_ROD
 10
687786.63
 20
8612860.00
  0
VERTEX
  8
0ALV_ROD
 10
687722.44
 20
8612797.00
  0
VERTEX
  8
0ALV_ROD
 10
687626.63
 20
8612735.00
  0
VERTEX
  8
0ALV_ROD
 10
687593.88
 20
8612639.00
  0
VERTEX
  8
0ALV_ROD
 10
687530.06
 20
8612608.00
  0
VERTEX
  8
0ALV_ROD
 10
687529.00
 20
8612513.00
  0
VERTEX
  8
0ALV_ROD
 10
687496.25
 20
8612417.00
  0
VERTEX
  8
0ALV_ROD
 10
687463.88
 20
8612354.00
  0
VERTEX
  8
0ALV_ROD
 10
687431.44
 20
8612291.00
  0
VERTEX
  8
0ALV_ROD
 10
687368.00
 20
8612291.00
  0
VERTEX
  8
0ALV_ROD
 10
687304.56
 20
8612292.00
  0
VERTEX
  8
0ALV_ROD
 10
687240.44
 20
8612229.00
  0
VERTEX
  8
0ALV_ROD
 10
687176.94
 20
8612230.00
  0
VERTEX
  8
0ALV_ROD
 10
687112.50
 20
8612135.00
  0
VERTEX
  8
0ALV_ROD
 10
687016.94
 20
8612104.00
  0
VERTEX
  8
0ALV_ROD
 10
686952.81
 20
8612041.00
  0
VERTEX
  8
0ALV_ROD
 10
686857.31
 20
8612010.00
  0
VERTEX
  8
0ALV_ROD
 10
686793.13
 20
8611947.00
  0
VERTEX
  8
0ALV_ROD
 10
686697.31
 20
8611885.00
  0
VERTEX
  8
0ALV_ROD
 10
686601.44
 20
8611822.00
  0
VERTEX
  8
0ALV_ROD
 10
686505.56
 20
8611759.00
  0
VERTEX
  8
0ALV_ROD
 10
686441.44
 20
8611696.00
  0
VERTEX
  8
0ALV_ROD
 10
686345.56
 20
8611634.00
  0
VERTEX
  8
0ALV_ROD
 10
686249.69
 20
8611571.00
  0
VERTEX
  8
0ALV_ROD
 10
686217.25
 20
8611508.00
  0
VERTEX
  8
0ALV_ROD
 10
686184.88
 20
8611444.00
  0
VERTEX
  8
0ALV_ROD
 10
686120.75
 20
8611381.00
  0
VERTEX
  8
0ALV_ROD
 10
686088.31
 20
8611318.00
  0
VERTEX
  8
0ALV_ROD
 10
686023.81
 20
8611223.00
  0
VERTEX
  8
0ALV_ROD
 10
685960.06
 20
8611192.00
  0
VERTEX
  8
0ALV_ROD
 10
685927.63
 20
8611128.00
  0
VERTEX
  8
0ALV_ROD
 10
685863.50
 20
8611065.00
  0
VERTEX
  8
0ALV_ROD
 10
685831.06
 20
8611002.00
  0
VERTEX
  8
0ALV_ROD
 10
685798.69
 20
8610939.00
  0
VERTEX
  8
0ALV_ROD
 10
685766.25
 20
8610875.00
  0
VERTEX
  8
0ALV_ROD
 10
685733.88
 20
8610812.00
  0
VERTEX
  8
0ALV_ROD
 10
685669.75
 20
8610749.00
  0
VERTEX
  8
0ALV_ROD
 10
685637.31
 20
8610686.00
  0
VERTEX
  8
0ALV_ROD
 10
685604.94
 20
8610622.00
  0
VERTEX
  8
0ALV_ROD
 10
685572.13
 20
8610527.00
  0
VERTEX
  8
0ALV_ROD
 10
685508.38
 20
8610496.00
  0
VERTEX
  8
0ALV_ROD
 10
685412.50
 20
8610433.00
  0
VERTEX
  8
0ALV_ROD
 10
685380.06
 20
8610370.00
  0
VERTEX
  8
0ALV_ROD
 10
685316.31
 20
8610339.00
  0
VERTEX
  8
0ALV_ROD
 10
685252.50
 20
8610307.00
  0
VERTEX
  8
0ALV_ROD
 10
685188.69
 20
8610276.00
  0
VERTEX
  8
0ALV_ROD
 10
685124.88
 20
8610245.00
  0
VERTEX
  8
0ALV_ROD
 10
685061.13
 20
8610214.00
  0
VERTEX
  8
0ALV_ROD
 10
684997.63
 20
8610215.00
  0
VERTEX
  8
0ALV_ROD
 10
684901.75
 20
8610152.00
  0
VERTEX
  8
0ALV_ROD
 10
684838.00
 20
8610121.00
  0
VERTEX
  8
0ALV_ROD
 10
684742.81
 20
8610122.00
  0
VERTEX
  8
0ALV_ROD
 10
684679.00
 20
8610091.00
  0
VERTEX
  8
0ALV_ROD
 10
684615.19
 20
8610060.00
  0
VERTEX
  8
0ALV_ROD
 10
684551.06
 20
8609997.00
  0
VERTEX
  8
0ALV_ROD
 10
684518.63
 20
8609933.00
  0
VERTEX
  8
0ALV_ROD
 10
684486.25
 20
8609870.00
  0
VERTEX
  8
0ALV_ROD
 10
684453.81
 20
8609806.00
  0
VERTEX
  8
0ALV_ROD
 10
684452.81
 20
8609711.00
  0
VERTEX
  8
0ALV_ROD
 10
684388.69
 20
8609648.00
  0
VERTEX
  8
0ALV_ROD
 10
684356.25
 20
8609584.00
  0
VERTEX
  8
0ALV_ROD
 10
684323.88
 20
8609521.00
  0
VERTEX
  8
0ALV_ROD
 10
684259.69
 20
8609458.00
  0
VERTEX
  8
0ALV_ROD
 10
684195.25
 20
8609363.00
  0
VERTEX
  8
0ALV_ROD
 10
684131.44
 20
8609332.00
  0
VERTEX
  8
0ALV_ROD
 10
684130.75
 20
8609268.00
  0
VERTEX
  8
0ALV_ROD
 10
684066.94
 20
8609237.00
  0
VERTEX
  8
0ALV_ROD
 10
684002.81
 20
8609174.00
  0
VERTEX
  8
0ALV_ROD
 10
683939.06
 20
8609143.00
  0
VERTEX
  8
0ALV_ROD
 10
683938.38
 20
8609079.00
  0
VERTEX
  8
0ALV_ROD
 10
683874.56
 20
8609048.00
  0
VERTEX
  8
0ALV_ROD
 10
683810.06
 20
8608953.00
  0
VERTEX
  8
0ALV_ROD
 10
683745.94
 20
8608890.00
  0
VERTEX
  8
0ALV_ROD
 10
683745.25
 20
8608827.00
  0
VERTEX
  8
0ALV_ROD
 10
683681.81
 20
8608827.00
  0
VERTEX
  8
0ALV_ROD
 10
683617.69
 20
8608764.00
  0
VERTEX
  8
0ALV_ROD
 10
683553.50
 20
8608701.00
  0
VERTEX
  8
0ALV_ROD
 10
683489.38
 20
8608638.00
  0
VERTEX
  8
0ALV_ROD
 10
683393.19
 20
8608544.00
  0
VERTEX
  8
0ALV_ROD
 10
683360.44
 20
8608448.00
  0
VERTEX
  8
0ALV_ROD
 10
683296.63
 20
8608417.00
  0
VERTEX
  8
0ALV_ROD
 10
683263.88
 20
8608322.00
  0
VERTEX
  8
0ALV_ROD
 10
683168.00
 20
8608259.00
  0
VERTEX
  8
0ALV_ROD
 10
683104.25
 20
8608228.00
  0
VERTEX
  8
0ALV_ROD
 10
683071.81
 20
8608165.00
  0
VERTEX
  8
0ALV_ROD
 10
683008.00
 20
8608134.00
  0
VERTEX
  8
0ALV_ROD
 10
682975.63
 20
8608070.00
  0
VERTEX
  8
0ALV_ROD
 10
682912.13
 20
8608071.00
  0
VERTEX
  8
0ALV_ROD
 10
682847.69
 20
8607976.00
  0
VERTEX
  8
0ALV_ROD
 10
682720.06
 20
8607914.00
  0
VERTEX
  8
0ALV_ROD
 10
682655.94
 20
8607851.00
  0
VERTEX
  8
0ALV_ROD
 10
682560.44
 20
8607820.00
  0
VERTEX
  8
0ALV_ROD
 10
682528.00
 20
8607757.00
  0
VERTEX
  8
0ALV_ROD
 10
682495.63
 20
8607693.00
  0
VERTEX
  8
0ALV_ROD
 10
682432.13
 20
8607694.00
  0
VERTEX
  8
0ALV_ROD
 10
682368.38
 20
8607663.00
  0
VERTEX
  8
0ALV_ROD
 10
682304.56
 20
8607632.00
  0
VERTEX
  8
0ALV_ROD
 10
682240.75
 20
8607600.00
  0
VERTEX
  8
0ALV_ROD
 10
682176.94
 20
8607569.00
  0
VERTEX
  8
0ALV_ROD
 10
682144.56
 20
8607506.00
  0
VERTEX
  8
0ALV_ROD
 10
682081.06
 20
8607507.00
  0
VERTEX
  8
0ALV_ROD
 10
682080.38
 20
8607443.00
  0
VERTEX
  8
0ALV_ROD
 10
682016.63
 20
8607412.00
  0
VERTEX
  8
0ALV_ROD
 10
681984.19
 20
8607348.00
  0
VERTEX
  8
0ALV_ROD
 10
681920.75
 20
8607349.00
  0
VERTEX
  8
0ALV_ROD
 10
681888.31
 20
8607286.00
  0
VERTEX
  8
0ALV_ROD
 10
681855.94
 20
8607222.00
  0
VERTEX
  8
0ALV_ROD
 10
681792.13
 20
8607191.00
  0
VERTEX
  8
0ALV_ROD
 10
681728.31
 20
8607160.00
  0
VERTEX
  8
0ALV_ROD
 10
681695.94
 20
8607097.00
  0
VERTEX
  8
0ALV_ROD
 10
681663.50
 20
8607033.00
  0
VERTEX
  8
0ALV_ROD
 10
681631.13
 20
8606970.00
  0
VERTEX
  8
0ALV_ROD
 10
681566.63
 20
8606875.00
  0
VERTEX
  8
0ALV_ROD
 10
681502.50
 20
8606812.00
  0
VERTEX
  8
0ALV_ROD
 10
681438.38
 20
8606749.00
  0
VERTEX
  8
0ALV_ROD
 10
681342.50
 20
8606686.00
  0
VERTEX
  8
0ALV_ROD
 10
681310.06
 20
8606623.00
  0
VERTEX
  8
0ALV_ROD
 10
681277.69
 20
8606560.00
  0
VERTEX
  8
0ALV_ROD
 10
681245.25
 20
8606496.00
  0
VERTEX
  8
0ALV_ROD
 10
681244.56
 20
8606433.00
  0
VERTEX
  8
0ALV_ROD
 10
681212.19
 20
8606369.00
  0
VERTEX
  8
0ALV_ROD
 10
681179.44
 20
8606274.00
  0
VERTEX
  8
0ALV_ROD
 10
681178.06
 20
8606147.00
  0
VERTEX
  8
0ALV_ROD
 10
681145.63
 20
8606083.00
  0
VERTEX
  8
0ALV_ROD
 10
681145.00
 20
8606019.00
  0
VERTEX
  8
0ALV_ROD
 10
681112.25
 20
8605924.00
  0
VERTEX
  8
0ALV_ROD
 10
681079.50
 20
8605829.00
  0
VERTEX
  8
0ALV_ROD
 10
681046.75
 20
8605734.00
  0
VERTEX
  8
0ALV_ROD
 10
681014.31
 20
8605670.00
  0
VERTEX
  8
0ALV_ROD
 10
681013.63
 20
8605607.00
  0
VERTEX
  8
0ALV_ROD
 10
681012.63
 20
8605511.00
  0
VERTEX
  8
0ALV_ROD
 10
680979.88
 20
8605416.00
  0
VERTEX
  8
0ALV_ROD
 10
680947.44
 20
8605353.00
  0
VERTEX
  8
0ALV_ROD
 10
680946.81
 20
8605289.00
  0
VERTEX
  8
0ALV_ROD
 10
680914.38
 20
8605225.00
  0
VERTEX
  8
0ALV_ROD
 10
680913.38
 20
8605130.00
  0
VERTEX
  8
0ALV_ROD
 10
680912.69
 20
8605066.00
  0
VERTEX
  8
0ALV_ROD
 10
680880.25
 20
8605003.00
  0
VERTEX
  8
0ALV_ROD
 10
680879.25
 20
8604907.00
  0
VERTEX
  8
0ALV_ROD
 10
680846.81
 20
8604844.00
  0
VERTEX
  8
0ALV_ROD
 10
680846.19
 20
8604780.00
  0
VERTEX
  8
0ALV_ROD
 10
680813.75
 20
8604717.00
  0
VERTEX
  8
0ALV_ROD
 10
680812.75
 20
8604621.00
  0
VERTEX
  8
0ALV_ROD
 10
680780.31
 20
8604558.00
  0
VERTEX
  8
0ALV_ROD
 10
680716.50
 20
8604527.00
  0
VERTEX
  8
0ALV_ROD
 10
680653.75
 20
8604591.00
  0
VERTEX
  8
0ALV_ROD
 10
680590.31
 20
8604592.00
  0
VERTEX
  8
0ALV_ROD
 10
680559.25
 20
8604656.00
  0
VERTEX
  8
0ALV_ROD
 10
680496.13
 20
8604688.00
  0
VERTEX
  8
0ALV_ROD
 10
680465.06
 20
8604752.00
  0
VERTEX
  8
0ALV_ROD
 10
680401.63
 20
8604753.00
  0
VERTEX
  8
0ALV_ROD
 10
680338.19
 20
8604754.00
  0
VERTEX
  8
0ALV_ROD
 10
680275.06
 20
8604786.00
  0
VERTEX
  8
0ALV_ROD
 10
680211.56
 20
8604787.00
  0
VERTEX
  8
0ALV_ROD
 10
680148.13
 20
8604788.00
  0
VERTEX
  8
0ALV_ROD
 10
680084.69
 20
8604789.00
  0
VERTEX
  8
0ALV_ROD
 10
680021.19
 20
8604789.00
  0
VERTEX
  8
0ALV_ROD
 10
679957.75
 20
8604790.00
  0
VERTEX
  8
0ALV_ROD
 10
679893.94
 20
8604759.00
  0
VERTEX
  8
0ALV_ROD
 10
679830.50
 20
8604759.00
  0
VERTEX
  8
0ALV_ROD
 10
679735.00
 20
8604729.00
  0
VERTEX
  8
0ALV_ROD
 10
679671.50
 20
8604729.00
  0
VERTEX
  8
0ALV_ROD
 10
679607.69
 20
8604698.00
  0
VERTEX
  8
0ALV_ROD
 10
679543.94
 20
8604667.00
  0
VERTEX
  8
0ALV_ROD
 10
679480.13
 20
8604636.00
  0
VERTEX
  8
0ALV_ROD
 10
679416.31
 20
8604605.00
  0
VERTEX
  8
0ALV_ROD
 10
679352.50
 20
8604574.00
  0
VERTEX
  8
0ALV_ROD
 10
679289.06
 20
8604574.00
  0
VERTEX
  8
0ALV_ROD
 10
679225.25
 20
8604543.00
  0
VERTEX
  8
0ALV_ROD
 10
679161.44
 20
8604512.00
  0
VERTEX
  8
0ALV_ROD
 10
679129.06
 20
8604448.00
  0
VERTEX
  8
0ALV_ROD
 10
679065.63
 20
8604449.00
  0
VERTEX
  8
0ALV_ROD
 10
679033.19
 20
8604386.00
  0
VERTEX
  8
0ALV_ROD
 10
678969.38
 20
8604355.00
  0
VERTEX
  8
0ALV_ROD
 10
678905.63
 20
8604324.00
  0
VERTEX
  8
0ALV_ROD
 10
678841.81
 20
8604292.00
  0
VERTEX
  8
0ALV_ROD
 10
678778.00
 20
8604261.00
  0
VERTEX
  8
0ALV_ROD
 10
678714.19
 20
8604230.00
  0
VERTEX
  8
0ALV_ROD
 10
678650.44
 20
8604199.00
  0
VERTEX
  8
0ALV_ROD
 10
678586.63
 20
8604168.00
  0
VERTEX
  8
0ALV_ROD
 10
678522.81
 20
8604137.00
  0
VERTEX
  8
0ALV_ROD
 10
678427.31
 20
8604106.00
  0
VERTEX
  8
0ALV_ROD
 10
678363.50
 20
8604075.00
  0
VERTEX
  8
0ALV_ROD
 10
678299.69
 20
8604043.00
  0
VERTEX
  8
0ALV_ROD
 10
678235.88
 20
8604012.00
  0
VERTEX
  8
0ALV_ROD
 10
677986.25
 20
8603958.00
  0
SEQEND
  8
0ALV_ROD
  0
POLYLINE
  8
0ALV_ROD
 66
     1
  0
VERTEX
  8
0ALV_ROD
 10
677986.25
 20
8603958.00
  0
VERTEX
  8
0ALV_ROD
 10
677696.88
 20
8604050.00
  0
VERTEX
  8
0ALV_ROD
 10
677633.38
 20
8604051.00
  0
VERTEX
  8
0ALV_ROD
 10
677538.56
 20
8604084.00
  0
VERTEX
  8
0ALV_ROD
 10
677475.06
 20
8604084.00
  0
VERTEX
  8
0ALV_ROD
 10
677411.63
 20
8604085.00
  0
VERTEX
  8
0ALV_ROD
 10
677380.56
 20
8604149.00
  0
VERTEX
  8
0ALV_ROD
 10
677317.13
 20
8604150.00
  0
VERTEX
  8
0ALV_ROD
 10
677222.25
 20
8604183.00
  0
VERTEX
  8
0ALV_ROD
 10
677158.81
 20
8604183.00
  0
VERTEX
  8
0ALV_ROD
 10
677095.69
 20
8604216.00
  0
VERTEX
  8
0ALV_ROD
 10
677032.25
 20
8604217.00
  0
VERTEX
  8
0ALV_ROD
 10
676968.75
 20
8604217.00
  0
VERTEX
  8
0ALV_ROD
 10
676905.31
 20
8604218.00
  0
VERTEX
  8
0ALV_ROD
 10
676841.88
 20
8604219.00
  0
VERTEX
  8
0ALV_ROD
 10
676778.38
 20
8604219.00
  0
VERTEX
  8
0ALV_ROD
 10
676714.94
 20
8604220.00
  0
VERTEX
  8
0ALV_ROD
 10
676651.50
 20
8604221.00
  0
VERTEX
  8
0ALV_ROD
 10
676588.06
 20
8604221.00
  0
VERTEX
  8
0ALV_ROD
 10
676524.56
 20
8604222.00
  0
VERTEX
  8
0ALV_ROD
 10
676461.13
 20
8604223.00
  0
VERTEX
  8
0ALV_ROD
 10
676365.56
 20
8604192.00
  0
VERTEX
  8
0ALV_ROD
 10
676302.13
 20
8604193.00
  0
VERTEX
  8
0ALV_ROD
 10
676238.69
 20
8604193.00
  0
VERTEX
  8
0ALV_ROD
 10
676175.19
 20
8604194.00
  0
VERTEX
  8
0ALV_ROD
 10
676080.00
 20
8604195.00
  0
VERTEX
  8
0ALV_ROD
 10
676016.25
 20
8604164.00
  0
VERTEX
  8
0ALV_ROD
 10
675952.75
 20
8604165.00
  0
VERTEX
  8
0ALV_ROD
 10
675889.31
 20
8604165.00
  0
VERTEX
  8
0ALV_ROD
 10
675825.88
 20
8604166.00
  0
VERTEX
  8
0ALV_ROD
 10
675762.38
 20
8604167.00
  0
VERTEX
  8
0ALV_ROD
 10
675698.94
 20
8604167.00
  0
VERTEX
  8
0ALV_ROD
 10
675635.50
 20
8604168.00
  0
VERTEX
  8
0ALV_ROD
 10
675572.00
 20
8604169.00
  0
VERTEX
  8
0ALV_ROD
 10
675508.56
 20
8604170.00
  0
VERTEX
  8
0ALV_ROD
 10
675445.13
 20
8604170.00
  0
VERTEX
  8
0ALV_ROD
 10
675382.00
 20
8604203.00
  0
VERTEX
  8
0ALV_ROD
 10
675287.13
 20
8604236.00
  0
VERTEX
  8
0ALV_ROD
 10
675223.69
 20
8604236.00
  0
VERTEX
  8
0ALV_ROD
 10
675160.25
 20
8604237.00
  0
VERTEX
  8
0ALV_ROD
 10
675097.13
 20
8604270.00
  0
VERTEX
  8
0ALV_ROD
 10
675033.69
 20
8604270.00
  0
VERTEX
  8
0ALV_ROD
 10
674970.56
 20
8604303.00
  0
VERTEX
  8
0ALV_ROD
 10
674907.06
 20
8604304.00
  0
VERTEX
  8
0ALV_ROD
 10
674843.63
 20
8604304.00
  0
VERTEX
  8
0ALV_ROD
 10
674780.19
 20
8604305.00
  0
VERTEX
  8
0ALV_ROD
 10
674717.06
 20
8604337.00
  0
VERTEX
  8
0ALV_ROD
 10
674653.56
 20
8604338.00
  0
VERTEX
  8
0ALV_ROD
 10
674590.81
 20
8604403.00
  0
VERTEX
  8
0ALV_ROD
 10
674527.69
 20
8604435.00
  0
VERTEX
  8
0ALV_ROD
 10
674528.38
 20
8604499.00
  0
VERTEX
  8
0ALV_ROD
 10
674465.56
 20
8604563.00
  0
VERTEX
  8
0ALV_ROD
 10
674403.13
 20
8604659.00
  0
VERTEX
  8
0ALV_ROD
 10
674372.13
 20
8604724.00
  0
VERTEX
  8
0ALV_ROD
 10
674309.69
 20
8604820.00
  0
VERTEX
  8
0ALV_ROD
 10
674310.69
 20
8604915.00
  0
VERTEX
  8
0ALV_ROD
 10
674311.38
 20
8604979.00
  0
VERTEX
  8
0ALV_ROD
 10
674247.94
 20
8604980.00
  0
VERTEX
  8
0ALV_ROD
 10
674217.19
 20
8605076.00
  0
VERTEX
  8
0ALV_ROD
 10
674186.13
 20
8605140.00
  0
VERTEX
  8
0ALV_ROD
 10
674123.38
 20
8605204.00
  0
VERTEX
  8
0ALV_ROD
 10
674060.25
 20
8605237.00
  0
VERTEX
  8
0ALV_ROD
 10
673997.13
 20
8605269.00
  0
VERTEX
  8
0ALV_ROD
 10
673934.00
 20
8605302.00
  0
VERTEX
  8
0ALV_ROD
 10
673870.88
 20
8605334.00
  0
VERTEX
  8
0ALV_ROD
 10
673807.75
 20
8605367.00
  0
VERTEX
  8
0ALV_ROD
 10
673712.94
 20
8605400.00
  0
VERTEX
  8
0ALV_ROD
 10
673681.88
 20
8605464.00
  0
VERTEX
  8
0ALV_ROD
 10
673618.44
 20
8605465.00
  0
VERTEX
  8
0ALV_ROD
 10
673587.38
 20
8605529.00
  0
VERTEX
  8
0ALV_ROD
 10
673523.94
 20
8605529.00
  0
VERTEX
  8
0ALV_ROD
 10
673492.88
 20
8605593.00
  0
VERTEX
  8
0ALV_ROD
 10
673429.75
 20
8605626.00
  0
VERTEX
  8
0ALV_ROD
 10
673366.63
 20
8605658.00
  0
VERTEX
  8
0ALV_ROD
 10
673303.50
 20
8605691.00
  0
VERTEX
  8
0ALV_ROD
 10
673240.38
 20
8605724.00
  0
VERTEX
  8
0ALV_ROD
 10
673177.31
 20
8605756.00
  0
VERTEX
  8
0ALV_ROD
 10
673114.50
 20
8605821.00
  0
VERTEX
  8
0ALV_ROD
 10
673083.44
 20
8605885.00
  0
VERTEX
  8
0ALV_ROD
 10
673020.31
 20
8605917.00
  0
VERTEX
  8
0ALV_ROD
 10
672956.88
 20
8605918.00
  0
VERTEX
  8
0ALV_ROD
 10
672925.81
 20
8605982.00
  0
VERTEX
  8
0ALV_ROD
 10
672862.69
 20
8606014.00
  0
VERTEX
  8
0ALV_ROD
 10
672799.25
 20
8606015.00
  0
VERTEX
  8
0ALV_ROD
 10
672735.81
 20
8606016.00
  0
VERTEX
  8
0ALV_ROD
 10
672673.00
 20
8606080.00
  0
VERTEX
  8
0ALV_ROD
 10
672609.88
 20
8606113.00
  0
VERTEX
  8
0ALV_ROD
 10
672546.44
 20
8606114.00
  0
VERTEX
  8
0ALV_ROD
 10
672484.00
 20
8606210.00
  0
VERTEX
  8
0ALV_ROD
 10
672420.88
 20
8606242.00
  0
VERTEX
  8
0ALV_ROD
 10
672357.75
 20
8606275.00
  0
VERTEX
  8
0ALV_ROD
 10
672294.31
 20
8606276.00
  0
VERTEX
  8
0ALV_ROD
 10
672230.50
 20
8606244.00
  0
VERTEX
  8
0ALV_ROD
 10
672167.06
 20
8606245.00
  0
VERTEX
  8
0ALV_ROD
 10
672071.88
 20
8606246.00
  0
VERTEX
  8
0ALV_ROD
 10
672008.44
 20
8606247.00
  0
VERTEX
  8
0ALV_ROD
 10
671944.94
 20
8606248.00
  0
VERTEX
  8
0ALV_ROD
 10
671881.81
 20
8606280.00
  0
VERTEX
  8
0ALV_ROD
 10
671818.38
 20
8606281.00
  0
VERTEX
  8
0ALV_ROD
 10
671755.25
 20
8606313.00
  0
VERTEX
  8
0ALV_ROD
 10
671692.13
 20
8606346.00
  0
VERTEX
  8
0ALV_ROD
 10
671628.69
 20
8606347.00
  0
VERTEX
  8
0ALV_ROD
 10
671565.56
 20
8606379.00
  0
VERTEX
  8
0ALV_ROD
 10
671502.13
 20
8606380.00
  0
VERTEX
  8
0ALV_ROD
 10
671439.00
 20
8606412.00
  0
VERTEX
  8
0ALV_ROD
 10
671375.88
 20
8606445.00
  0
VERTEX
  8
0ALV_ROD
 10
671280.69
 20
8606446.00
  0
VERTEX
  8
0ALV_ROD
 10
671249.63
 20
8606510.00
  0
VERTEX
  8
0ALV_ROD
 10
671154.44
 20
8606511.00
  0
VERTEX
  8
0ALV_ROD
 10
671123.38
 20
8606575.00
  0
VERTEX
  8
0ALV_ROD
 10
671028.56
 20
8606608.00
  0
VERTEX
  8
0ALV_ROD
 10
670997.50
 20
8606672.00
  0
VERTEX
  8
0ALV_ROD
 10
670934.38
 20
8606705.00
  0
VERTEX
  8
0ALV_ROD
 10
670903.31
 20
8606769.00
  0
VERTEX
  8
0ALV_ROD
 10
670840.25
 20
8606801.00
  0
VERTEX
  8
0ALV_ROD
 10
670840.88
 20
8606865.00
  0
VERTEX
  8
0ALV_ROD
 10
670777.44
 20
8606866.00
  0
VERTEX
  8
0ALV_ROD
 10
670746.75
 20
8606962.00
  0
VERTEX
  8
0ALV_ROD
 10
670747.44
 20
8607025.00
  0
VERTEX
  8
0ALV_ROD
 10
670684.31
 20
8607058.00
  0
VERTEX
  8
0ALV_ROD
 10
670621.19
 20
8607090.00
  0
VERTEX
  8
0ALV_ROD
 10
670558.38
 20
8607155.00
  0
VERTEX
  8
0ALV_ROD
 10
670494.94
 20
8607155.00
  0
VERTEX
  8
0ALV_ROD
 10
670495.63
 20
8607219.00
  0
VERTEX
  8
0ALV_ROD
 10
670400.75
 20
8607252.00
  0
VERTEX
  8
0ALV_ROD
 10
670337.63
 20
8607285.00
  0
VERTEX
  8
0ALV_ROD
 10
670274.19
 20
8607285.00
  0
VERTEX
  8
0ALV_ROD
 10
670211.06
 20
8607318.00
  0
VERTEX
  8
0ALV_ROD
 10
670147.63
 20
8607319.00
  0
VERTEX
  8
0ALV_ROD
 10
670084.19
 20
8607319.00
  0
VERTEX
  8
0ALV_ROD
 10
670020.69
 20
8607320.00
  0
VERTEX
  8
0ALV_ROD
 10
669957.25
 20
8607321.00
  0
VERTEX
  8
0ALV_ROD
 10
669893.81
 20
8607321.00
  0
VERTEX
  8
0ALV_ROD
 10
669830.31
 20
8607322.00
  0
VERTEX
  8
0ALV_ROD
 10
669766.88
 20
8607323.00
  0
VERTEX
  8
0ALV_ROD
 10
669671.69
 20
8607324.00
  0
VERTEX
  8
0ALV_ROD
 10
669640.63
 20
8607388.00
  0
VERTEX
  8
0ALV_ROD
 10
669577.19
 20
8607389.00
  0
VERTEX
  8
0ALV_ROD
 10
669546.13
 20
8607453.00
  0
VERTEX
  8
0ALV_ROD
 10
669482.69
 20
8607453.00
  0
VERTEX
  8
0ALV_ROD
 10
669419.19
 20
8607454.00
  0
VERTEX
  8
0ALV_ROD
 10
669356.44
 20
8607518.00
  0
VERTEX
  8
0ALV_ROD
 10
669293.00
 20
8607519.00
  0
VERTEX
  8
0ALV_ROD
 10
669262.25
 20
8607615.00
  0
VERTEX
  8
0ALV_ROD
 10
669231.25
 20
8607679.00
  0
VERTEX
  8
0ALV_ROD
 10
669231.88
 20
8607743.00
  0
VERTEX
  8
0ALV_ROD
 10
669168.75
 20
8607775.00
  0
VERTEX
  8
0ALV_ROD
 10
669105.31
 20
8607776.00
  0
VERTEX
  8
0ALV_ROD
 10
669041.88
 20
8607777.00
  0
VERTEX
  8
0ALV_ROD
 10
668978.44
 20
8607777.00
  0
VERTEX
  8
0ALV_ROD
 10
668914.94
 20
8607778.00
  0
VERTEX
  8
0ALV_ROD
 10
668819.75
 20
8607779.00
  0
VERTEX
  8
0ALV_ROD
 10
668756.31
 20
8607780.00
  0
VERTEX
  8
0ALV_ROD
 10
668692.88
 20
8607781.00
  0
VERTEX
  8
0ALV_ROD
 10
668597.69
 20
8607782.00
  0
VERTEX
  8
0ALV_ROD
 10
668533.88
 20
8607750.00
  0
VERTEX
  8
0ALV_ROD
 10
668470.75
 20
8607783.00
  0
VERTEX
  8
0ALV_ROD
 10
668407.31
 20
8607784.00
  0
VERTEX
  8
0ALV_ROD
 10
668312.44
 20
8607817.00
  0
VERTEX
  8
0ALV_ROD
 10
668249.31
 20
8607849.00
  0
VERTEX
  8
0ALV_ROD
 10
668185.88
 20
8607850.00
  0
VERTEX
  8
0ALV_ROD
 10
668122.75
 20
8607882.00
  0
VERTEX
  8
0ALV_ROD
 10
668059.94
 20
8607947.00
  0
VERTEX
  8
0ALV_ROD
 10
667996.50
 20
8607947.00
  0
VERTEX
  8
0ALV_ROD
 10
667933.75
 20
8608012.00
  0
VERTEX
  8
0ALV_ROD
 10
667870.25
 20
8608013.00
  0
VERTEX
  8
0ALV_ROD
 10
667806.81
 20
8608013.00
  0
VERTEX
  8
0ALV_ROD
 10
667743.38
 20
8608014.00
  0
VERTEX
  8
0ALV_ROD
 10
667679.88
 20
8608015.00
  0
VERTEX
  8
0ALV_ROD
 10
667616.13
 20
8607983.00
  0
VERTEX
  8
0ALV_ROD
 10
667552.63
 20
8607984.00
  0
VERTEX
  8
0ALV_ROD
 10
667489.19
 20
8607985.00
  0
VERTEX
  8
0ALV_ROD
 10
667425.75
 20
8607986.00
  0
VERTEX
  8
0ALV_ROD
 10
667361.94
 20
8607954.00
  0
VERTEX
  8
0ALV_ROD
 10
667298.50
 20
8607955.00
  0
VERTEX
  8
0ALV_ROD
 10
667234.69
 20
8607924.00
  0
VERTEX
  8
0ALV_ROD
 10
667170.88
 20
8607893.00
  0
VERTEX
  8
0ALV_ROD
 10
667107.06
 20
8607862.00
  0
VERTEX
  8
0ALV_ROD
 10
667043.31
 20
8607830.00
  0
VERTEX
  8
0ALV_ROD
 10
666979.50
 20
8607799.00
  0
VERTEX
  8
0ALV_ROD
 10
666947.06
 20
8607736.00
  0
VERTEX
  8
0ALV_ROD
 10
666883.31
 20
8607705.00
  0
VERTEX
  8
0ALV_ROD
 10
666787.44
 20
8607642.00
  0
VERTEX
  8
0ALV_ROD
 10
666722.94
 20
8607547.00
  0
VERTEX
  8
0ALV_ROD
 10
666659.50
 20
8607548.00
  0
VERTEX
  8
0ALV_ROD
 10
666627.06
 20
8607485.00
  0
VERTEX
  8
0ALV_ROD
 10
666594.69
 20
8607421.00
  0
VERTEX
  8
0ALV_ROD
 10
666546.06
 20
8607405.00
  0
SEQEND
  8
0ALV_ROD
  0
POLYLINE
  8
0ALV_ROD
 66
     1
  0
VERTEX
  8
0ALV_ROD
 10
760919.25
 20
8599312.00
  0
VERTEX
  8
0ALV_ROD
 10
760870.06
 20
8599421.00
  0
VERTEX
  8
0ALV_ROD
 10
760817.56
 20
8599569.00
  0
VERTEX
  8
0ALV_ROD
 10
760792.13
 20
8599594.00
  0
VERTEX
  8
0ALV_ROD
 10
760766.75
 20
8599618.00
  0
VERTEX
  8
0ALV_ROD
 10
760741.75
 20
8599618.00
  0
VERTEX
  8
0ALV_ROD
 10
760740.88
 20
8599668.00
  0
VERTEX
  8
0ALV_ROD
 10
760737.56
 20
8599867.00
  0
VERTEX
  8
0ALV_ROD
 10
760684.25
 20
8600065.00
  0
VERTEX
  8
0ALV_ROD
 10
760658.38
 20
8600114.00
  0
VERTEX
  8
0ALV_ROD
 10
760604.69
 20
8600337.00
  0
VERTEX
  8
0ALV_ROD
 10
760576.75
 20
8600511.00
  0
VERTEX
  8
0ALV_ROD
 10
760523.81
 20
8600684.00
  0
VERTEX
  8
0ALV_ROD
 10
760470.50
 20
8600883.00
  0
VERTEX
  8
0ALV_ROD
 10
760364.25
 20
8601254.00
  0
VERTEX
  8
0ALV_ROD
 10
760182.25
 20
8601674.00
  0
VERTEX
  8
0ALV_ROD
 10
760024.31
 20
8602144.00
  0
VERTEX
  8
0ALV_ROD
 10
759971.00
 20
8602343.00
  0
VERTEX
  8
0ALV_ROD
 10
759716.00
 20
8602637.00
  0
VERTEX
  8
0ALV_ROD
 10
759663.13
 20
8602810.00
  0
VERTEX
  8
0ALV_ROD
 10
759487.31
 20
8602857.00
  0
VERTEX
  8
0ALV_ROD
 10
759334.44
 20
8603028.00
  0
VERTEX
  8
0ALV_ROD
 10
759056.13
 20
8603222.00
  0
VERTEX
  8
0ALV_ROD
 10
758876.13
 20
8603518.00
  0
VERTEX
  8
0ALV_ROD
 10
758598.25
 20
8603687.00
  0
VERTEX
  8
0ALV_ROD
 10
758417.44
 20
8604032.00
  0
VERTEX
  8
0ALV_ROD
 10
758239.56
 20
8604203.00
  0
VERTEX
  8
0ALV_ROD
 10
758059.13
 20
8604523.00
  0
VERTEX
  8
0ALV_ROD
 10
758031.69
 20
8604672.00
  0
VERTEX
  8
0ALV_ROD
 10
758026.69
 20
8604971.00
  0
VERTEX
  8
0ALV_ROD
 10
758047.50
 20
8605220.00
  0
VERTEX
  8
0ALV_ROD
 10
758042.06
 20
8605544.00
  0
VERTEX
  8
0ALV_ROD
 10
758089.19
 20
8605719.00
  0
VERTEX
  8
0ALV_ROD
 10
758158.31
 20
8606069.00
  0
VERTEX
  8
0ALV_ROD
 10
758327.50
 20
8606421.00
  0
VERTEX
  8
0ALV_ROD
 10
758421.19
 20
8606796.00
  0
VERTEX
  8
0ALV_ROD
 10
758591.63
 20
8607073.00
  0
VERTEX
  8
0ALV_ROD
 10
758611.19
 20
8607397.00
  0
VERTEX
  8
0ALV_ROD
 10
758807.88
 20
8607600.00
  0
VERTEX
  8
0ALV_ROD
 10
758876.19
 20
8608000.00
  0
VERTEX
  8
0ALV_ROD
 10
758947.00
 20
8608250.00
  0
VERTEX
  8
0ALV_ROD
 10
758990.75
 20
8608624.00
  0
VERTEX
  8
0ALV_ROD
 10
759037.00
 20
8608849.00
  0
VERTEX
  8
0ALV_ROD
 10
759080.75
 20
8609223.00
  0
VERTEX
  8
0ALV_ROD
 10
759101.56
 20
8609473.00
  0
VERTEX
  8
0ALV_ROD
 10
759144.50
 20
8609897.00
  0
VERTEX
  8
0ALV_ROD
 10
759139.94
 20
8610171.00
  0
VERTEX
  8
0ALV_ROD
 10
759131.63
 20
8610669.00
  0
VERTEX
  8
0ALV_ROD
 10
759102.00
 20
8610942.00
  0
VERTEX
  8
0ALV_ROD
 10
759044.94
 20
8611364.00
  0
VERTEX
  8
0ALV_ROD
 10
758962.44
 20
8611811.00
  0
VERTEX
  8
0ALV_ROD
 10
758806.25
 20
8612181.00
  0
VERTEX
  8
0ALV_ROD
 10
758501.25
 20
8612475.00
  0
VERTEX
  8
0ALV_ROD
 10
758323.38
 20
8612646.00
  0
VERTEX
  8
0ALV_ROD
 10
758170.44
 20
8612817.00
  0
VERTEX
  8
0ALV_ROD
 10
757992.56
 20
8612988.00
  0
VERTEX
  8
0ALV_ROD
 10
757841.75
 20
8613035.00
  0
VERTEX
  8
0ALV_ROD
 10
757663.88
 20
8613206.00
  0
VERTEX
  8
0ALV_ROD
 10
757535.94
 20
8613378.00
  0
VERTEX
  8
0ALV_ROD
 10
757457.63
 20
8613576.00
  0
VERTEX
  8
0ALV_ROD
 10
757379.31
 20
8613774.00
  0
VERTEX
  8
0ALV_ROD
 10
757328.50
 20
8613822.00
  0
VERTEX
  8
0ALV_ROD
 10
757275.19
 20
8614021.00
  0
VERTEX
  8
0ALV_ROD
 10
757272.25
 20
8614195.00
  0
VERTEX
  8
0ALV_ROD
 10
757269.75
 20
8614344.00
  0
VERTEX
  8
0ALV_ROD
 10
757266.81
 20
8614519.00
  0
VERTEX
  8
0ALV_ROD
 10
757288.50
 20
8614718.00
  0
VERTEX
  8
0ALV_ROD
 10
757310.19
 20
8614918.00
  0
VERTEX
  8
0ALV_ROD
 10
757378.50
 20
8615317.00
  0
VERTEX
  8
0ALV_ROD
 10
757398.94
 20
8615592.00
  0
VERTEX
  8
0ALV_ROD
 10
757591.00
 20
8616068.00
  0
VERTEX
  8
0ALV_ROD
 10
757732.63
 20
8616569.00
  0
VERTEX
  8
0ALV_ROD
 10
757901.38
 20
8616946.00
  0
VERTEX
  8
0ALV_ROD
 10
757972.63
 20
8617171.00
  0
VERTEX
  8
0ALV_ROD
 10
758042.19
 20
8617496.00
  0
VERTEX
  8
0ALV_ROD
 10
758089.25
 20
8617671.00
  0
VERTEX
  8
0ALV_ROD
 10
758161.38
 20
8617847.00
  0
VERTEX
  8
0ALV_ROD
 10
758233.00
 20
8618047.00
  0
VERTEX
  8
0ALV_ROD
 10
758379.69
 20
8618249.00
  0
VERTEX
  8
0ALV_ROD
 10
758426.31
 20
8618449.00
  0
VERTEX
  8
0ALV_ROD
 10
758744.63
 20
8618854.00
  0
VERTEX
  8
0ALV_ROD
 10
758965.44
 20
8619107.00
  0
VERTEX
  8
0ALV_ROD
 10
759182.94
 20
8619559.00
  0
VERTEX
  8
0ALV_ROD
 10
759378.75
 20
8619812.00
  0
VERTEX
  8
0ALV_ROD
 10
759521.63
 20
8620237.00
  0
VERTEX
  8
0ALV_ROD
 10
759592.50
 20
8620488.00
  0
VERTEX
  8
0ALV_ROD
 10
759585.38
 20
8620911.00
  0
VERTEX
  8
0ALV_ROD
 10
759581.63
 20
8621135.00
  0
VERTEX
  8
0ALV_ROD
 10
759574.56
 20
8621558.00
  0
VERTEX
  8
0ALV_ROD
 10
759570.81
 20
8621782.00
  0
VERTEX
  8
0ALV_ROD
 10
759565.44
 20
8622106.00
  0
VERTEX
  8
0ALV_ROD
 10
759562.06
 20
8622305.00
  0
VERTEX
  8
0ALV_ROD
 10
759533.75
 20
8622504.00
  0
VERTEX
  8
0ALV_ROD
 10
759505.81
 20
8622677.00
  0
VERTEX
  8
0ALV_ROD
 10
759452.50
 20
8622876.00
  0
VERTEX
  8
0ALV_ROD
 10
759399.56
 20
8623049.00
  0
VERTEX
  8
0ALV_ROD
 10
759346.69
 20
8623222.00
  0
VERTEX
  8
0ALV_ROD
 10
759294.19
 20
8623371.00
  0
VERTEX
  8
0ALV_ROD
 10
759266.25
 20
8623544.00
  0
VERTEX
  8
0ALV_ROD
 10
759212.94
 20
8623743.00
  0
VERTEX
  8
0ALV_ROD
 10
759084.63
 20
8623940.00
  0
VERTEX
  8
0ALV_ROD
 10
759031.31
 20
8624138.00
  0
VERTEX
  8
0ALV_ROD
 10
758876.31
 20
8624434.00
  0
VERTEX
  8
0ALV_ROD
 10
758623.44
 20
8624603.00
  0
VERTEX
  8
0ALV_ROD
 10
758495.94
 20
8624750.00
  0
VERTEX
  8
0ALV_ROD
 10
758243.06
 20
8624920.00
  0
VERTEX
  8
0ALV_ROD
 10
758231.81
 20
8624945.00
  0
SEQEND
  8
0ALV_ROD
  0
POLYLINE
  8
0ALV_ROD
 66
     1
  0
VERTEX
  8
0ALV_ROD
 10
616770.06
 20
8614054.00
  0
VERTEX
  8
0ALV_ROD
 10
616722.38
 20
8613997.00
  0
VERTEX
  8
0ALV_ROD
 10
616685.38
 20
8613940.00
  0
VERTEX
  8
0ALV_ROD
 10
616636.13
 20
8613833.00
  0
VERTEX
  8
0ALV_ROD
 10
616593.06
 20
8613733.00
  0
VERTEX
  8
0ALV_ROD
 10
616556.31
 20
8613632.00
  0
VERTEX
  8
0ALV_ROD
 10
616513.44
 20
8613513.00
  0
VERTEX
  8
0ALV_ROD
 10
616476.56
 20
8613418.00
  0
VERTEX
  8
0ALV_ROD
 10
616464.50
 20
8613362.00
  0
VERTEX
  8
0ALV_ROD
 10
616414.94
 20
8613305.00
  0
VERTEX
  8
0ALV_ROD
 10
616346.81
 20
8613229.00
  0
VERTEX
  8
0ALV_ROD
 10
616297.25
 20
8613172.00
  0
VERTEX
  8
0ALV_ROD
 10
616222.56
 20
8613146.00
  0
VERTEX
  8
0ALV_ROD
 10
616147.94
 20
8613108.00
  0
VERTEX
  8
0ALV_ROD
 10
616073.56
 20
8613032.00
  0
VERTEX
  8
0ALV_ROD
 10
615967.69
 20
8613000.00
  0
VERTEX
  8
0ALV_ROD
 10
615849.50
 20
8612949.00
  0
VERTEX
  8
0ALV_ROD
 10
615793.63
 20
8612911.00
  0
VERTEX
  8
0ALV_ROD
 10
615712.63
 20
8612892.00
  0
VERTEX
  8
0ALV_ROD
 10
615613.31
 20
8612822.00
  0
VERTEX
  8
0ALV_ROD
 10
615538.50
 20
8612809.00
  0
VERTEX
  8
0ALV_ROD
 10
615463.94
 20
8612764.00
  0
VERTEX
  8
0ALV_ROD
 10
615401.94
 20
8612701.00
  0
VERTEX
  8
0ALV_ROD
 10
615308.56
 20
8612669.00
  0
VERTEX
  8
0ALV_ROD
 10
615240.19
 20
8612637.00
  0
VERTEX
  8
0ALV_ROD
 10
615159.25
 20
8612611.00
  0
VERTEX
  8
0ALV_ROD
 10
615109.63
 20
8612561.00
  0
VERTEX
  8
0ALV_ROD
 10
615060.31
 20
8612472.00
  0
VERTEX
  8
0ALV_ROD
 10
615042.06
 20
8612397.00
  0
VERTEX
  8
0ALV_ROD
 10
615005.19
 20
8612309.00
  0
VERTEX
  8
0ALV_ROD
 10
614986.94
 20
8612233.00
  0
VERTEX
  8
0ALV_ROD
 10
614968.56
 20
8612183.00
  0
VERTEX
  8
0ALV_ROD
 10
614950.19
 20
8612133.00
  0
VERTEX
  8
0ALV_ROD
 10
614932.06
 20
8612039.00
  0
VERTEX
  8
0ALV_ROD
 10
614919.94
 20
8611988.00
  0
VERTEX
  8
0ALV_ROD
 10
614864.31
 20
8611906.00
  0
VERTEX
  8
0ALV_ROD
 10
614827.19
 20
8611856.00
  0
VERTEX
  8
0ALV_ROD
 10
614752.69
 20
8611805.00
  0
VERTEX
  8
0ALV_ROD
 10
614678.06
 20
8611761.00
  0
VERTEX
  8
0ALV_ROD
 10
614609.69
 20
8611722.00
  0
VERTEX
  8
0ALV_ROD
 10
614510.13
 20
8611684.00
  0
VERTEX
  8
0ALV_ROD
 10
614454.25
 20
8611646.00
  0
VERTEX
  8
0ALV_ROD
 10
614367.00
 20
8611626.00
  0
VERTEX
  8
0ALV_ROD
 10
614311.00
 20
8611607.00
  0
VERTEX
  8
0ALV_ROD
 10
614242.56
 20
8611582.00
  0
VERTEX
  8
0ALV_ROD
 10
614161.56
 20
8611562.00
  0
VERTEX
  8
0ALV_ROD
 10
614105.69
 20
8611524.00
  0
VERTEX
  8
0ALV_ROD
 10
614018.44
 20
8611505.00
  0
VERTEX
  8
0ALV_ROD
 10
613962.56
 20
8611466.00
  0
VERTEX
  8
0ALV_ROD
 10
613875.44
 20
8611434.00
  0
VERTEX
  8
0ALV_ROD
 10
613794.63
 20
8611384.00
  0
VERTEX
  8
0ALV_ROD
 10
613720.38
 20
8611295.00
  0
VERTEX
  8
0ALV_ROD
 10
613677.19
 20
8611213.00
  0
VERTEX
  8
0ALV_ROD
 10
613603.31
 20
8611062.00
  0
VERTEX
  8
0ALV_ROD
 10
613522.94
 20
8610949.00
  0
VERTEX
  8
0ALV_ROD
 10
613442.63
 20
8610829.00
  0
VERTEX
  8
0ALV_ROD
 10
613393.13
 20
8610759.00
  0
VERTEX
  8
0ALV_ROD
 10
613318.88
 20
8610671.00
  0
VERTEX
  8
0ALV_ROD
 10
613275.94
 20
8610551.00
  0
VERTEX
  8
0ALV_ROD
 10
613238.88
 20
8610501.00
  0
VERTEX
  8
0ALV_ROD
 10
613195.63
 20
8610425.00
  0
VERTEX
  8
0ALV_ROD
 10
613158.69
 20
8610356.00
  0
VERTEX
  8
0ALV_ROD
 10
613115.44
 20
8610287.00
  0
VERTEX
  8
0ALV_ROD
 10
613072.13
 20
8610236.00
  0
VERTEX
  8
0ALV_ROD
 10
613022.81
 20
8610135.00
  0
VERTEX
  8
0ALV_ROD
 10
612942.25
 20
8610053.00
  0
VERTEX
  8
0ALV_ROD
 10
612905.19
 20
8610003.00
  0
VERTEX
  8
0ALV_ROD
 10
612862.13
 20
8609908.00
  0
VERTEX
  8
0ALV_ROD
 10
612843.69
 20
8609858.00
  0
VERTEX
  8
0ALV_ROD
 10
612800.56
 20
8609776.00
  0
VERTEX
  8
0ALV_ROD
 10
612782.19
 20
8609726.00
  0
VERTEX
  8
0ALV_ROD
 10
612776.56
 20
8609625.00
  0
VERTEX
  8
0ALV_ROD
 10
612777.00
 20
8609556.00
  0
VERTEX
  8
0ALV_ROD
 10
612777.56
 20
8609469.00
  0
VERTEX
  8
0ALV_ROD
 10
612784.25
 20
8609400.00
  0
VERTEX
  8
0ALV_ROD
 10
612791.06
 20
8609306.00
  0
VERTEX
  8
0ALV_ROD
 10
612797.94
 20
8609212.00
  0
VERTEX
  8
0ALV_ROD
 10
612804.69
 20
8609136.00
  0
VERTEX
  8
0ALV_ROD
 10
612805.00
 20
8609080.00
  0
VERTEX
  8
0ALV_ROD
 10
612805.38
 20
8609023.00
  0
VERTEX
  8
0ALV_ROD
 10
612805.75
 20
8608961.00
  0
VERTEX
  8
0ALV_ROD
 10
612806.31
 20
8608879.00
  0
VERTEX
  8
0ALV_ROD
 10
612806.88
 20
8608791.00
  0
VERTEX
  8
0ALV_ROD
 10
612801.13
 20
8608716.00
  0
VERTEX
  8
0ALV_ROD
 10
612789.06
 20
8608647.00
  0
VERTEX
  8
0ALV_ROD
 10
612777.19
 20
8608553.00
  0
VERTEX
  8
0ALV_ROD
 10
612746.69
 20
8608446.00
  0
VERTEX
  8
0ALV_ROD
 10
612728.38
 20
8608383.00
  0
VERTEX
  8
0ALV_ROD
 10
612691.56
 20
8608282.00
  0
VERTEX
  8
0ALV_ROD
 10
612648.38
 20
8608207.00
  0
VERTEX
  8
0ALV_ROD
 10
612611.25
 20
8608156.00
  0
VERTEX
  8
0ALV_ROD
 10
612574.19
 20
8608106.00
  0
VERTEX
  8
0ALV_ROD
 10
612537.25
 20
8608030.00
  0
VERTEX
  8
0ALV_ROD
 10
612450.25
 20
8607979.00
  0
VERTEX
  8
0ALV_ROD
 10
612400.81
 20
8607904.00
  0
VERTEX
  8
0ALV_ROD
 10
612320.00
 20
8607853.00
  0
VERTEX
  8
0ALV_ROD
 10
612233.19
 20
8607777.00
  0
VERTEX
  8
0ALV_ROD
 10
612146.13
 20
8607726.00
  0
VERTEX
  8
0ALV_ROD
 10
612102.94
 20
8607657.00
  0
VERTEX
  8
0ALV_ROD
 10
612065.88
 20
8607600.00
  0
VERTEX
  8
0ALV_ROD
 10
612016.50
 20
8607518.00
  0
VERTEX
  8
0ALV_ROD
 10
612004.38
 20
8607468.00
  0
VERTEX
  8
0ALV_ROD
 10
611967.56
 20
8607367.00
  0
VERTEX
  8
0ALV_ROD
 10
611955.44
 20
8607310.00
  0
VERTEX
  8
0ALV_ROD
 10
611912.25
 20
8607235.00
  0
VERTEX
  8
0ALV_ROD
 10
611875.13
 20
8607184.00
  0
VERTEX
  8
0ALV_ROD
 10
611813.13
 20
8607127.00
  0
VERTEX
  8
0ALV_ROD
 10
611769.75
 20
8607077.00
  0
VERTEX
  8
0ALV_ROD
 10
611689.19
 20
8607001.00
  0
VERTEX
  8
0ALV_ROD
 10
611620.69
 20
8606982.00
  0
VERTEX
  8
0ALV_ROD
 10
611571.06
 20
8606931.00
  0
VERTEX
  8
0ALV_ROD
 10
611496.44
 20
8606899.00
  0
VERTEX
  8
0ALV_ROD
 10
611422.00
 20
8606830.00
  0
VERTEX
  8
0ALV_ROD
 10
611378.69
 20
8606779.00
  0
VERTEX
  8
0ALV_ROD
 10
611360.44
 20
8606704.00
  0
VERTEX
  8
0ALV_ROD
 10
611360.94
 20
8606622.00
  0
VERTEX
  8
0ALV_ROD
 10
611361.38
 20
8606553.00
  0
VERTEX
  8
0ALV_ROD
 10
611368.13
 20
8606478.00
  0
VERTEX
  8
0ALV_ROD
 10
611374.81
 20
8606409.00
  0
VERTEX
  8
0ALV_ROD
 10
611375.19
 20
8606352.00
  0
VERTEX
  8
0ALV_ROD
 10
611375.56
 20
8606290.00
  0
VERTEX
  8
0ALV_ROD
 10
611376.13
 20
8606202.00
  0
VERTEX
  8
0ALV_ROD
 10
611376.75
 20
8606101.00
  0
VERTEX
  8
0ALV_ROD
 10
611371.06
 20
8606020.00
  0
VERTEX
  8
0ALV_ROD
 10
611365.38
 20
8605932.00
  0
VERTEX
  8
0ALV_ROD
 10
611347.19
 20
8605844.00
  0
VERTEX
  8
0ALV_ROD
 10
611328.94
 20
8605775.00
  0
VERTEX
  8
0ALV_ROD
 10
611329.50
 20
8605687.00
  0
VERTEX
  8
0ALV_ROD
 10
611329.94
 20
8605618.00
  0
VERTEX
  8
0ALV_ROD
 10
611330.25
 20
8605568.00
  0
VERTEX
  8
0ALV_ROD
 10
611336.81
 20
8605518.00
  0
VERTEX
  8
0ALV_ROD
 10
611356.00
 20
8605443.00
  0
VERTEX
  8
0ALV_ROD
 10
611387.69
 20
8605368.00
  0
VERTEX
  8
0ALV_ROD
 10
611438.06
 20
8605293.00
  0
VERTEX
  8
0ALV_ROD
 10
611519.69
 20
8605212.00
  0
VERTEX
  8
0ALV_ROD
 10
611526.31
 20
8605149.00
  0
VERTEX
  8
0ALV_ROD
 10
611607.94
 20
8605068.00
  0
VERTEX
  8
0ALV_ROD
 10
611627.00
 20
8605018.00
  0
VERTEX
  8
0ALV_ROD
 10
611646.06
 20
8604956.00
  0
VERTEX
  8
0ALV_ROD
 10
611659.06
 20
8604880.00
  0
VERTEX
  8
0ALV_ROD
 10
611659.75
 20
8604767.00
  0
VERTEX
  8
0ALV_ROD
 10
611660.31
 20
8604686.00
  0
VERTEX
  8
0ALV_ROD
 10
611660.63
 20
8604636.00
  0
VERTEX
  8
0ALV_ROD
 10
611661.06
 20
8604560.00
  0
VERTEX
  8
0ALV_ROD
 10
611649.19
 20
8604473.00
  0
VERTEX
  8
0ALV_ROD
 10
611637.00
 20
8604422.00
  0
VERTEX
  8
0ALV_ROD
 10
611618.81
 20
8604341.00
  0
VERTEX
  8
0ALV_ROD
 10
611600.50
 20
8604284.00
  0
VERTEX
  8
0ALV_ROD
 10
611563.50
 20
8604208.00
  0
VERTEX
  8
0ALV_ROD
 10
611551.56
 20
8604133.00
  0
VERTEX
  8
0ALV_ROD
 10
611477.25
 20
8604038.00
  0
VERTEX
  8
0ALV_ROD
 10
611440.31
 20
8603963.00
  0
VERTEX
  8
0ALV_ROD
 10
611403.25
 20
8603906.00
  0
VERTEX
  8
0ALV_ROD
 10
611385.06
 20
8603824.00
  0
VERTEX
  8
0ALV_ROD
 10
611366.69
 20
8603774.00
  0
VERTEX
  8
0ALV_ROD
 10
611348.56
 20
8603680.00
  0
VERTEX
  8
0ALV_ROD
 10
611337.00
 20
8603542.00
  0
VERTEX
  8
0ALV_ROD
 10
611337.63
 20
8603435.00
  0
VERTEX
  8
0ALV_ROD
 10
611338.19
 20
8603347.00
  0
VERTEX
  8
0ALV_ROD
 10
611338.75
 20
8603259.00
  0
VERTEX
  8
0ALV_ROD
 10
611345.63
 20
8603165.00
  0
VERTEX
  8
0ALV_ROD
 10
611358.50
 20
8603103.00
  0
VERTEX
  8
0ALV_ROD
 10
611371.50
 20
8603015.00
  0
VERTEX
  8
0ALV_ROD
 10
611403.25
 20
8602934.00
  0
VERTEX
  8
0ALV_ROD
 10
611422.25
 20
8602884.00
  0
VERTEX
  8
0ALV_ROD
 10
611441.38
 20
8602821.00
  0
VERTEX
  8
0ALV_ROD
 10
611454.38
 20
8602746.00
  0
VERTEX
  8
0ALV_ROD
 10
611504.81
 20
8602658.00
  0
VERTEX
  8
0ALV_ROD
 10
611530.31
 20
8602571.00
  0
VERTEX
  8
0ALV_ROD
 10
611549.50
 20
8602496.00
  0
VERTEX
  8
0ALV_ROD
 10
611569.06
 20
8602370.00
  0
VERTEX
  8
0ALV_ROD
 10
611569.50
 20
8602295.00
  0
VERTEX
  8
0ALV_ROD
 10
611570.00
 20
8602214.00
  0
VERTEX
  8
0ALV_ROD
 10
611570.56
 20
8602132.00
  0
VERTEX
  8
0ALV_ROD
 10
611570.88
 20
8602082.00
  0
VERTEX
  8
0ALV_ROD
 10
611571.25
 20
8602025.00
  0
VERTEX
  8
0ALV_ROD
 10
611571.81
 20
8601938.00
  0
VERTEX
  8
0ALV_ROD
 10
611578.44
 20
8601869.00
  0
VERTEX
  8
0ALV_ROD
 10
611579.00
 20
8601787.00
  0
VERTEX
  8
0ALV_ROD
 10
611585.56
 20
8601737.00
  0
VERTEX
  8
0ALV_ROD
 10
611598.69
 20
8601637.00
  0
VERTEX
  8
0ALV_ROD
 10
611611.44
 20
8601587.00
  0
VERTEX
  8
0ALV_ROD
 10
611649.44
 20
8601505.00
  0
VERTEX
  8
0ALV_ROD
 10
611674.75
 20
8601449.00
  0
VERTEX
  8
0ALV_ROD
 10
611718.75
 20
8601393.00
  0
VERTEX
  8
0ALV_ROD
 10
611775.19
 20
8601343.00
  0
VERTEX
  8
0ALV_ROD
 10
611831.56
 20
8601312.00
  0
VERTEX
  8
0ALV_ROD
 10
611906.69
 20
8601269.00
  0
VERTEX
  8
0ALV_ROD
 10
611981.81
 20
8601226.00
  0
VERTEX
  8
0ALV_ROD
 10
612063.25
 20
8601176.00
  0
VERTEX
  8
0ALV_ROD
 10
612163.13
 20
8601164.00
  0
VERTEX
  8
0ALV_ROD
 10
612232.00
 20
8601121.00
  0
VERTEX
  8
0ALV_ROD
 10
612331.94
 20
8601103.00
  0
VERTEX
  8
0ALV_ROD
 10
612444.31
 20
8601091.00
  0
VERTEX
  8
0ALV_ROD
 10
612494.50
 20
8601048.00
  0
VERTEX
  8
0ALV_ROD
 10
612581.94
 20
8601036.00
  0
VERTEX
  8
0ALV_ROD
 10
612632.06
 20
8600992.00
  0
VERTEX
  8
0ALV_ROD
 10
612719.69
 20
8600955.00
  0
VERTEX
  8
0ALV_ROD
 10
612807.31
 20
8600906.00
  0
VERTEX
  8
0ALV_ROD
 10
612882.31
 20
8600888.00
  0
VERTEX
  8
0ALV_ROD
 10
612963.69
 20
8600838.00
  0
VERTEX
  8
0ALV_ROD
 10
613013.94
 20
8600788.00
  0
VERTEX
  8
0ALV_ROD
 10
613095.31
 20
8600739.00
  0
VERTEX
  8
0ALV_ROD
 10
613108.38
 20
8600651.00
  0
VERTEX
  8
0ALV_ROD
 10
613190.06
 20
8600558.00
  0
VERTEX
  8
0ALV_ROD
 10
613240.25
 20
8600520.00
  0
VERTEX
  8
0ALV_ROD
 10
613315.38
 20
8600477.00
  0
VERTEX
  8
0ALV_ROD
 10
613396.75
 20
8600434.00
  0
VERTEX
  8
0ALV_ROD
 10
613484.38
 20
8600384.00
  0
VERTEX
  8
0ALV_ROD
 10
613540.75
 20
8600347.00
  0
VERTEX
  8
0ALV_ROD
 10
613615.88
 20
8600304.00
  0
VERTEX
  8
0ALV_ROD
 10
613697.31
 20
8600254.00
  0
VERTEX
  8
0ALV_ROD
 10
613735.19
 20
8600185.00
  0
VERTEX
  8
0ALV_ROD
 10
613748.00
 20
8600135.00
  0
VERTEX
  8
0ALV_ROD
 10
613792.13
 20
8600060.00
  0
VERTEX
  8
0ALV_ROD
 10
613811.19
 20
8600010.00
  0
VERTEX
  8
0ALV_ROD
 10
613830.56
 20
8599904.00
  0
VERTEX
  8
0ALV_ROD
 10
613874.88
 20
8599804.00
  0
VERTEX
  8
0ALV_ROD
 10
613894.25
 20
8599704.00
  0
VERTEX
  8
0ALV_ROD
 10
613938.25
 20
8599647.00
  0
VERTEX
  8
0ALV_ROD
 10
613951.25
 20
8599566.00
  0
VERTEX
  8
0ALV_ROD
 10
614001.44
 20
8599516.00
  0
VERTEX
  8
0ALV_ROD
 10
614051.63
 20
8599473.00
  0
VERTEX
  8
0ALV_ROD
 10
614102.13
 20
8599385.00
  0
VERTEX
  8
0ALV_ROD
 10
614177.44
 20
8599317.00
  0
VERTEX
  8
0ALV_ROD
 10
614233.88
 20
8599267.00
  0
VERTEX
  8
0ALV_ROD
 10
614302.06
 20
8599205.00
  0
SEQEND
  8
0ALV_ROD
  0
POLYLINE
  8
0ALV_ROD
 66
     1
  0
VERTEX
  8
0ALV_ROD
 10
667807.69
 20
8597373.00
  0
VERTEX
  8
0ALV_ROD
 10
667909.44
 20
8597478.00
  0
VERTEX
  8
0ALV_ROD
 10
667959.00
 20
8597503.00
  0
VERTEX
  8
0ALV_ROD
 10
668106.06
 20
8597681.00
  0
VERTEX
  8
0ALV_ROD
 10
668130.63
 20
8597706.00
  0
VERTEX
  8
0ALV_ROD
 10
668154.38
 20
8597781.00
  0
VERTEX
  8
0ALV_ROD
 10
668178.13
 20
8597856.00
  0
VERTEX
  8
0ALV_ROD
 10
668325.25
 20
8598033.00
  0
VERTEX
  8
0ALV_ROD
 10
668372.31
 20
8598208.00
  0
VERTEX
  8
0ALV_ROD
 10
668666.81
 20
8598537.00
  0
VERTEX
  8
0ALV_ROD
 10
668691.00
 20
8598588.00
  0
VERTEX
  8
0ALV_ROD
 10
668862.25
 20
8598815.00
  0
VERTEX
  8
0ALV_ROD
 10
669036.00
 20
8598893.00
  0
VERTEX
  8
0ALV_ROD
 10
669085.56
 20
8598919.00
  0
VERTEX
  8
0ALV_ROD
 10
669135.56
 20
8598920.00
  0
VERTEX
  8
0ALV_ROD
 10
669385.13
 20
8598949.00
  0
VERTEX
  8
0ALV_ROD
 10
669657.13
 20
8599128.00
  0
VERTEX
  8
0ALV_ROD
 10
670152.13
 20
8599436.00
  0
VERTEX
  8
0ALV_ROD
 10
670374.56
 20
8599590.00
  0
VERTEX
  8
0ALV_ROD
 10
670621.19
 20
8599794.00
  0
VERTEX
  8
0ALV_ROD
 10
670770.75
 20
8599821.00
  0
VERTEX
  8
0ALV_ROD
 10
670945.75
 20
8599825.00
  0
VERTEX
  8
0ALV_ROD
 10
670995.75
 20
8599826.00
  0
VERTEX
  8
0ALV_ROD
 10
671192.44
 20
8600028.00
  0
VERTEX
  8
0ALV_ROD
 10
671391.94
 20
8600057.00
  0
VERTEX
  8
0ALV_ROD
 10
671563.63
 20
8600259.00
  0
VERTEX
  8
0ALV_ROD
 10
671935.69
 20
8600441.00
  0
VERTEX
  8
0ALV_ROD
 10
672134.38
 20
8600519.00
  0
VERTEX
  8
0ALV_ROD
 10
672308.94
 20
8600547.00
  0
VERTEX
  8
0ALV_ROD
 10
672558.50
 20
8600577.00
  0
VERTEX
  8
0ALV_ROD
 10
672733.06
 20
8600605.00
  0
VERTEX
  8
0ALV_ROD
 10
672907.63
 20
8600633.00
  0
VERTEX
  8
0ALV_ROD
 10
673081.38
 20
8600711.00
  0
VERTEX
  8
0ALV_ROD
 10
673553.44
 20
8600894.00
  0
VERTEX
  8
0ALV_ROD
 10
673777.13
 20
8600973.00
  0
VERTEX
  8
0ALV_ROD
 10
674301.25
 20
8601032.00
  0
VERTEX
  8
0ALV_ROD
 10
674573.31
 20
8601211.00
  0
VERTEX
  8
0ALV_ROD
 10
674970.31
 20
8601393.00
  0
VERTEX
  8
0ALV_ROD
 10
675019.06
 20
8601469.00
  0
VERTEX
  8
0ALV_ROD
 10
675242.81
 20
8601548.00
  0
VERTEX
  8
0ALV_ROD
 10
675417.75
 20
8601551.00
  0
VERTEX
  8
0ALV_ROD
 10
675589.44
 20
8601753.00
  0
VERTEX
  8
0ALV_ROD
 10
675663.56
 20
8601804.00
  0
VERTEX
  8
0ALV_ROD
 10
676010.63
 20
8601985.00
  0
VERTEX
  8
0ALV_ROD
 10
677112.88
 20
8603090.00
  0
VERTEX
  8
0ALV_ROD
 10
677986.25
 20
8603958.00
  0
SEQEND
  8
0ALV_ROD
  0
POLYLINE
  8
0ALV_ROD
 66
     1
  0
VERTEX
  8
0ALV_ROD
 10
662893.88
 20
8592373.00
  0
VERTEX
  8
0ALV_ROD
 10
663411.44
 20
8592568.00
  0
VERTEX
  8
0ALV_ROD
 10
664029.81
 20
8592960.00
  0
VERTEX
  8
0ALV_ROD
 10
664466.00
 20
8593871.00
  0
VERTEX
  8
0ALV_ROD
 10
665457.38
 20
8594941.00
  0
VERTEX
  8
0ALV_ROD
 10
665814.25
 20
8595734.00
  0
VERTEX
  8
0ALV_ROD
 10
666329.75
 20
8596368.00
  0
SEQEND
  8
0ALV_ROD
  0
POLYLINE
  8
0ALV_ROD
 66
     1
  0
VERTEX
  8
0ALV_ROD
 10
813443.81
 20
8606983.00
  0
VERTEX
  8
0ALV_ROD
 10
813380.75
 20
8606940.00
  0
VERTEX
  8
0ALV_ROD
 10
813305.13
 20
8606891.00
  0
VERTEX
  8
0ALV_ROD
 10
813248.31
 20
8606848.00
  0
VERTEX
  8
0ALV_ROD
 10
813197.69
 20
8606798.00
  0
VERTEX
  8
0ALV_ROD
 10
813147.56
 20
8606786.00
  0
VERTEX
  8
0ALV_ROD
 10
813065.63
 20
8606731.00
  0
VERTEX
  8
0ALV_ROD
 10
813015.31
 20
8606706.00
  0
VERTEX
  8
0ALV_ROD
 10
812970.81
 20
8606650.00
  0
VERTEX
  8
0ALV_ROD
 10
812914.13
 20
8606613.00
  0
VERTEX
  8
0ALV_ROD
 10
812850.69
 20
8606545.00
  0
VERTEX
  8
0ALV_ROD
 10
812788.00
 20
8606527.00
  0
VERTEX
  8
0ALV_ROD
 10
812706.88
 20
8606528.00
  0
VERTEX
  8
0ALV_ROD
 10
812650.38
 20
8606510.00
  0
VERTEX
  8
0ALV_ROD
 10
812569.06
 20
8606504.00
  0
VERTEX
  8
0ALV_ROD
 10
812500.38
 20
8606505.00
  0
VERTEX
  8
0ALV_ROD
 10
812450.13
 20
8606481.00
  0
VERTEX
  8
0ALV_ROD
 10
812381.13
 20
8606463.00
  0
VERTEX
  8
0ALV_ROD
 10
812324.44
 20
8606426.00
  0
VERTEX
  8
0ALV_ROD
 10
812248.69
 20
8606370.00
  0
VERTEX
  8
0ALV_ROD
 10
812173.38
 20
8606340.00
  0
VERTEX
  8
0ALV_ROD
 10
812122.94
 20
8606309.00
  0
VERTEX
  8
0ALV_ROD
 10
812046.81
 20
8606222.00
  0
VERTEX
  8
0ALV_ROD
 10
812002.06
 20
8606147.00
  0
VERTEX
  8
0ALV_ROD
 10
811963.69
 20
8606079.00
  0
VERTEX
  8
0ALV_ROD
 10
811913.13
 20
8606035.00
  0
VERTEX
  8
0ALV_ROD
 10
811893.63
 20
8605979.00
  0
VERTEX
  8
0ALV_ROD
 10
811842.19
 20
8605873.00
  0
VERTEX
  8
0ALV_ROD
 10
811791.19
 20
8605798.00
  0
VERTEX
  8
0ALV_ROD
 10
811765.38
 20
8605736.00
  0
VERTEX
  8
0ALV_ROD
 10
811745.63
 20
8605661.00
  0
VERTEX
  8
0ALV_ROD
 10
811732.44
 20
8605611.00
  0
VERTEX
  8
0ALV_ROD
 10
811712.69
 20
8605535.00
  0
VERTEX
  8
0ALV_ROD
 10
811699.25
 20
8605467.00
  0
VERTEX
  8
0ALV_ROD
 10
811679.13
 20
8605366.00
  0
VERTEX
  8
0ALV_ROD
 10
811659.31
 20
8605285.00
  0
VERTEX
  8
0ALV_ROD
 10
811652.38
 20
8605235.00
  0
VERTEX
  8
0ALV_ROD
 10
811639.13
 20
8605178.00
  0
VERTEX
  8
0ALV_ROD
 10
811625.50
 20
8605097.00
  0
VERTEX
  8
0ALV_ROD
 10
811611.88
 20
8605016.00
  0
VERTEX
  8
0ALV_ROD
 10
811604.44
 20
8604928.00
  0
VERTEX
  8
0ALV_ROD
 10
811597.19
 20
8604852.00
  0
VERTEX
  8
0ALV_ROD
 10
811596.50
 20
8604802.00
  0
VERTEX
  8
0ALV_ROD
 10
811589.25
 20
8604727.00
  0
VERTEX
  8
0ALV_ROD
 10
811588.19
 20
8604652.00
  0
VERTEX
  8
0ALV_ROD
 10
811581.31
 20
8604601.00
  0
VERTEX
  8
0ALV_ROD
 10
811567.69
 20
8604520.00
  0
VERTEX
  8
0ALV_ROD
 10
811547.94
 20
8604445.00
  0
VERTEX
  8
0ALV_ROD
 10
811534.75
 20
8604395.00
  0
VERTEX
  8
0ALV_ROD
 10
811527.50
 20
8604320.00
  0
VERTEX
  8
0ALV_ROD
 10
811514.19
 20
8604263.00
  0
VERTEX
  8
0ALV_ROD
 10
811468.94
 20
8604151.00
  0
VERTEX
  8
0ALV_ROD
 10
811449.38
 20
8604088.00
  0
VERTEX
  8
0ALV_ROD
 10
811429.88
 20
8604032.00
  0
VERTEX
  8
0ALV_ROD
 10
811354.44
 20
8603995.00
  0
VERTEX
  8
0ALV_ROD
 10
811303.44
 20
8603920.00
  0
VERTEX
  8
0ALV_ROD
 10
811258.44
 20
8603827.00
  0
VERTEX
  8
0ALV_ROD
 10
811194.69
 20
8603733.00
  0
VERTEX
  8
0ALV_ROD
 10
811143.38
 20
8603634.00
  0
VERTEX
  8
0ALV_ROD
 10
811098.88
 20
8603578.00
  0
VERTEX
  8
0ALV_ROD
 10
811066.56
 20
8603496.00
  0
VERTEX
  8
0ALV_ROD
 10
811027.88
 20
8603409.00
  0
VERTEX
  8
0ALV_ROD
 10
810976.31
 20
8603290.00
  0
VERTEX
  8
0ALV_ROD
 10
810956.56
 20
8603215.00
  0
VERTEX
  8
0ALV_ROD
 10
810918.06
 20
8603140.00
  0
VERTEX
  8
0ALV_ROD
 10
810841.88
 20
8603053.00
  0
VERTEX
  8
0ALV_ROD
 10
810790.81
 20
8602972.00
  0
VERTEX
  8
0ALV_ROD
 10
810739.81
 20
8602898.00
  0
VERTEX
  8
0ALV_ROD
 10
810688.94
 20
8602829.00
  0
VERTEX
  8
0ALV_ROD
 10
810612.81
 20
8602742.00
  0
VERTEX
  8
0ALV_ROD
 10
810555.56
 20
8602668.00
  0
VERTEX
  8
0ALV_ROD
 10
810485.69
 20
8602581.00
  0
VERTEX
  8
0ALV_ROD
 10
810440.94
 20
8602506.00
  0
VERTEX
  8
0ALV_ROD
 10
810402.69
 20
8602450.00
  0
VERTEX
  8
0ALV_ROD
 10
810345.31
 20
8602362.00
  0
VERTEX
  8
0ALV_ROD
 10
810306.19
 20
8602244.00
  0
VERTEX
  8
0ALV_ROD
 10
810236.81
 20
8602194.00
  0
VERTEX
  8
0ALV_ROD
 10
810204.75
 20
8602132.00
  0
VERTEX
  8
0ALV_ROD
 10
810147.75
 20
8602076.00
  0
VERTEX
  8
0ALV_ROD
 10
810097.13
 20
8602026.00
  0
VERTEX
  8
0ALV_ROD
 10
810021.88
 20
8602002.00
  0
VERTEX
  8
0ALV_ROD
 10
809970.75
 20
8601921.00
  0
VERTEX
  8
0ALV_ROD
 10
809913.81
 20
8601865.00
  0
VERTEX
  8
0ALV_ROD
 10
809844.31
 20
8601810.00
  0
VERTEX
  8
0ALV_ROD
 10
809799.31
 20
8601716.00
  0
VERTEX
  8
0ALV_ROD
 10
809710.63
 20
8601623.00
  0
VERTEX
  8
0ALV_ROD
 10
809653.75
 20
8601574.00
  0
VERTEX
  8
0ALV_ROD
 10
809640.25
 20
8601498.00
  0
VERTEX
  8
0ALV_ROD
 10
809582.88
 20
8601417.00
  0
VERTEX
  8
0ALV_ROD
 10
809563.06
 20
8601336.00
  0
VERTEX
  8
0ALV_ROD
 10
809543.63
 20
8601286.00
  0
VERTEX
  8
0ALV_ROD
 10
809523.88
 20
8601211.00
  0
VERTEX
  8
0ALV_ROD
 10
809516.88
 20
8601155.00
  0
VERTEX
  8
0ALV_ROD
 10
809509.06
 20
8601042.00
  0
VERTEX
  8
0ALV_ROD
 10
809501.63
 20
8600954.00
  0
VERTEX
  8
0ALV_ROD
 10
809494.38
 20
8600879.00
  0
VERTEX
  8
0ALV_ROD
 10
809487.44
 20
8600828.00
  0
VERTEX
  8
0ALV_ROD
 10
809480.50
 20
8600778.00
  0
VERTEX
  8
0ALV_ROD
 10
809473.50
 20
8600722.00
  0
VERTEX
  8
0ALV_ROD
 10
809453.50
 20
8600628.00
  0
VERTEX
  8
0ALV_ROD
 10
809440.31
 20
8600578.00
  0
VERTEX
  8
0ALV_ROD
 10
809420.44
 20
8600496.00
  0
VERTEX
  8
0ALV_ROD
 10
809413.19
 20
8600421.00
  0
VERTEX
  8
0ALV_ROD
 10
809393.31
 20
8600340.00
  0
VERTEX
  8
0ALV_ROD
 10
809379.81
 20
8600265.00
  0
VERTEX
  8
0ALV_ROD
 10
809360.25
 20
8600202.00
  0
VERTEX
  8
0ALV_ROD
 10
809334.00
 20
8600108.00
  0
VERTEX
  8
0ALV_ROD
 10
809320.69
 20
8600052.00
  0
VERTEX
  8
0ALV_ROD
 10
809300.75
 20
8599964.00
  0
VERTEX
  8
0ALV_ROD
 10
809287.38
 20
8599895.00
  0
VERTEX
  8
0ALV_ROD
 10
809261.19
 20
8599808.00
  0
VERTEX
  8
0ALV_ROD
 10
809179.25
 20
8599752.00
  0
VERTEX
  8
0ALV_ROD
 10
809103.56
 20
8599703.00
  0
VERTEX
  8
0ALV_ROD
 10
809047.00
 20
8599678.00
  0
VERTEX
  8
0ALV_ROD
 10
808971.88
 20
8599661.00
  0
VERTEX
  8
0ALV_ROD
 10
808921.69
 20
8599649.00
  0
VERTEX
  8
0ALV_ROD
 10
808871.56
 20
8599637.00
  0
VERTEX
  8
0ALV_ROD
 10
808821.44
 20
8599625.00
  0
VERTEX
  8
0ALV_ROD
 10
808740.19
 20
8599619.00
  0
VERTEX
  8
0ALV_ROD
 10
808690.13
 20
8599614.00
  0
VERTEX
  8
0ALV_ROD
 10
808615.19
 20
8599615.00
  0
VERTEX
  8
0ALV_ROD
 10
808564.88
 20
8599590.00
  0
VERTEX
  8
0ALV_ROD
 10
808507.94
 20
8599534.00
  0
VERTEX
  8
0ALV_ROD
 10
808438.56
 20
8599485.00
  0
VERTEX
  8
0ALV_ROD
 10
808387.81
 20
8599429.00
  0
VERTEX
  8
0ALV_ROD
 10
808343.06
 20
8599354.00
  0
VERTEX
  8
0ALV_ROD
 10
808286.25
 20
8599311.00
  0
VERTEX
  8
0ALV_ROD
 10
808241.44
 20
8599230.00
  0
VERTEX
  8
0ALV_ROD
 10
808196.63
 20
8599149.00
  0
VERTEX
  8
0ALV_ROD
 10
808177.13
 20
8599093.00
  0
VERTEX
  8
0ALV_ROD
 10
808126.13
 20
8599018.00
  0
VERTEX
  8
0ALV_ROD
 10
808069.00
 20
8598950.00
  0
VERTEX
  8
0ALV_ROD
 10
808055.75
 20
8598893.00
  0
VERTEX
  8
0ALV_ROD
 10
808005.31
 20
8598862.00
  0
VERTEX
  8
0ALV_ROD
 10
807923.56
 20
8598820.00
  0
VERTEX
  8
0ALV_ROD
 10
807873.06
 20
8598782.00
  0
VERTEX
  8
0ALV_ROD
 10
807791.75
 20
8598771.00
  0
VERTEX
  8
0ALV_ROD
 10
807710.44
 20
8598766.00
  0
VERTEX
  8
0ALV_ROD
 10
807616.75
 20
8598767.00
  0
VERTEX
  8
0ALV_ROD
 10
807529.31
 20
8598768.00
  0
VERTEX
  8
0ALV_ROD
 10
807441.94
 20
8598769.00
  0
VERTEX
  8
0ALV_ROD
 10
807367.00
 20
8598770.00
  0
VERTEX
  8
0ALV_ROD
 10
807310.75
 20
8598771.00
  0
VERTEX
  8
0ALV_ROD
 10
807254.56
 20
8598771.00
  0
VERTEX
  8
0ALV_ROD
 10
807179.44
 20
8598760.00
  0
VERTEX
  8
0ALV_ROD
 10
807123.13
 20
8598754.00
  0
VERTEX
  8
0ALV_ROD
 10
807060.63
 20
8598749.00
  0
VERTEX
  8
0ALV_ROD
 10
807010.44
 20
8598730.00
  0
VERTEX
  8
0ALV_ROD
 10
806928.88
 20
8598706.00
  0
VERTEX
  8
0ALV_ROD
 10
806872.13
 20
8598669.00
  0
VERTEX
  8
0ALV_ROD
 10
806809.19
 20
8598632.00
  0
VERTEX
  8
0ALV_ROD
 10
806758.56
 20
8598583.00
  0
VERTEX
  8
0ALV_ROD
 10
806688.94
 20
8598515.00
  0
VERTEX
  8
0ALV_ROD
 10
806613.06
 20
8598447.00
  0
VERTEX
  8
0ALV_ROD
 10
806537.69
 20
8598416.00
  0
VERTEX
  8
0ALV_ROD
 10
806480.94
 20
8598379.00
  0
VERTEX
  8
0ALV_ROD
 10
806411.94
 20
8598355.00
  0
VERTEX
  8
0ALV_ROD
 10
806342.81
 20
8598324.00
  0
VERTEX
  8
0ALV_ROD
 10
806292.38
 20
8598294.00
  0
VERTEX
  8
0ALV_ROD
 10
806242.19
 20
8598275.00
  0
VERTEX
  8
0ALV_ROD
 10
806160.44
 20
8598232.00
  0
VERTEX
  8
0ALV_ROD
 10
806109.94
 20
8598195.00
  0
VERTEX
  8
0ALV_ROD
 10
806041.06
 20
8598184.00
  0
VERTEX
  8
0ALV_ROD
 10
805990.50
 20
8598140.00
  0
VERTEX
  8
0ALV_ROD
 10
805908.63
 20
8598091.00
  0
VERTEX
  8
0ALV_ROD
 10
805858.44
 20
8598073.00
  0
VERTEX
  8
0ALV_ROD
 10
805788.69
 20
8597998.00
  0
VERTEX
  8
0ALV_ROD
 10
805738.38
 20
8597974.00
  0
VERTEX
  8
0ALV_ROD
 10
805693.63
 20
8597899.00
  0
VERTEX
  8
0ALV_ROD
 10
805643.00
 20
8597849.00
  0
VERTEX
  8
0ALV_ROD
 10
805567.44
 20
8597806.00
  0
VERTEX
  8
0ALV_ROD
 10
805516.31
 20
8597719.00
  0
VERTEX
  8
0ALV_ROD
 10
805465.38
 20
8597651.00
  0
VERTEX
  8
0ALV_ROD
 10
805408.31
 20
8597589.00
  0
VERTEX
  8
0ALV_ROD
 10
805370.00
 20
8597526.00
  0
VERTEX
  8
0ALV_ROD
 10
805331.50
 20
8597451.00
  0
VERTEX
  8
0ALV_ROD
 10
805318.25
 20
8597395.00
  0
VERTEX
  8
0ALV_ROD
 10
805273.44
 20
8597314.00
  0
VERTEX
  8
0ALV_ROD
 10
805234.94
 20
8597239.00
  0
VERTEX
  8
0ALV_ROD
 10
805202.50
 20
8597152.00
  0
VERTEX
  8
0ALV_ROD
 10
805157.81
 20
8597077.00
  0
VERTEX
  8
0ALV_ROD
 10
805113.19
 20
8597015.00
  0
VERTEX
  8
0ALV_ROD
 10
805081.25
 20
8596958.00
  0
VERTEX
  8
0ALV_ROD
 10
805036.75
 20
8596903.00
  0
VERTEX
  8
0ALV_ROD
 10
804967.00
 20
8596828.00
  0
VERTEX
  8
0ALV_ROD
 10
804898.06
 20
8596810.00
  0
VERTEX
  8
0ALV_ROD
 10
804847.81
 20
8596792.00
  0
VERTEX
  8
0ALV_ROD
 10
804797.63
 20
8596774.00
  0
VERTEX
  8
0ALV_ROD
 10
804728.75
 20
8596762.00
  0
VERTEX
  8
0ALV_ROD
 10
804653.63
 20
8596750.00
  0
VERTEX
  8
0ALV_ROD
 10
804578.63
 20
8596745.00
  0
VERTEX
  8
0ALV_ROD
 10
804503.69
 20
8596746.00
  0
VERTEX
  8
0ALV_ROD
 10
804447.38
 20
8596740.00
  0
VERTEX
  8
0ALV_ROD
 10
804359.94
 20
8596741.00
  0
VERTEX
  8
0ALV_ROD
 10
804272.50
 20
8596742.00
  0
VERTEX
  8
0ALV_ROD
 10
804191.31
 20
8596744.00
  0
VERTEX
  8
0ALV_ROD
 10
804134.69
 20
8596713.00
  0
VERTEX
  8
0ALV_ROD
 10
804072.00
 20
8596695.00
  0
VERTEX
  8
0ALV_ROD
 10
804002.69
 20
8596652.00
  0
VERTEX
  8
0ALV_ROD
 10
803939.31
 20
8596583.00
  0
VERTEX
  8
0ALV_ROD
 10
803863.06
 20
8596490.00
  0
VERTEX
  8
0ALV_ROD
 10
803818.56
 20
8596434.00
  0
VERTEX
  8
0ALV_ROD
 10
803786.19
 20
8596347.00
  0
VERTEX
  8
0ALV_ROD
 10
803735.38
 20
8596284.00
  0
VERTEX
  8
0ALV_ROD
 10
803696.88
 20
8596210.00
  0
VERTEX
  8
0ALV_ROD
 10
803657.75
 20
8596091.00
  0
VERTEX
  8
0ALV_ROD
 10
803619.13
 20
8596003.00
  0
VERTEX
  8
0ALV_ROD
 10
803580.56
 20
8595922.00
  0
VERTEX
  8
0ALV_ROD
 10
803535.63
 20
8595835.00
  0
VERTEX
  8
0ALV_ROD
 10
803484.88
 20
8595779.00
  0
VERTEX
  8
0ALV_ROD
 10
803408.75
 20
8595692.00
  0
VERTEX
  8
0ALV_ROD
 10
803332.75
 20
8595618.00
  0
VERTEX
  8
0ALV_ROD
 10
803276.00
 20
8595574.00
  0
VERTEX
  8
0ALV_ROD
 10
803187.44
 20
8595494.00
  0
VERTEX
  8
0ALV_ROD
 10
803111.38
 20
8595413.00
  0
VERTEX
  8
0ALV_ROD
 10
803079.13
 20
8595338.00
  0
VERTEX
  8
0ALV_ROD
 10
803059.38
 20
8595263.00
  0
VERTEX
  8
0ALV_ROD
 10
803045.88
 20
8595188.00
  0
VERTEX
  8
0ALV_ROD
 10
802994.38
 20
8595075.00
  0
VERTEX
  8
0ALV_ROD
 10
802981.19
 20
8595025.00
  0
VERTEX
  8
0ALV_ROD
 10
802961.63
 20
8594963.00
  0
VERTEX
  8
0ALV_ROD
 10
802948.19
 20
8594894.00
  0
VERTEX
  8
0ALV_ROD
 10
802934.63
 20
8594819.00
  0
VERTEX
  8
0ALV_ROD
 10
802914.38
 20
8594706.00
  0
VERTEX
  8
0ALV_ROD
 10
802894.63
 20
8594631.00
  0
VERTEX
  8
0ALV_ROD
 10
802874.69
 20
8594543.00
  0
VERTEX
  8
0ALV_ROD
 10
802861.38
 20
8594481.00
  0
VERTEX
  8
0ALV_ROD
 10
802841.56
 20
8594405.00
  0
VERTEX
  8
0ALV_ROD
 10
802821.81
 20
8594330.00
  0
VERTEX
  8
0ALV_ROD
 10
802789.50
 20
8594249.00
  0
VERTEX
  8
0ALV_ROD
 10
802776.31
 20
8594199.00
  0
VERTEX
  8
0ALV_ROD
 10
802744.00
 20
8594118.00
  0
VERTEX
  8
0ALV_ROD
 10
802712.00
 20
8594062.00
  0
VERTEX
  8
0ALV_ROD
 10
802654.56
 20
8593975.00
  0
VERTEX
  8
0ALV_ROD
 10
802634.88
 20
8593906.00
  0
VERTEX
  8
0ALV_ROD
 10
802621.75
 20
8593856.00
  0
VERTEX
  8
0ALV_ROD
 10
802614.81
 20
8593805.00
  0
VERTEX
  8
0ALV_ROD
 10
802601.31
 20
8593730.00
  0
VERTEX
  8
0ALV_ROD
 10
802600.25
 20
8593655.00
  0
VERTEX
  8
0ALV_ROD
 10
802593.31
 20
8593605.00
  0
VERTEX
  8
0ALV_ROD
 10
802579.19
 20
8593486.00
  0
VERTEX
  8
0ALV_ROD
 10
802539.88
 20
8593348.00
  0
VERTEX
  8
0ALV_ROD
 10
802507.44
 20
8593260.00
  0
VERTEX
  8
0ALV_ROD
 10
802456.94
 20
8593223.00
  0
VERTEX
  8
0ALV_ROD
 10
802406.75
 20
8593205.00
  0
VERTEX
  8
0ALV_ROD
 10
802331.69
 20
8593200.00
  0
VERTEX
  8
0ALV_ROD
 10
802263.00
 20
8593201.00
  0
VERTEX
  8
0ALV_ROD
 10
802200.56
 20
8593201.00
  0
VERTEX
  8
0ALV_ROD
 10
802138.13
 20
8593202.00
  0
VERTEX
  8
0ALV_ROD
 10
802075.69
 20
8593203.00
  0
VERTEX
  8
0ALV_ROD
 10
802019.44
 20
8593204.00
  0
VERTEX
  8
0ALV_ROD
 10
801969.44
 20
8593198.00
  0
VERTEX
  8
0ALV_ROD
 10
801894.50
 20
8593199.00
  0
VERTEX
  8
0ALV_ROD
 10
801813.31
 20
8593200.00
  0
VERTEX
  8
0ALV_ROD
 10
801757.00
 20
8593194.00
  0
VERTEX
  8
0ALV_ROD
 10
801706.94
 20
8593189.00
  0
VERTEX
  8
0ALV_ROD
 10
801644.25
 20
8593171.00
  0
VERTEX
  8
0ALV_ROD
 10
801588.06
 20
8593171.00
  0
VERTEX
  8
0ALV_ROD
 10
801525.63
 20
8593172.00
  0
VERTEX
  8
0ALV_ROD
 10
801487.19
 20
8593104.00
  0
VERTEX
  8
0ALV_ROD
 10
801423.81
 20
8593035.00
  0
VERTEX
  8
0ALV_ROD
 10
801372.75
 20
8592954.00
  0
VERTEX
  8
0ALV_ROD
 10
801340.56
 20
8592886.00
  0
VERTEX
  8
0ALV_ROD
 10
801314.81
 20
8592829.00
  0
VERTEX
  8
0ALV_ROD
 10
801314.06
 20
8592773.00
  0
VERTEX
  8
0ALV_ROD
 10
801256.81
 20
8592698.00
  0
VERTEX
  8
0ALV_ROD
 10
801243.63
 20
8592648.00
  0
VERTEX
  8
0ALV_ROD
 10
801198.88
 20
8592573.00
  0
VERTEX
  8
0ALV_ROD
 10
801160.44
 20
8592499.00
  0
VERTEX
  8
0ALV_ROD
 10
801114.88
 20
8592367.00
  0
VERTEX
  8
0ALV_ROD
 10
801082.06
 20
8592248.00
  0
VERTEX
  8
0ALV_ROD
 10
801036.63
 20
8592123.00
  0
VERTEX
  8
0ALV_ROD
 10
800966.06
 20
8591986.00
  0
VERTEX
  8
0ALV_ROD
 10
800946.38
 20
8591917.00
  0
VERTEX
  8
0ALV_ROD
 10
800932.88
 20
8591842.00
  0
VERTEX
  8
0ALV_ROD
 10
800894.63
 20
8591786.00
  0
VERTEX
  8
0ALV_ROD
 10
800881.44
 20
8591736.00
  0
VERTEX
  8
0ALV_ROD
 10
800805.56
 20
8591668.00
  0
VERTEX
  8
0ALV_ROD
 10
800786.06
 20
8591612.00
  0
VERTEX
  8
0ALV_ROD
 10
800754.06
 20
8591555.00
  0
VERTEX
  8
0ALV_ROD
 10
800703.25
 20
8591493.00
  0
VERTEX
  8
0ALV_ROD
 10
800633.69
 20
8591431.00
  0
VERTEX
  8
0ALV_ROD
 10
800595.38
 20
8591369.00
  0
VERTEX
  8
0ALV_ROD
 10
800544.88
 20
8591332.00
  0
VERTEX
  8
0ALV_ROD
 10
800494.25
 20
8591282.00
  0
VERTEX
  8
0ALV_ROD
 10
800443.50
 20
8591226.00
  0
VERTEX
  8
0ALV_ROD
 10
800399.00
 20
8591170.00
  0
VERTEX
  8
0ALV_ROD
 10
800348.06
 20
8591096.00
  0
VERTEX
  8
0ALV_ROD
 10
800297.25
 20
8591034.00
  0
VERTEX
  8
0ALV_ROD
 10
800277.63
 20
8590971.00
  0
VERTEX
  8
0ALV_ROD
 10
800257.69
 20
8590883.00
  0
VERTEX
  8
0ALV_ROD
 10
800244.56
 20
8590833.00
  0
VERTEX
  8
0ALV_ROD
 10
800231.25
 20
8590777.00
  0
VERTEX
  8
0ALV_ROD
 10
800217.75
 20
8590702.00
  0
VERTEX
  8
0ALV_ROD
 10
800204.44
 20
8590639.00
  0
VERTEX
  8
0ALV_ROD
 10
800184.38
 20
8590545.00
  0
VERTEX
  8
0ALV_ROD
 10
800183.38
 20
8590470.00
  0
VERTEX
  8
0ALV_ROD
 10
800182.19
 20
8590382.00
  0
VERTEX
  8
0ALV_ROD
 10
800181.50
 20
8590332.00
  0
VERTEX
  8
0ALV_ROD
 10
800180.50
 20
8590256.00
  0
VERTEX
  8
0ALV_ROD
 10
800179.25
 20
8590168.00
  0
VERTEX
  8
0ALV_ROD
 10
800184.50
 20
8590093.00
  0
VERTEX
  8
0ALV_ROD
 10
800183.81
 20
8590043.00
  0
VERTEX
  8
0ALV_ROD
 10
800170.63
 20
8589993.00
  0
VERTEX
  8
0ALV_ROD
 10
800102.06
 20
8589545.00
  0
SEQEND
  8
0ALV_ROD
  0
POLYLINE
  8
0ALV_ROD
 66
     1
  0
VERTEX
  8
0ALV_ROD
 10
800102.06
 20
8589545.00
  0
VERTEX
  8
0ALV_ROD
 10
799973.56
 20
8589279.00
  0
VERTEX
  8
0ALV_ROD
 10
799960.38
 20
8589229.00
  0
VERTEX
  8
0ALV_ROD
 10
799890.81
 20
8589167.00
  0
SEQEND
  8
0ALV_ROD
  0
POLYLINE
  8
0ALV_ROD
 66
     1
  0
VERTEX
  8
0ALV_ROD
 10
799533.13
 20
8588794.00
  0
VERTEX
  8
0ALV_ROD
 10
799504.06
 20
8588745.00
  0
VERTEX
  8
0ALV_ROD
 10
799471.63
 20
8588658.00
  0
VERTEX
  8
0ALV_ROD
 10
799433.13
 20
8588583.00
  0
VERTEX
  8
0ALV_ROD
 10
799394.38
 20
8588489.00
  0
VERTEX
  8
0ALV_ROD
 10
799368.31
 20
8588408.00
  0
VERTEX
  8
0ALV_ROD
 10
799355.13
 20
8588358.00
  0
VERTEX
  8
0ALV_ROD
 10
799310.44
 20
8588289.00
  0
VERTEX
  8
0ALV_ROD
 10
799271.88
 20
8588208.00
  0
VERTEX
  8
0ALV_ROD
 10
799233.38
 20
8588133.00
  0
VERTEX
  8
0ALV_ROD
 10
799188.75
 20
8588065.00
  0
VERTEX
  8
0ALV_ROD
 10
799144.00
 20
8587990.00
  0
VERTEX
  8
0ALV_ROD
 10
799130.38
 20
8587908.00
  0
VERTEX
  8
0ALV_ROD
 10
799073.50
 20
8587859.00
  0
VERTEX
  8
0ALV_ROD
 10
799041.31
 20
8587790.00
  0
VERTEX
  8
0ALV_ROD
 10
798978.13
 20
8587734.00
  0
VERTEX
  8
0ALV_ROD
 10
798952.38
 20
8587678.00
  0
VERTEX
  8
0ALV_ROD
 10
798895.38
 20
8587622.00
  0
VERTEX
  8
0ALV_ROD
 10
798845.00
 20
8587592.00
  0
VERTEX
  8
0ALV_ROD
 10
798788.38
 20
8587561.00
  0
VERTEX
  8
0ALV_ROD
 10
798719.25
 20
8587530.00
  0
VERTEX
  8
0ALV_ROD
 10
798128.31
 20
8586929.00
  0
SEQEND
  8
0ALV_ROD
  0
POLYLINE
  8
0ALV_ROD
 66
     1
  0
VERTEX
  8
0ALV_ROD
 10
662893.88
 20
8592373.00
  0
VERTEX
  8
0ALV_ROD
 10
662548.88
 20
8592328.00
  0
VERTEX
  8
0ALV_ROD
 10
662292.31
 20
8592258.00
  0
VERTEX
  8
0ALV_ROD
 10
662142.81
 20
8592281.00
  0
VERTEX
  8
0ALV_ROD
 10
662068.19
 20
8592280.00
  0
VERTEX
  8
0ALV_ROD
 10
661943.94
 20
8592278.00
  0
VERTEX
  8
0ALV_ROD
 10
661769.88
 20
8592275.00
  0
VERTEX
  8
0ALV_ROD
 10
661595.81
 20
8592272.00
  0
VERTEX
  8
0ALV_ROD
 10
661446.69
 20
8592270.00
  0
VERTEX
  8
0ALV_ROD
 10
661297.50
 20
8592267.00
  0
VERTEX
  8
0ALV_ROD
 10
661098.94
 20
8592239.00
  0
VERTEX
  8
0ALV_ROD
 10
660925.19
 20
8592212.00
  0
VERTEX
  8
0ALV_ROD
 10
660776.38
 20
8592184.00
  0
VERTEX
  8
0ALV_ROD
 10
660652.38
 20
8592157.00
  0
VERTEX
  8
0ALV_ROD
 10
660578.44
 20
8592106.00
  0
VERTEX
  8
0ALV_ROD
 10
660430.19
 20
8592029.00
  0
VERTEX
  8
0ALV_ROD
 10
660282.00
 20
8591952.00
  0
VERTEX
  8
0ALV_ROD
 10
660133.75
 20
8591875.00
  0
VERTEX
  8
0ALV_ROD
 10
659985.19
 20
8591823.00
  0
VERTEX
  8
0ALV_ROD
 10
659837.00
 20
8591746.00
  0
VERTEX
  8
0ALV_ROD
 10
659763.38
 20
8591670.00
  0
VERTEX
  8
0ALV_ROD
 10
659714.63
 20
8591594.00
  0
VERTEX
  8
0ALV_ROD
 10
659541.56
 20
8591517.00
  0
VERTEX
  8
0ALV_ROD
 10
659393.31
 20
8591440.00
  0
VERTEX
  8
0ALV_ROD
 10
659320.31
 20
8591314.00
  0
VERTEX
  8
0ALV_ROD
 10
659146.94
 20
8591261.00
  0
VERTEX
  8
0ALV_ROD
 10
658875.31
 20
8591108.00
  0
VERTEX
  8
0ALV_ROD
 10
658677.44
 20
8591030.00
  0
VERTEX
  8
0ALV_ROD
 10
658504.31
 20
8590952.00
  0
VERTEX
  8
0ALV_ROD
 10
658356.13
 20
8590875.00
  0
VERTEX
  8
0ALV_ROD
 10
658182.75
 20
8590822.00
  0
VERTEX
  8
0ALV_ROD
 10
657861.44
 20
8590668.00
  0
VERTEX
  8
0ALV_ROD
 10
657713.19
 20
8590591.00
  0
VERTEX
  8
0ALV_ROD
 10
657390.94
 20
8590511.00
  0
VERTEX
  8
0ALV_ROD
 10
657217.88
 20
8590433.00
  0
VERTEX
  8
0ALV_ROD
 10
657069.69
 20
8590356.00
  0
VERTEX
  8
0ALV_ROD
 10
656822.00
 20
8590278.00
  0
VERTEX
  8
0ALV_ROD
 10
656648.56
 20
8590225.00
  0
VERTEX
  8
0ALV_ROD
 10
656450.69
 20
8590147.00
  0
VERTEX
  8
0ALV_ROD
 10
656153.25
 20
8590068.00
  0
VERTEX
  8
0ALV_ROD
 10
655930.50
 20
8589989.00
  0
VERTEX
  8
0ALV_ROD
 10
655608.19
 20
8589909.00
  0
VERTEX
  8
0ALV_ROD
 10
655434.81
 20
8589857.00
  0
VERTEX
  8
0ALV_ROD
 10
655136.75
 20
8589827.00
  0
VERTEX
  8
0ALV_ROD
 10
654963.38
 20
8589775.00
  0
VERTEX
  8
0ALV_ROD
 10
654690.25
 20
8589745.00
  0
VERTEX
  8
0ALV_ROD
 10
654516.50
 20
8589718.00
  0
VERTEX
  8
0ALV_ROD
 10
654193.31
 20
8589713.00
  0
VERTEX
  8
0ALV_ROD
 10
654019.56
 20
8589685.00
  0
VERTEX
  8
0ALV_ROD
 10
653721.25
 20
8589680.00
  0
VERTEX
  8
0ALV_ROD
 10
653523.00
 20
8589627.00
  0
VERTEX
  8
0ALV_ROD
 10
653250.13
 20
8589573.00
  0
VERTEX
  8
0ALV_ROD
 10
653126.44
 20
8589521.00
  0
VERTEX
  8
0ALV_ROD
 10
652953.06
 20
8589469.00
  0
VERTEX
  8
0ALV_ROD
 10
652705.44
 20
8589390.00
  0
VERTEX
  8
0ALV_ROD
 10
652533.25
 20
8589238.00
  0
VERTEX
  8
0ALV_ROD
 10
652361.19
 20
8589086.00
  0
VERTEX
  8
0ALV_ROD
 10
652239.06
 20
8588909.00
  0
VERTEX
  8
0ALV_ROD
 10
651992.38
 20
8588756.00
  0
VERTEX
  8
0ALV_ROD
 10
651846.69
 20
8588479.00
  0
VERTEX
  8
0ALV_ROD
 10
651550.88
 20
8588275.00
  0
VERTEX
  8
0ALV_ROD
 10
651380.69
 20
8587973.00
  0
VERTEX
  8
0ALV_ROD
 10
651084.56
 20
8587794.00
  0
VERTEX
  8
0ALV_ROD
 10
650886.31
 20
8587741.00
  0
VERTEX
  8
0ALV_ROD
 10
650615.06
 20
8587563.00
  0
VERTEX
  8
0ALV_ROD
 10
650467.75
 20
8587411.00
  0
VERTEX
  8
0ALV_ROD
 10
650170.38
 20
8587331.00
  0
VERTEX
  8
0ALV_ROD
 10
649997.00
 20
8587279.00
  0
VERTEX
  8
0ALV_ROD
 10
649824.56
 20
8587151.00
  0
VERTEX
  8
0ALV_ROD
 10
649651.50
 20
8587074.00
  0
VERTEX
  8
0ALV_ROD
 10
649304.38
 20
8586994.00
  0
VERTEX
  8
0ALV_ROD
 10
648957.25
 20
8586913.00
  0
VERTEX
  8
0ALV_ROD
 10
648634.69
 20
8586858.00
  0
VERTEX
  8
0ALV_ROD
 10
648436.13
 20
8586830.00
  0
VERTEX
  8
0ALV_ROD
 10
648163.25
 20
8586776.00
  0
VERTEX
  8
0ALV_ROD
 10
647989.56
 20
8586748.00
  0
VERTEX
  8
0ALV_ROD
 10
647716.69
 20
8586694.00
  0
VERTEX
  8
0ALV_ROD
 10
647542.69
 20
8586692.00
  0
VERTEX
  8
0ALV_ROD
 10
647368.94
 20
8586664.00
  0
VERTEX
  8
0ALV_ROD
 10
647244.63
 20
8586662.00
  0
VERTEX
  8
0ALV_ROD
 10
647095.44
 20
8586660.00
  0
VERTEX
  8
0ALV_ROD
 10
646846.81
 20
8586656.00
  0
VERTEX
  8
0ALV_ROD
 10
646697.69
 20
8586653.00
  0
VERTEX
  8
0ALV_ROD
 10
646523.63
 20
8586651.00
  0
VERTEX
  8
0ALV_ROD
 10
646349.63
 20
8586648.00
  0
VERTEX
  8
0ALV_ROD
 10
646225.31
 20
8586646.00
  0
VERTEX
  8
0ALV_ROD
 10
646051.25
 20
8586643.00
  0
VERTEX
  8
0ALV_ROD
 10
645802.63
 20
8586639.00
  0
VERTEX
  8
0ALV_ROD
 10
645628.63
 20
8586636.00
  0
VERTEX
  8
0ALV_ROD
 10
645479.44
 20
8586634.00
  0
VERTEX
  8
0ALV_ROD
 10
645330.25
 20
8586632.00
  0
VERTEX
  8
0ALV_ROD
 10
645255.69
 20
8586631.00
  0
VERTEX
  8
0ALV_ROD
 10
645181.13
 20
8586629.00
  0
VERTEX
  8
0ALV_ROD
 10
645106.50
 20
8586628.00
  0
VERTEX
  8
0ALV_ROD
 10
645031.94
 20
8586627.00
  0
VERTEX
  8
0ALV_ROD
 10
644884.31
 20
8586500.00
  0
VERTEX
  8
0ALV_ROD
 10
644773.44
 20
8586442.00
  0
SEQEND
  8
0ALV_ROD
  0
POLYLINE
  8
0ALV_ROD
 66
     1
  0
VERTEX
  8
0ALV_ROD
 10
761559.94
 20
8585085.00
  0
VERTEX
  8
0ALV_ROD
 10
761554.81
 20
8585390.00
  0
VERTEX
  8
0ALV_ROD
 10
761551.94
 20
8585564.00
  0
VERTEX
  8
0ALV_ROD
 10
761545.69
 20
8585938.00
  0
VERTEX
  8
0ALV_ROD
 10
761538.19
 20
8586386.00
  0
VERTEX
  8
0ALV_ROD
 10
761554.00
 20
8586934.00
  0
VERTEX
  8
0ALV_ROD
 10
761597.31
 20
8587333.00
  0
VERTEX
  8
0ALV_ROD
 10
761617.31
 20
8587632.00
  0
VERTEX
  8
0ALV_ROD
 10
761636.50
 20
8587981.00
  0
VERTEX
  8
0ALV_ROD
 10
761680.69
 20
8588331.00
  0
VERTEX
  8
0ALV_ROD
 10
761724.38
 20
8588705.00
  0
VERTEX
  8
0ALV_ROD
 10
761744.00
 20
8589029.00
  0
VERTEX
  8
0ALV_ROD
 10
761764.00
 20
8589328.00
  0
VERTEX
  8
0ALV_ROD
 10
761760.69
 20
8589527.00
  0
VERTEX
  8
0ALV_ROD
 10
761755.69
 20
8589826.00
  0
VERTEX
  8
0ALV_ROD
 10
761726.94
 20
8590049.00
  0
VERTEX
  8
0ALV_ROD
 10
761696.13
 20
8590397.00
  0
VERTEX
  8
0ALV_ROD
 10
761641.13
 20
8590695.00
  0
VERTEX
  8
0ALV_ROD
 10
761634.88
 20
8591069.00
  0
VERTEX
  8
0ALV_ROD
 10
761626.94
 20
8591542.00
  0
VERTEX
  8
0ALV_ROD
 10
761618.63
 20
8592039.00
  0
VERTEX
  8
0ALV_ROD
 10
761634.88
 20
8592563.00
  0
VERTEX
  8
0ALV_ROD
 10
761651.94
 20
8593036.00
  0
VERTEX
  8
0ALV_ROD
 10
761644.44
 20
8593484.00
  0
VERTEX
  8
0ALV_ROD
 10
761637.38
 20
8593907.00
  0
VERTEX
  8
0ALV_ROD
 10
761629.88
 20
8594355.00
  0
VERTEX
  8
0ALV_ROD
 10
761622.81
 20
8594779.00
  0
VERTEX
  8
0ALV_ROD
 10
761590.31
 20
8595226.00
  0
VERTEX
  8
0ALV_ROD
 10
761557.00
 20
8595724.00
  0
VERTEX
  8
0ALV_ROD
 10
761519.94
 20
8596445.00
  0
VERTEX
  8
0ALV_ROD
 10
761457.88
 20
8597166.00
  0
VERTEX
  8
0ALV_ROD
 10
761401.19
 20
8597563.00
  0
VERTEX
  8
0ALV_ROD
 10
761369.13
 20
8597986.00
  0
VERTEX
  8
0ALV_ROD
 10
761337.88
 20
8598359.00
  0
VERTEX
  8
0ALV_ROD
 10
761285.00
 20
8598532.00
  0
VERTEX
  8
0ALV_ROD
 10
761257.06
 20
8598706.00
  0
VERTEX
  8
0ALV_ROD
 10
761181.25
 20
8598754.00
  0
VERTEX
  8
0ALV_ROD
 10
761136.94
 20
8598853.00
  0
SEQEND
  8
0ALV_ROD
  0
POLYLINE
  8
0ALV_ROD
 66
     1
  0
VERTEX
  8
0ALV_ROD
 10
706374.13
 20
8613421.00
  0
VERTEX
  8
0ALV_ROD
 10
707159.00
 20
8611342.00
  0
VERTEX
  8
0ALV_ROD
 10
709038.31
 20
8609028.00
  0
VERTEX
  8
0ALV_ROD
 10
709972.19
 20
8598408.00
  0
VERTEX
  8
0ALV_ROD
 10
705938.19
 20
8580089.00
  0
SEQEND
  8
0ALV_ROD
  0
POLYLINE
  8
0ALV_ROD
 66
     1
  0
VERTEX
  8
0ALV_ROD
 10
643253.75
 20
8585224.00
  0
VERTEX
  8
0ALV_ROD
 10
643137.25
 20
8585052.00
  0
VERTEX
  8
0ALV_ROD
 10
642964.88
 20
8584924.00
  0
VERTEX
  8
0ALV_ROD
 10
642818.25
 20
8584723.00
  0
VERTEX
  8
0ALV_ROD
 10
642599.56
 20
8584321.00
  0
VERTEX
  8
0ALV_ROD
 10
642453.88
 20
8584044.00
  0
VERTEX
  8
0ALV_ROD
 10
642284.00
 20
8583717.00
  0
VERTEX
  8
0ALV_ROD
 10
642139.25
 20
8583366.00
  0
VERTEX
  8
0ALV_ROD
 10
642067.19
 20
8583166.00
  0
VERTEX
  8
0ALV_ROD
 10
641922.19
 20
8582839.00
  0
VERTEX
  8
0ALV_ROD
 10
641874.69
 20
8582664.00
  0
VERTEX
  8
0ALV_ROD
 10
641704.81
 20
8582337.00
  0
VERTEX
  8
0ALV_ROD
 10
641559.75
 20
8582011.00
  0
VERTEX
  8
0ALV_ROD
 10
641363.75
 20
8581784.00
  0
VERTEX
  8
0ALV_ROD
 10
641194.13
 20
8581432.00
  0
VERTEX
  8
0ALV_ROD
 10
640923.88
 20
8581178.00
  0
VERTEX
  8
0ALV_ROD
 10
640753.94
 20
8580852.00
  0
VERTEX
  8
0ALV_ROD
 10
640607.00
 20
8580675.00
  0
VERTEX
  8
0ALV_ROD
 10
640311.56
 20
8580446.00
  0
VERTEX
  8
0ALV_ROD
 10
640263.75
 20
8580296.00
  0
VERTEX
  8
0ALV_ROD
 10
640017.00
 20
8580142.00
  0
VERTEX
  8
0ALV_ROD
 10
639844.88
 20
8579990.00
  0
VERTEX
  8
0ALV_ROD
 10
639500.31
 20
8579710.00
  0
VERTEX
  8
0ALV_ROD
 10
639452.19
 20
8579585.00
  0
VERTEX
  8
0ALV_ROD
 10
639282.63
 20
8579233.00
  0
VERTEX
  8
0ALV_ROD
 10
639137.56
 20
8578907.00
  0
VERTEX
  8
0ALV_ROD
 10
639093.88
 20
8578433.00
  0
VERTEX
  8
0ALV_ROD
 10
639022.50
 20
8578182.00
  0
VERTEX
  8
0ALV_ROD
 10
638953.94
 20
8577708.00
  0
VERTEX
  8
0ALV_ROD
 10
638881.25
 20
8577557.00
  0
VERTEX
  8
0ALV_ROD
 10
638810.19
 20
8577282.00
  0
VERTEX
  8
0ALV_ROD
 10
638762.69
 20
8577106.00
  0
VERTEX
  8
0ALV_ROD
 10
638518.50
 20
8576754.00
  0
VERTEX
  8
0ALV_ROD
 10
638395.81
 20
8576627.00
  0
VERTEX
  8
0ALV_ROD
 10
638101.31
 20
8576323.00
  0
VERTEX
  8
0ALV_ROD
 10
638052.19
 20
8576273.00
  0
VERTEX
  8
0ALV_ROD
 10
637880.06
 20
8576120.00
  0
VERTEX
  8
0ALV_ROD
 10
637732.50
 20
8575994.00
  0
VERTEX
  8
0ALV_ROD
 10
637559.38
 20
8575916.00
  0
VERTEX
  8
0ALV_ROD
 10
637411.19
 20
8575839.00
  0
VERTEX
  8
0ALV_ROD
 10
637113.50
 20
8575784.00
  0
VERTEX
  8
0ALV_ROD
 10
636891.63
 20
8575631.00
  0
VERTEX
  8
0ALV_ROD
 10
636544.50
 20
8575551.00
  0
VERTEX
  8
0ALV_ROD
 10
636396.31
 20
8575474.00
  0
VERTEX
  8
0ALV_ROD
 10
636148.31
 20
8575420.00
  0
VERTEX
  8
0ALV_ROD
 10
636024.63
 20
8575368.00
  0
VERTEX
  8
0ALV_ROD
 10
635727.25
 20
8575289.00
  0
VERTEX
  8
0ALV_ROD
 10
635554.19
 20
8575211.00
  0
VERTEX
  8
0ALV_ROD
 10
635256.81
 20
8575132.00
  0
VERTEX
  8
0ALV_ROD
 10
635083.38
 20
8575079.00
  0
VERTEX
  8
0ALV_ROD
 10
634711.06
 20
8575024.00
  0
VERTEX
  8
0ALV_ROD
 10
634462.81
 20
8574995.00
  0
VERTEX
  8
0ALV_ROD
 10
634015.94
 20
8574938.00
  0
VERTEX
  8
0ALV_ROD
 10
633817.69
 20
8574885.00
  0
VERTEX
  8
0ALV_ROD
 10
633445.38
 20
8574829.00
  0
VERTEX
  8
0ALV_ROD
 10
633222.25
 20
8574776.00
  0
VERTEX
  8
0ALV_ROD
 10
632924.56
 20
8574721.00
  0
VERTEX
  8
0ALV_ROD
 10
632776.00
 20
8574669.00
  0
VERTEX
  8
0ALV_ROD
 10
632503.50
 20
8574590.00
  0
VERTEX
  8
0ALV_ROD
 10
632330.06
 20
8574537.00
  0
VERTEX
  8
0ALV_ROD
 10
632181.56
 20
8574485.00
  0
VERTEX
  8
0ALV_ROD
 10
632132.50
 20
8574435.00
  0
VERTEX
  8
0ALV_ROD
 10
631885.44
 20
8574306.00
  0
VERTEX
  8
0ALV_ROD
 10
631428.25
 20
8574205.00
  0
SEQEND
  8
0ALV_ROD
  0
POLYLINE
  8
0ALV_ROD
 66
     1
  0
VERTEX
  8
0ALV_ROD
 10
798128.31
 20
8586929.00
  0
VERTEX
  8
0ALV_ROD
 10
797921.56
 20
8586749.00
  0
VERTEX
  8
0ALV_ROD
 10
797871.13
 20
8586712.00
  0
VERTEX
  8
0ALV_ROD
 10
797808.13
 20
8586675.00
  0
VERTEX
  8
0ALV_ROD
 10
797757.81
 20
8586644.00
  0
VERTEX
  8
0ALV_ROD
 10
797707.13
 20
8586595.00
  0
VERTEX
  8
0ALV_ROD
 10
797644.19
 20
8586558.00
  0
VERTEX
  8
0ALV_ROD
 10
797568.81
 20
8586527.00
  0
VERTEX
  8
0ALV_ROD
 10
797487.25
 20
8586503.00
  0
VERTEX
  8
0ALV_ROD
 10
797436.94
 20
8586479.00
  0
VERTEX
  8
0ALV_ROD
 10
797361.50
 20
8586442.00
  0
VERTEX
  8
0ALV_ROD
 10
797242.56
 20
8586425.00
  0
VERTEX
  8
0ALV_ROD
 10
797155.00
 20
8586413.00
  0
VERTEX
  8
0ALV_ROD
 10
797073.63
 20
8586402.00
  0
VERTEX
  8
0ALV_ROD
 10
797023.56
 20
8586396.00
  0
VERTEX
  8
0ALV_ROD
 10
796967.31
 20
8586391.00
  0
VERTEX
  8
0ALV_ROD
 10
796910.94
 20
8586379.00
  0
VERTEX
  8
0ALV_ROD
 10
796829.69
 20
8586373.00
  0
VERTEX
  8
0ALV_ROD
 10
796760.81
 20
8586362.00
  0
VERTEX
  8
0ALV_ROD
 10
796710.63
 20
8586350.00
  0
VERTEX
  8
0ALV_ROD
 10
796635.56
 20
8586338.00
  0
VERTEX
  8
0ALV_ROD
 10
796585.31
 20
8586320.00
  0
VERTEX
  8
0ALV_ROD
 10
796528.69
 20
8586289.00
  0
VERTEX
  8
0ALV_ROD
 10
796459.56
 20
8586259.00
  0
VERTEX
  8
0ALV_ROD
 10
796421.19
 20
8586190.00
  0
VERTEX
  8
0ALV_ROD
 10
796414.25
 20
8586140.00
  0
VERTEX
  8
0ALV_ROD
 10
796375.50
 20
8586046.00
  0
VERTEX
  8
0ALV_ROD
 10
796368.19
 20
8585971.00
  0
VERTEX
  8
0ALV_ROD
 10
796367.50
 20
8585921.00
  0
VERTEX
  8
0ALV_ROD
 10
796366.81
 20
8585870.00
  0
VERTEX
  8
0ALV_ROD
 10
796365.88
 20
8585801.00
  0
VERTEX
  8
0ALV_ROD
 10
796364.94
 20
8585732.00
  0
VERTEX
  8
0ALV_ROD
 10
796364.19
 20
8585676.00
  0
VERTEX
  8
0ALV_ROD
 10
796363.06
 20
8585594.00
  0
VERTEX
  8
0ALV_ROD
 10
796362.31
 20
8585538.00
  0
VERTEX
  8
0ALV_ROD
 10
796361.63
 20
8585488.00
  0
VERTEX
  8
0ALV_ROD
 10
796360.88
 20
8585431.00
  0
VERTEX
  8
0ALV_ROD
 10
796366.44
 20
8585381.00
  0
VERTEX
  8
0ALV_ROD
 10
796372.00
 20
8585330.00
  0
VERTEX
  8
0ALV_ROD
 10
796377.56
 20
8585280.00
  0
VERTEX
  8
0ALV_ROD
 10
796389.38
 20
8585230.00
  0
VERTEX
  8
0ALV_ROD
 10
796394.94
 20
8585179.00
  0
VERTEX
  8
0ALV_ROD
 10
796406.44
 20
8585110.00
  0
VERTEX
  8
0ALV_ROD
 10
796418.25
 20
8585060.00
  0
VERTEX
  8
0ALV_ROD
 10
796423.81
 20
8585009.00
  0
VERTEX
  8
0ALV_ROD
 10
796435.44
 20
8584947.00
  0
VERTEX
  8
0ALV_ROD
 10
796434.81
 20
8584896.00
  0
VERTEX
  8
0ALV_ROD
 10
796434.13
 20
8584846.00
  0
VERTEX
  8
0ALV_ROD
 10
796433.25
 20
8584783.00
  0
VERTEX
  8
0ALV_ROD
 10
796388.31
 20
8584696.00
  0
VERTEX
  8
0ALV_ROD
 10
796332.25
 20
8584709.00
  0
VERTEX
  8
0ALV_ROD
 10
796251.25
 20
8584723.00
  0
VERTEX
  8
0ALV_ROD
 10
796195.19
 20
8584730.00
  0
VERTEX
  8
0ALV_ROD
 10
796107.81
 20
8584737.00
  0
VERTEX
  8
0ALV_ROD
 10
796039.13
 20
8584738.00
  0
VERTEX
  8
0ALV_ROD
 10
795976.75
 20
8584745.00
  0
VERTEX
  8
0ALV_ROD
 10
795920.88
 20
8584771.00
  0
VERTEX
  8
0ALV_ROD
 10
795852.56
 20
8584797.00
  0
VERTEX
  8
0ALV_ROD
 10
795790.69
 20
8584842.00
  0
VERTEX
  8
0ALV_ROD
 10
795741.81
 20
8584924.00
  0
VERTEX
  8
0ALV_ROD
 10
795711.38
 20
8584981.00
  0
VERTEX
  8
0ALV_ROD
 10
795674.69
 20
8585038.00
  0
VERTEX
  8
0ALV_ROD
 10
795625.38
 20
8585089.00
  0
VERTEX
  8
0ALV_ROD
 10
795550.88
 20
8585121.00
  0
VERTEX
  8
0ALV_ROD
 10
795495.00
 20
8585147.00
  0
VERTEX
  8
0ALV_ROD
 10
795439.25
 20
8585179.00
  0
VERTEX
  8
0ALV_ROD
 10
795371.00
 20
8585211.00
  0
VERTEX
  8
0ALV_ROD
 10
795284.00
 20
8585243.00
  0
VERTEX
  8
0ALV_ROD
 10
795203.06
 20
8585263.00
  0
VERTEX
  8
0ALV_ROD
 10
795140.56
 20
8585264.00
  0
VERTEX
  8
0ALV_ROD
 10
795084.38
 20
8585265.00
  0
VERTEX
  8
0ALV_ROD
 10
795028.19
 20
8585265.00
  0
VERTEX
  8
0ALV_ROD
 10
794972.00
 20
8585266.00
  0
VERTEX
  8
0ALV_ROD
 10
794909.56
 20
8585267.00
  0
VERTEX
  8
0ALV_ROD
 10
794853.31
 20
8585268.00
  0
VERTEX
  8
0ALV_ROD
 10
794797.06
 20
8585262.00
  0
VERTEX
  8
0ALV_ROD
 10
794715.75
 20
8585257.00
  0
VERTEX
  8
0ALV_ROD
 10
794659.50
 20
8585251.00
  0
VERTEX
  8
0ALV_ROD
 10
794597.00
 20
8585252.00
  0
VERTEX
  8
0ALV_ROD
 10
794515.69
 20
8585240.00
  0
VERTEX
  8
0ALV_ROD
 10
794465.63
 20
8585235.00
  0
VERTEX
  8
0ALV_ROD
 10
794384.25
 20
8585223.00
  0
VERTEX
  8
0ALV_ROD
 10
794334.13
 20
8585211.00
  0
VERTEX
  8
0ALV_ROD
 10
794265.19
 20
8585193.00
  0
VERTEX
  8
0ALV_ROD
 10
794196.06
 20
8585163.00
  0
VERTEX
  8
0ALV_ROD
 10
794120.44
 20
8585114.00
  0
VERTEX
  8
0ALV_ROD
 10
794069.88
 20
8585070.00
  0
VERTEX
  8
0ALV_ROD
 10
794019.31
 20
8585027.00
  0
VERTEX
  8
0ALV_ROD
 10
793937.19
 20
8584959.00
  0
VERTEX
  8
0ALV_ROD
 10
793917.31
 20
8584877.00
  0
VERTEX
  8
0ALV_ROD
 10
793841.19
 20
8584790.00
  0
VERTEX
  8
0ALV_ROD
 10
793834.19
 20
8584734.00
  0
VERTEX
  8
0ALV_ROD
 10
793826.94
 20
8584659.00
  0
VERTEX
  8
0ALV_ROD
 10
793825.75
 20
8584571.00
  0
VERTEX
  8
0ALV_ROD
 10
793818.63
 20
8584508.00
  0
VERTEX
  8
0ALV_ROD
 10
793817.44
 20
8584420.00
  0
VERTEX
  8
0ALV_ROD
 10
793810.44
 20
8584364.00
  0
VERTEX
  8
0ALV_ROD
 10
793809.75
 20
8584314.00
  0
VERTEX
  8
0ALV_ROD
 10
793796.56
 20
8584264.00
  0
VERTEX
  8
0ALV_ROD
 10
793776.94
 20
8584201.00
  0
VERTEX
  8
0ALV_ROD
 10
793757.44
 20
8584145.00
  0
VERTEX
  8
0ALV_ROD
 10
793737.94
 20
8584088.00
  0
VERTEX
  8
0ALV_ROD
 10
793712.19
 20
8584032.00
  0
VERTEX
  8
0ALV_ROD
 10
793667.38
 20
8583951.00
  0
VERTEX
  8
0ALV_ROD
 10
793647.63
 20
8583876.00
  0
VERTEX
  8
0ALV_ROD
 10
793590.81
 20
8583833.00
  0
VERTEX
  8
0ALV_ROD
 10
793558.50
 20
8583752.00
  0
VERTEX
  8
0ALV_ROD
 10
793520.06
 20
8583683.00
  0
VERTEX
  8
0ALV_ROD
 10
793487.56
 20
8583589.00
  0
VERTEX
  8
0ALV_ROD
 10
793443.06
 20
8583533.00
  0
VERTEX
  8
0ALV_ROD
 10
793423.44
 20
8583471.00
  0
VERTEX
  8
0ALV_ROD
 10
793391.50
 20
8583415.00
  0
VERTEX
  8
0ALV_ROD
 10
793334.50
 20
8583359.00
  0
VERTEX
  8
0ALV_ROD
 10
793296.06
 20
8583290.00
  0
VERTEX
  8
0ALV_ROD
 10
793257.69
 20
8583222.00
  0
VERTEX
  8
0ALV_ROD
 10
793206.94
 20
8583166.00
  0
VERTEX
  8
0ALV_ROD
 10
793168.56
 20
8583097.00
  0
VERTEX
  8
0ALV_ROD
 10
793130.31
 20
8583041.00
  0
VERTEX
  8
0ALV_ROD
 10
793061.00
 20
8582998.00
  0
VERTEX
  8
0ALV_ROD
 10
793010.69
 20
8582973.00
  0
VERTEX
  8
0ALV_ROD
 10
792960.44
 20
8582949.00
  0
VERTEX
  8
0ALV_ROD
 10
792909.75
 20
8582899.00
  0
VERTEX
  8
0ALV_ROD
 10
792859.38
 20
8582869.00
  0
VERTEX
  8
0ALV_ROD
 10
792808.81
 20
8582825.00
  0
VERTEX
  8
0ALV_ROD
 10
792745.63
 20
8582770.00
  0
VERTEX
  8
0ALV_ROD
 10
792676.31
 20
8582726.00
  0
VERTEX
  8
0ALV_ROD
 10
792625.69
 20
8582677.00
  0
VERTEX
  8
0ALV_ROD
 10
792550.06
 20
8582628.00
  0
VERTEX
  8
0ALV_ROD
 10
792499.50
 20
8582584.00
  0
VERTEX
  8
0ALV_ROD
 10
792417.25
 20
8582510.00
  0
VERTEX
  8
0ALV_ROD
 10
792335.06
 20
8582436.00
  0
VERTEX
  8
0ALV_ROD
 10
792259.06
 20
8582361.00
  0
VERTEX
  8
0ALV_ROD
 10
792183.44
 20
8582312.00
  0
VERTEX
  8
0ALV_ROD
 10
792120.88
 20
8582300.00
  0
VERTEX
  8
0ALV_ROD
 10
792069.88
 20
8582225.00
  0
VERTEX
  8
0ALV_ROD
 10
791988.06
 20
8582182.00
  0
VERTEX
  8
0ALV_ROD
 10
791918.38
 20
8582108.00
  0
VERTEX
  8
0ALV_ROD
 10
791868.00
 20
8582077.00
  0
VERTEX
  8
0ALV_ROD
 10
791823.31
 20
8582009.00
  0
VERTEX
  8
0ALV_ROD
 10
791760.69
 20
8581997.00
  0
VERTEX
  8
0ALV_ROD
 10
791710.06
 20
8581947.00
  0
VERTEX
  8
0ALV_ROD
 10
791647.00
 20
8581904.00
  0
VERTEX
  8
0ALV_ROD
 10
791571.06
 20
8581830.00
  0
VERTEX
  8
0ALV_ROD
 10
791520.38
 20
8581780.00
  0
VERTEX
  8
0ALV_ROD
 10
791470.00
 20
8581749.00
  0
VERTEX
  8
0ALV_ROD
 10
791425.31
 20
8581681.00
  0
VERTEX
  8
0ALV_ROD
 10
791355.63
 20
8581606.00
  0
VERTEX
  8
0ALV_ROD
 10
791286.06
 20
8581544.00
  0
VERTEX
  8
0ALV_ROD
 10
791247.81
 20
8581488.00
  0
VERTEX
  8
0ALV_ROD
 10
791197.19
 20
8581439.00
  0
VERTEX
  8
0ALV_ROD
 10
791146.50
 20
8581389.00
  0
VERTEX
  8
0ALV_ROD
 10
791089.50
 20
8581327.00
  0
VERTEX
  8
0ALV_ROD
 10
791038.81
 20
8581277.00
  0
VERTEX
  8
0ALV_ROD
 10
790962.94
 20
8581209.00
  0
VERTEX
  8
0ALV_ROD
 10
790912.25
 20
8581153.00
  0
VERTEX
  8
0ALV_ROD
 10
790861.69
 20
8581110.00
  0
VERTEX
  8
0ALV_ROD
 10
790811.06
 20
8581060.00
  0
VERTEX
  8
0ALV_ROD
 10
790760.38
 20
8581011.00
  0
VERTEX
  8
0ALV_ROD
 10
790678.25
 20
8580943.00
  0
VERTEX
  8
0ALV_ROD
 10
790621.44
 20
8580900.00
  0
VERTEX
  8
0ALV_ROD
 10
790539.56
 20
8580850.00
  0
VERTEX
  8
0ALV_ROD
 10
790489.13
 20
8580813.00
  0
VERTEX
  8
0ALV_ROD
 10
790438.44
 20
8580764.00
  0
VERTEX
  8
0ALV_ROD
 10
790363.00
 20
8580727.00
  0
VERTEX
  8
0ALV_ROD
 10
790268.75
 20
8580684.00
  0
VERTEX
  8
0ALV_ROD
 10
790180.56
 20
8580629.00
  0
VERTEX
  8
0ALV_ROD
 10
790092.56
 20
8580592.00
  0
VERTEX
  8
0ALV_ROD
 10
790004.50
 20
8580543.00
  0
VERTEX
  8
0ALV_ROD
 10
789928.69
 20
8580481.00
  0
VERTEX
  8
0ALV_ROD
 10
789871.69
 20
8580425.00
  0
VERTEX
  8
0ALV_ROD
 10
789820.81
 20
8580357.00
  0
VERTEX
  8
0ALV_ROD
 10
789776.06
 20
8580282.00
  0
VERTEX
  8
0ALV_ROD
 10
789674.69
 20
8580177.00
  0
VERTEX
  8
0ALV_ROD
 10
789573.13
 20
8580059.00
  0
VERTEX
  8
0ALV_ROD
 10
789534.06
 20
8579940.00
  0
VERTEX
  8
0ALV_ROD
 10
789483.25
 20
8579878.00
  0
VERTEX
  8
0ALV_ROD
 10
789444.75
 20
8579803.00
  0
VERTEX
  8
0ALV_ROD
 10
789412.63
 20
8579740.00
  0
VERTEX
  8
0ALV_ROD
 10
789368.19
 20
8579684.00
  0
VERTEX
  8
0ALV_ROD
 10
789329.69
 20
8579609.00
  0
VERTEX
  8
0ALV_ROD
 10
789284.94
 20
8579535.00
  0
VERTEX
  8
0ALV_ROD
 10
789209.00
 20
8579460.00
  0
VERTEX
  8
0ALV_ROD
 10
789164.44
 20
8579398.00
  0
VERTEX
  8
0ALV_ROD
 10
789094.69
 20
8579324.00
  0
VERTEX
  8
0ALV_ROD
 10
789050.13
 20
8579261.00
  0
VERTEX
  8
0ALV_ROD
 10
788980.88
 20
8579224.00
  0
VERTEX
  8
0ALV_ROD
 10
788930.44
 20
8579187.00
  0
VERTEX
  8
0ALV_ROD
 10
788879.81
 20
8579138.00
  0
VERTEX
  8
0ALV_ROD
 10
788798.19
 20
8579107.00
  0
VERTEX
  8
0ALV_ROD
 10
788747.88
 20
8579083.00
  0
VERTEX
  8
0ALV_ROD
 10
788697.31
 20
8579040.00
  0
VERTEX
  8
0ALV_ROD
 10
788659.00
 20
8578977.00
  0
VERTEX
  8
0ALV_ROD
 10
788589.44
 20
8578915.00
  0
VERTEX
  8
0ALV_ROD
 10
788544.94
 20
8578859.00
  0
VERTEX
  8
0ALV_ROD
 10
788500.44
 20
8578803.00
  0
VERTEX
  8
0ALV_ROD
 10
788468.31
 20
8578735.00
  0
VERTEX
  8
0ALV_ROD
 10
788417.56
 20
8578679.00
  0
VERTEX
  8
0ALV_ROD
 10
788379.31
 20
8578623.00
  0
VERTEX
  8
0ALV_ROD
 10
788303.38
 20
8578548.00
  0
VERTEX
  8
0ALV_ROD
 10
788246.50
 20
8578499.00
  0
VERTEX
  8
0ALV_ROD
 10
788195.81
 20
8578449.00
  0
VERTEX
  8
0ALV_ROD
 10
788144.88
 20
8578375.00
  0
VERTEX
  8
0ALV_ROD
 10
788087.94
 20
8578325.00
  0
VERTEX
  8
0ALV_ROD
 10
788036.94
 20
8578250.00
  0
VERTEX
  8
0ALV_ROD
 10
787974.00
 20
8578213.00
  0
VERTEX
  8
0ALV_ROD
 10
787904.38
 20
8578145.00
  0
VERTEX
  8
0ALV_ROD
 10
787854.00
 20
8578114.00
  0
VERTEX
  8
0ALV_ROD
 10
787772.19
 20
8578072.00
  0
VERTEX
  8
0ALV_ROD
 10
787709.44
 20
8578047.00
  0
VERTEX
  8
0ALV_ROD
 10
787653.00
 20
8578035.00
  0
VERTEX
  8
0ALV_ROD
 10
787602.81
 20
8578017.00
  0
VERTEX
  8
0ALV_ROD
 10
787558.31
 20
8577961.00
  0
VERTEX
  8
0ALV_ROD
 10
787489.31
 20
8577937.00
  0
VERTEX
  8
0ALV_ROD
 10
787432.63
 20
8577906.00
  0
VERTEX
  8
0ALV_ROD
 10
787345.06
 20
8577895.00
  0
VERTEX
  8
0ALV_ROD
 10
787288.75
 20
8577889.00
  0
VERTEX
  8
0ALV_ROD
 10
787201.19
 20
8577878.00
  0
VERTEX
  8
0ALV_ROD
 10
787126.25
 20
8577879.00
  0
VERTEX
  8
0ALV_ROD
 10
787070.00
 20
8577879.00
  0
VERTEX
  8
0ALV_ROD
 10
786995.00
 20
8577874.00
  0
VERTEX
  8
0ALV_ROD
 10
786926.13
 20
8577862.00
  0
VERTEX
  8
0ALV_ROD
 10
786863.56
 20
8577857.00
  0
VERTEX
  8
0ALV_ROD
 10
786788.50
 20
8577845.00
  0
VERTEX
  8
0ALV_ROD
 10
786738.44
 20
8577839.00
  0
VERTEX
  8
0ALV_ROD
 10
786688.25
 20
8577821.00
  0
VERTEX
  8
0ALV_ROD
 10
786619.19
 20
8577797.00
  0
VERTEX
  8
0ALV_ROD
 10
786550.13
 20
8577773.00
  0
VERTEX
  8
0ALV_ROD
 10
786499.69
 20
8577736.00
  0
VERTEX
  8
0ALV_ROD
 10
786442.44
 20
8577661.00
  0
VERTEX
  8
0ALV_ROD
 10
786360.38
 20
8577599.00
  0
VERTEX
  8
0ALV_ROD
 10
786328.38
 20
8577543.00
  0
VERTEX
  8
0ALV_ROD
 10
786277.44
 20
8577468.00
  0
VERTEX
  8
0ALV_ROD
 10
786264.00
 20
8577400.00
  0
VERTEX
  8
0ALV_ROD
 10
786207.19
 20
8577356.00
  0
VERTEX
  8
0ALV_ROD
 10
786156.13
 20
8577275.00
  0
VERTEX
  8
0ALV_ROD
 10
786124.13
 20
8577219.00
  0
VERTEX
  8
0ALV_ROD
 10
786079.63
 20
8577163.00
  0
VERTEX
  8
0ALV_ROD
 10
786004.06
 20
8577120.00
  0
VERTEX
  8
0ALV_ROD
 10
785947.38
 20
8577083.00
  0
VERTEX
  8
0ALV_ROD
 10
785896.88
 20
8577046.00
  0
VERTEX
  8
0ALV_ROD
 10
785840.38
 20
8577022.00
  0
VERTEX
  8
0ALV_ROD
 10
785790.06
 20
8576997.00
  0
VERTEX
  8
0ALV_ROD
 10
785708.38
 20
8576961.00
  0
VERTEX
  8
0ALV_ROD
 10
785632.81
 20
8576918.00
  0
VERTEX
  8
0ALV_ROD
 10
785563.69
 20
8576887.00
  0
VERTEX
  8
0ALV_ROD
 10
785513.19
 20
8576850.00
  0
VERTEX
  8
0ALV_ROD
 10
785462.81
 20
8576819.00
  0
VERTEX
  8
0ALV_ROD
 10
785406.44
 20
8576807.00
  0
VERTEX
  8
0ALV_ROD
 10
785356.00
 20
8576770.00
  0
VERTEX
  8
0ALV_ROD
 10
785286.94
 20
8576746.00
  0
VERTEX
  8
0ALV_ROD
 10
785230.19
 20
8576709.00
  0
VERTEX
  8
0ALV_ROD
 10
785173.31
 20
8576660.00
  0
VERTEX
  8
0ALV_ROD
 10
785122.63
 20
8576604.00
  0
VERTEX
  8
0ALV_ROD
 10
785078.06
 20
8576541.00
  0
VERTEX
  8
0ALV_ROD
 10
785045.94
 20
8576479.00
  0
VERTEX
  8
0ALV_ROD
 10
785039.06
 20
8576429.00
  0
VERTEX
  8
0ALV_ROD
 10
785038.25
 20
8576372.00
  0
VERTEX
  8
0ALV_ROD
 10
785037.56
 20
8576322.00
  0
VERTEX
  8
0ALV_ROD
 10
785030.19
 20
8576241.00
  0
VERTEX
  8
0ALV_ROD
 10
785029.00
 20
8576153.00
  0
VERTEX
  8
0ALV_ROD
 10
785009.13
 20
8576065.00
  0
VERTEX
  8
0ALV_ROD
 10
784983.00
 20
8575984.00
  0
VERTEX
  8
0ALV_ROD
 10
784956.81
 20
8575896.00
  0
VERTEX
  8
0ALV_ROD
 10
784931.06
 20
8575840.00
  0
VERTEX
  8
0ALV_ROD
 10
784886.50
 20
8575778.00
  0
VERTEX
  8
0ALV_ROD
 10
784847.81
 20
8575690.00
  0
VERTEX
  8
0ALV_ROD
 10
784834.69
 20
8575640.00
  0
VERTEX
  8
0ALV_ROD
 10
784821.50
 20
8575590.00
  0
VERTEX
  8
0ALV_ROD
 10
784808.06
 20
8575521.00
  0
VERTEX
  8
0ALV_ROD
 10
784781.94
 20
8575440.00
  0
VERTEX
  8
0ALV_ROD
 10
784768.81
 20
8575390.00
  0
VERTEX
  8
0ALV_ROD
 10
784742.63
 20
8575302.00
  0
VERTEX
  8
0ALV_ROD
 10
784716.44
 20
8575215.00
  0
VERTEX
  8
0ALV_ROD
 10
784703.25
 20
8575165.00
  0
VERTEX
  8
0ALV_ROD
 10
784683.56
 20
8575096.00
  0
VERTEX
  8
0ALV_ROD
 10
784663.50
 20
8574996.00
  0
VERTEX
  8
0ALV_ROD
 10
784624.88
 20
8574914.00
  0
VERTEX
  8
0ALV_ROD
 10
784586.50
 20
8574846.00
  0
VERTEX
  8
0ALV_ROD
 10
784554.44
 20
8574783.00
  0
VERTEX
  8
0ALV_ROD
 10
784528.38
 20
8574708.00
  0
VERTEX
  8
0ALV_ROD
 10
784496.31
 20
8574646.00
  0
VERTEX
  8
0ALV_ROD
 10
784451.81
 20
8574590.00
  0
VERTEX
  8
0ALV_ROD
 10
784407.00
 20
8574509.00
  0
VERTEX
  8
0ALV_ROD
 10
784362.13
 20
8574422.00
  0
VERTEX
  8
0ALV_ROD
 10
784292.44
 20
8574353.00
  0
VERTEX
  8
0ALV_ROD
 10
784241.50
 20
8574279.00
  0
VERTEX
  8
0ALV_ROD
 10
784165.63
 20
8574211.00
  0
VERTEX
  8
0ALV_ROD
 10
784108.69
 20
8574161.00
  0
VERTEX
  8
0ALV_ROD
 10
784064.13
 20
8574099.00
  0
VERTEX
  8
0ALV_ROD
 10
784013.50
 20
8574049.00
  0
VERTEX
  8
0ALV_ROD
 10
783969.00
 20
8573993.00
  0
VERTEX
  8
0ALV_ROD
 10
783924.44
 20
8573931.00
  0
VERTEX
  8
0ALV_ROD
 10
783905.00
 20
8573881.00
  0
VERTEX
  8
0ALV_ROD
 10
783891.88
 20
8573831.00
  0
VERTEX
  8
0ALV_ROD
 10
783890.94
 20
8573762.00
  0
VERTEX
  8
0ALV_ROD
 10
783890.25
 20
8573712.00
  0
VERTEX
  8
0ALV_ROD
 10
783889.13
 20
8573630.00
  0
VERTEX
  8
0ALV_ROD
 10
783888.44
 20
8573580.00
  0
VERTEX
  8
0ALV_ROD
 10
783887.31
 20
8573498.00
  0
VERTEX
  8
0ALV_ROD
 10
783886.13
 20
8573410.00
  0
VERTEX
  8
0ALV_ROD
 10
783885.00
 20
8573329.00
  0
VERTEX
  8
0ALV_ROD
 10
783883.81
 20
8573241.00
  0
VERTEX
  8
0ALV_ROD
 10
783883.13
 20
8573190.00
  0
VERTEX
  8
0ALV_ROD
 10
783882.44
 20
8573140.00
  0
VERTEX
  8
0ALV_ROD
 10
783875.50
 20
8573090.00
  0
VERTEX
  8
0ALV_ROD
 10
783868.25
 20
8573015.00
  0
VERTEX
  8
0ALV_ROD
 10
783861.06
 20
8572946.00
  0
VERTEX
  8
0ALV_ROD
 10
783860.06
 20
8572871.00
  0
VERTEX
  8
0ALV_ROD
 10
783859.38
 20
8572820.00
  0
VERTEX
  8
0ALV_ROD
 10
783858.31
 20
8572745.00
  0
VERTEX
  8
0ALV_ROD
 10
783857.56
 20
8572688.00
  0
VERTEX
  8
0ALV_ROD
 10
783863.13
 20
8572638.00
  0
VERTEX
  8
0ALV_ROD
 10
783861.94
 20
8572550.00
  0
VERTEX
  8
0ALV_ROD
 10
783860.75
 20
8572462.00
  0
VERTEX
  8
0ALV_ROD
 10
783865.94
 20
8572387.00
  0
VERTEX
  8
0ALV_ROD
 10
783865.19
 20
8572330.00
  0
VERTEX
  8
0ALV_ROD
 10
783864.06
 20
8572249.00
  0
VERTEX
  8
0ALV_ROD
 10
783863.13
 20
8572180.00
  0
VERTEX
  8
0ALV_ROD
 10
783874.94
 20
8572129.00
  0
VERTEX
  8
0ALV_ROD
 10
783886.50
 20
8572060.00
  0
VERTEX
  8
0ALV_ROD
 10
783897.88
 20
8571978.00
  0
VERTEX
  8
0ALV_ROD
 10
783915.50
 20
8571896.00
  0
VERTEX
  8
0ALV_ROD
 10
783939.69
 20
8571840.00
  0
VERTEX
  8
0ALV_ROD
 10
783950.88
 20
8571809.00
  0
SEQEND
  8
0ALV_ROD
  0
POLYLINE
  8
0ALV_ROD
 66
     1
  0
VERTEX
  8
0ALV_ROD
 10
631428.25
 20
8574205.00
  0
VERTEX
  8
0ALV_ROD
 10
631106.69
 20
8574130.00
  0
VERTEX
  8
0ALV_ROD
 10
631050.69
 20
8574117.00
  0
VERTEX
  8
0ALV_ROD
 10
630988.31
 20
8574110.00
  0
VERTEX
  8
0ALV_ROD
 10
630932.25
 20
8574097.00
  0
VERTEX
  8
0ALV_ROD
 10
630857.50
 20
8574078.00
  0
VERTEX
  8
0ALV_ROD
 10
630776.44
 20
8574071.00
  0
VERTEX
  8
0ALV_ROD
 10
630701.75
 20
8574051.00
  0
VERTEX
  8
0ALV_ROD
 10
630633.19
 20
8574038.00
  0
VERTEX
  8
0ALV_ROD
 10
630577.13
 20
8574025.00
  0
VERTEX
  8
0ALV_ROD
 10
630508.56
 20
8574012.00
  0
VERTEX
  8
0ALV_ROD
 10
630421.44
 20
8573980.00
  0
VERTEX
  8
0ALV_ROD
 10
630346.63
 20
8573973.00
  0
VERTEX
  8
0ALV_ROD
 10
630290.81
 20
8573929.00
  0
VERTEX
  8
0ALV_ROD
 10
630222.44
 20
8573885.00
  0
VERTEX
  8
0ALV_ROD
 10
630129.13
 20
8573840.00
  0
VERTEX
  8
0ALV_ROD
 10
630036.00
 20
8573770.00
  0
VERTEX
  8
0ALV_ROD
 10
629986.69
 20
8573682.00
  0
VERTEX
  8
0ALV_ROD
 10
629906.38
 20
8573562.00
  0
VERTEX
  8
0ALV_ROD
 10
629807.00
 20
8573492.00
  0
VERTEX
  8
0ALV_ROD
 10
629763.88
 20
8573411.00
  0
VERTEX
  8
0ALV_ROD
 10
629689.69
 20
8573303.00
  0
VERTEX
  8
0ALV_ROD
 10
629652.69
 20
8573234.00
  0
VERTEX
  8
0ALV_ROD
 10
629590.88
 20
8573146.00
  0
VERTEX
  8
0ALV_ROD
 10
629553.94
 20
8573064.00
  0
VERTEX
  8
0ALV_ROD
 10
629541.81
 20
8573014.00
  0
VERTEX
  8
0ALV_ROD
 10
629498.69
 20
8572925.00
  0
VERTEX
  8
0ALV_ROD
 10
629455.44
 20
8572862.00
  0
VERTEX
  8
0ALV_ROD
 10
629443.63
 20
8572756.00
  0
VERTEX
  8
0ALV_ROD
 10
629406.63
 20
8572693.00
  0
VERTEX
  8
0ALV_ROD
 10
629363.56
 20
8572598.00
  0
VERTEX
  8
0ALV_ROD
 10
629326.63
 20
8572523.00
  0
VERTEX
  8
0ALV_ROD
 10
629283.88
 20
8572378.00
  0
VERTEX
  8
0ALV_ROD
 10
629247.19
 20
8572259.00
  0
VERTEX
  8
0ALV_ROD
 10
629173.00
 20
8572158.00
  0
VERTEX
  8
0ALV_ROD
 10
629117.56
 20
8572044.00
  0
VERTEX
  8
0ALV_ROD
 10
629030.88
 20
8571937.00
  0
VERTEX
  8
0ALV_ROD
 10
628944.19
 20
8571842.00
  0
VERTEX
  8
0ALV_ROD
 10
628863.31
 20
8571804.00
  0
VERTEX
  8
0ALV_ROD
 10
628820.00
 20
8571753.00
  0
VERTEX
  8
0ALV_ROD
 10
628739.13
 20
8571715.00
  0
VERTEX
  8
0ALV_ROD
 10
628683.25
 20
8571677.00
  0
VERTEX
  8
0ALV_ROD
 10
628583.63
 20
8571639.00
  0
VERTEX
  8
0ALV_ROD
 10
628471.81
 20
8571569.00
  0
VERTEX
  8
0ALV_ROD
 10
628378.56
 20
8571518.00
  0
VERTEX
  8
0ALV_ROD
 10
628310.19
 20
8571480.00
  0
VERTEX
  8
0ALV_ROD
 10
628248.06
 20
8571441.00
  0
VERTEX
  8
0ALV_ROD
 10
628136.19
 20
8571372.00
  0
VERTEX
  8
0ALV_ROD
 10
628093.00
 20
8571296.00
  0
VERTEX
  8
0ALV_ROD
 10
628012.44
 20
8571220.00
  0
VERTEX
  8
0ALV_ROD
 10
627932.00
 20
8571113.00
  0
VERTEX
  8
0ALV_ROD
 10
627882.44
 20
8571056.00
  0
VERTEX
  8
0ALV_ROD
 10
627851.81
 20
8570968.00
  0
VERTEX
  8
0ALV_ROD
 10
627789.69
 20
8570930.00
  0
VERTEX
  8
0ALV_ROD
 10
627740.31
 20
8570848.00
  0
VERTEX
  8
0ALV_ROD
 10
627709.50
 20
8570791.00
  0
VERTEX
  8
0ALV_ROD
 10
627660.13
 20
8570709.00
  0
VERTEX
  8
0ALV_ROD
 10
627585.56
 20
8570658.00
  0
VERTEX
  8
0ALV_ROD
 10
627536.00
 20
8570608.00
  0
VERTEX
  8
0ALV_ROD
 10
627448.88
 20
8570570.00
  0
VERTEX
  8
0ALV_ROD
 10
627392.81
 20
8570557.00
  0
VERTEX
  8
0ALV_ROD
 10
627336.69
 20
8570556.00
  0
VERTEX
  8
0ALV_ROD
 10
627078.38
 20
8570469.00
  0
SEQEND
  8
0ALV_ROD
  0
POLYLINE
  8
0ALV_ROD
 66
     1
  0
VERTEX
  8
0ALV_ROD
 10
614977.88
 20
8598031.00
  0
VERTEX
  8
0ALV_ROD
 10
615010.25
 20
8597849.00
  0
VERTEX
  8
0ALV_ROD
 10
615016.81
 20
8597799.00
  0
VERTEX
  8
0ALV_ROD
 10
615029.63
 20
8597743.00
  0
VERTEX
  8
0ALV_ROD
 10
615036.19
 20
8597692.00
  0
VERTEX
  8
0ALV_ROD
 10
615049.13
 20
8597624.00
  0
VERTEX
  8
0ALV_ROD
 10
615061.88
 20
8597573.00
  0
VERTEX
  8
0ALV_ROD
 10
615074.94
 20
8597486.00
  0
VERTEX
  8
0ALV_ROD
 10
615087.88
 20
8597417.00
  0
VERTEX
  8
0ALV_ROD
 10
615100.88
 20
8597329.00
  0
VERTEX
  8
0ALV_ROD
 10
615113.94
 20
8597235.00
  0
VERTEX
  8
0ALV_ROD
 10
615120.63
 20
8597166.00
  0
VERTEX
  8
0ALV_ROD
 10
615133.69
 20
8597072.00
  0
VERTEX
  8
0ALV_ROD
 10
615140.56
 20
8596978.00
  0
VERTEX
  8
0ALV_ROD
 10
615147.38
 20
8596890.00
  0
VERTEX
  8
0ALV_ROD
 10
615154.06
 20
8596815.00
  0
VERTEX
  8
0ALV_ROD
 10
615160.81
 20
8596740.00
  0
VERTEX
  8
0ALV_ROD
 10
615167.38
 20
8596690.00
  0
VERTEX
  8
0ALV_ROD
 10
615180.31
 20
8596615.00
  0
VERTEX
  8
0ALV_ROD
 10
615193.13
 20
8596565.00
  0
VERTEX
  8
0ALV_ROD
 10
615206.19
 20
8596471.00
  0
VERTEX
  8
0ALV_ROD
 10
615231.63
 20
8596389.00
  0
VERTEX
  8
0ALV_ROD
 10
615250.88
 20
8596308.00
  0
VERTEX
  8
0ALV_ROD
 10
615270.00
 20
8596251.00
  0
VERTEX
  8
0ALV_ROD
 10
615289.25
 20
8596164.00
  0
VERTEX
  8
0ALV_ROD
 10
615302.31
 20
8596070.00
  0
VERTEX
  8
0ALV_ROD
 10
615340.13
 20
8596007.00
  0
VERTEX
  8
0ALV_ROD
 10
615353.25
 20
8595913.00
  0
VERTEX
  8
0ALV_ROD
 10
615441.19
 20
8595820.00
  0
VERTEX
  8
0ALV_ROD
 10
615454.06
 20
8595751.00
  0
VERTEX
  8
0ALV_ROD
 10
615504.19
 20
8595720.00
  0
VERTEX
  8
0ALV_ROD
 10
615548.25
 20
8595658.00
  0
VERTEX
  8
0ALV_ROD
 10
615605.00
 20
8595564.00
  0
VERTEX
  8
0ALV_ROD
 10
615655.19
 20
8595520.00
  0
VERTEX
  8
0ALV_ROD
 10
615668.13
 20
8595445.00
  0
VERTEX
  8
0ALV_ROD
 10
615731.00
 20
8595371.00
  0
VERTEX
  8
0ALV_ROD
 10
615750.19
 20
8595295.00
  0
VERTEX
  8
0ALV_ROD
 10
615750.56
 20
8595233.00
  0
VERTEX
  8
0ALV_ROD
 10
615751.38
 20
8595107.00
  0
VERTEX
  8
0ALV_ROD
 10
615751.75
 20
8595044.00
  0
VERTEX
  8
0ALV_ROD
 10
615752.44
 20
8594938.00
  0
VERTEX
  8
0ALV_ROD
 10
615747.25
 20
8594781.00
  0
VERTEX
  8
0ALV_ROD
 10
615735.56
 20
8594655.00
  0
VERTEX
  8
0ALV_ROD
 10
615717.50
 20
8594555.00
  0
VERTEX
  8
0ALV_ROD
 10
615705.50
 20
8594480.00
  0
VERTEX
  8
0ALV_ROD
 10
615693.38
 20
8594423.00
  0
VERTEX
  8
0ALV_ROD
 10
615675.19
 20
8594341.00
  0
VERTEX
  8
0ALV_ROD
 10
615650.81
 20
8594253.00
  0
VERTEX
  8
0ALV_ROD
 10
615638.75
 20
8594184.00
  0
VERTEX
  8
0ALV_ROD
 10
615626.81
 20
8594103.00
  0
VERTEX
  8
0ALV_ROD
 10
615627.25
 20
8594034.00
  0
VERTEX
  8
0ALV_ROD
 10
615627.75
 20
8593958.00
  0
VERTEX
  8
0ALV_ROD
 10
615628.19
 20
8593883.00
  0
VERTEX
  8
0ALV_ROD
 10
615628.56
 20
8593826.00
  0
VERTEX
  8
0ALV_ROD
 10
615641.63
 20
8593733.00
  0
VERTEX
  8
0ALV_ROD
 10
615648.31
 20
8593670.00
  0
VERTEX
  8
0ALV_ROD
 10
615661.44
 20
8593563.00
  0
VERTEX
  8
0ALV_ROD
 10
615680.69
 20
8593476.00
  0
VERTEX
  8
0ALV_ROD
 10
615693.88
 20
8593369.00
  0
VERTEX
  8
0ALV_ROD
 10
615694.63
 20
8593250.00
  0
VERTEX
  8
0ALV_ROD
 10
615695.19
 20
8593162.00
  0
VERTEX
  8
0ALV_ROD
 10
615695.81
 20
8593068.00
  0
VERTEX
  8
0ALV_ROD
 10
615696.44
 20
8592968.00
  0
VERTEX
  8
0ALV_ROD
 10
615690.69
 20
8592892.00
  0
VERTEX
  8
0ALV_ROD
 10
615684.94
 20
8592811.00
  0
VERTEX
  8
0ALV_ROD
 10
615673.25
 20
8592685.00
  0
VERTEX
  8
0ALV_ROD
 10
615661.19
 20
8592622.00
  0
VERTEX
  8
0ALV_ROD
 10
615643.06
 20
8592534.00
  0
VERTEX
  8
0ALV_ROD
 10
615637.25
 20
8592465.00
  0
VERTEX
  8
0ALV_ROD
 10
615594.25
 20
8592365.00
  0
VERTEX
  8
0ALV_ROD
 10
615576.19
 20
8592258.00
  0
VERTEX
  8
0ALV_ROD
 10
615545.56
 20
8592170.00
  0
VERTEX
  8
0ALV_ROD
 10
615527.38
 20
8592088.00
  0
VERTEX
  8
0ALV_ROD
 10
615509.25
 20
8591994.00
  0
VERTEX
  8
0ALV_ROD
 10
615497.25
 20
8591918.00
  0
VERTEX
  8
0ALV_ROD
 10
615497.81
 20
8591837.00
  0
VERTEX
  8
0ALV_ROD
 10
615504.56
 20
8591755.00
  0
VERTEX
  8
0ALV_ROD
 10
615517.56
 20
8591674.00
  0
VERTEX
  8
0ALV_ROD
 10
615536.63
 20
8591624.00
  0
VERTEX
  8
0ALV_ROD
 10
615555.88
 20
8591536.00
  0
VERTEX
  8
0ALV_ROD
 10
615574.94
 20
8591480.00
  0
VERTEX
  8
0ALV_ROD
 10
615600.38
 20
8591405.00
  0
VERTEX
  8
0ALV_ROD
 10
615619.38
 20
8591355.00
  0
VERTEX
  8
0ALV_ROD
 10
615626.13
 20
8591280.00
  0
VERTEX
  8
0ALV_ROD
 10
615676.31
 20
8591236.00
  0
VERTEX
  8
0ALV_ROD
 10
615683.06
 20
8591148.00
  0
VERTEX
  8
0ALV_ROD
 10
615733.38
 20
8591092.00
  0
VERTEX
  8
0ALV_ROD
 10
615777.56
 20
8591005.00
  0
VERTEX
  8
0ALV_ROD
 10
615790.44
 20
8590948.00
  0
VERTEX
  8
0ALV_ROD
 10
615840.88
 20
8590861.00
  0
VERTEX
  8
0ALV_ROD
 10
615928.75
 20
8590780.00
  0
VERTEX
  8
0ALV_ROD
 10
615941.63
 20
8590717.00
  0
VERTEX
  8
0ALV_ROD
 10
616029.50
 20
8590637.00
  0
VERTEX
  8
0ALV_ROD
 10
616079.88
 20
8590562.00
  0
VERTEX
  8
0ALV_ROD
 10
616124.06
 20
8590480.00
  0
VERTEX
  8
0ALV_ROD
 10
616211.81
 20
8590418.00
  0
VERTEX
  8
0ALV_ROD
 10
616262.19
 20
8590337.00
  0
VERTEX
  8
0ALV_ROD
 10
616312.63
 20
8590250.00
  0
VERTEX
  8
0ALV_ROD
 10
616363.25
 20
8590144.00
  0
VERTEX
  8
0ALV_ROD
 10
616407.44
 20
8590062.00
  0
VERTEX
  8
0ALV_ROD
 10
616483.13
 20
8589931.00
  0
VERTEX
  8
0ALV_ROD
 10
616533.75
 20
8589819.00
  0
VERTEX
  8
0ALV_ROD
 10
616552.94
 20
8589744.00
  0
VERTEX
  8
0ALV_ROD
 10
616610.00
 20
8589606.00
  0
VERTEX
  8
0ALV_ROD
 10
616660.50
 20
8589512.00
  0
VERTEX
  8
0ALV_ROD
 10
616673.38
 20
8589443.00
  0
VERTEX
  8
0ALV_ROD
 10
616717.56
 20
8589362.00
  0
VERTEX
  8
0ALV_ROD
 10
616730.38
 20
8589312.00
  0
VERTEX
  8
0ALV_ROD
 10
616774.69
 20
8589206.00
  0
VERTEX
  8
0ALV_ROD
 10
616856.44
 20
8589112.00
  0
VERTEX
  8
0ALV_ROD
 10
616869.50
 20
8589018.00
  0
VERTEX
  8
0ALV_ROD
 10
616913.50
 20
8588962.00
  0
VERTEX
  8
0ALV_ROD
 10
616957.81
 20
8588868.00
  0
VERTEX
  8
0ALV_ROD
 10
617001.88
 20
8588800.00
  0
VERTEX
  8
0ALV_ROD
 10
617077.44
 20
8588694.00
  0
VERTEX
  8
0ALV_ROD
 10
617115.63
 20
8588575.00
  0
VERTEX
  8
0ALV_ROD
 10
617166.19
 20
8588475.00
  0
VERTEX
  8
0ALV_ROD
 10
617216.38
 20
8588425.00
  0
VERTEX
  8
0ALV_ROD
 10
617266.56
 20
8588382.00
  0
VERTEX
  8
0ALV_ROD
 10
617329.19
 20
8588344.00
  0
VERTEX
  8
0ALV_ROD
 10
617410.44
 20
8588326.00
  0
VERTEX
  8
0ALV_ROD
 10
617460.56
 20
8588289.00
  0
VERTEX
  8
0ALV_ROD
 10
617548.13
 20
8588252.00
  0
VERTEX
  8
0ALV_ROD
 10
617629.56
 20
8588202.00
  0
VERTEX
  8
0ALV_ROD
 10
617717.00
 20
8588184.00
  0
VERTEX
  8
0ALV_ROD
 10
617810.63
 20
8588172.00
  0
VERTEX
  8
0ALV_ROD
 10
617898.00
 20
8588173.00
  0
VERTEX
  8
0ALV_ROD
 10
617985.31
 20
8588174.00
  0
VERTEX
  8
0ALV_ROD
 10
618078.88
 20
8588175.00
  0
VERTEX
  8
0ALV_ROD
 10
618141.25
 20
8588175.00
  0
VERTEX
  8
0ALV_ROD
 10
618234.81
 20
8588176.00
  0
VERTEX
  8
0ALV_ROD
 10
618290.94
 20
8588176.00
  0
VERTEX
  8
0ALV_ROD
 10
618372.06
 20
8588177.00
  0
VERTEX
  8
0ALV_ROD
 10
618471.88
 20
8588178.00
  0
VERTEX
  8
0ALV_ROD
 10
618534.25
 20
8588178.00
  0
VERTEX
  8
0ALV_ROD
 10
618646.56
 20
8588179.00
  0
VERTEX
  8
0ALV_ROD
 10
618702.63
 20
8588179.00
  0
VERTEX
  8
0ALV_ROD
 10
618783.88
 20
8588168.00
  0
VERTEX
  8
0ALV_ROD
 10
618865.06
 20
8588143.00
  0
VERTEX
  8
0ALV_ROD
 10
618921.38
 20
8588125.00
  0
VERTEX
  8
0ALV_ROD
 10
618971.56
 20
8588075.00
  0
VERTEX
  8
0ALV_ROD
 10
619059.19
 20
8588032.00
  0
VERTEX
  8
0ALV_ROD
 10
619109.63
 20
8587950.00
  0
VERTEX
  8
0ALV_ROD
 10
619153.69
 20
8587882.00
  0
VERTEX
  8
0ALV_ROD
 10
619241.56
 20
8587807.00
  0
VERTEX
  8
0ALV_ROD
 10
619335.44
 20
8587758.00
  0
VERTEX
  8
0ALV_ROD
 10
619385.44
 20
8587739.00
  0
VERTEX
  8
0ALV_ROD
 10
619466.63
 20
8587727.00
  0
VERTEX
  8
0ALV_ROD
 10
619560.25
 20
8587716.00
  0
VERTEX
  8
0ALV_ROD
 10
619653.88
 20
8587710.00
  0
VERTEX
  8
0ALV_ROD
 10
619710.13
 20
8587698.00
  0
VERTEX
  8
0ALV_ROD
 10
619791.31
 20
8587680.00
  0
VERTEX
  8
0ALV_ROD
 10
619903.63
 20
8587674.00
  0
VERTEX
  8
0ALV_ROD
 10
619959.88
 20
8587662.00
  0
VERTEX
  8
0ALV_ROD
 10
620009.88
 20
8587644.00
  0
VERTEX
  8
0ALV_ROD
 10
620072.44
 20
8587619.00
  0
VERTEX
  8
0ALV_ROD
 10
620122.56
 20
8587582.00
  0
VERTEX
  8
0ALV_ROD
 10
620210.06
 20
8587558.00
  0
VERTEX
  8
0ALV_ROD
 10
620260.25
 20
8587508.00
  0
VERTEX
  8
0ALV_ROD
 10
620310.63
 20
8587439.00
  0
VERTEX
  8
0ALV_ROD
 10
620367.06
 20
8587396.00
  0
VERTEX
  8
0ALV_ROD
 10
620411.19
 20
8587327.00
  0
VERTEX
  8
0ALV_ROD
 10
620492.75
 20
8587246.00
  0
VERTEX
  8
0ALV_ROD
 10
620542.94
 20
8587203.00
  0
VERTEX
  8
0ALV_ROD
 10
620630.75
 20
8587128.00
  0
VERTEX
  8
0ALV_ROD
 10
620687.19
 20
8587078.00
  0
VERTEX
  8
0ALV_ROD
 10
620737.44
 20
8587028.00
  0
VERTEX
  8
0ALV_ROD
 10
620787.63
 20
8586985.00
  0
VERTEX
  8
0ALV_ROD
 10
620838.00
 20
8586910.00
  0
VERTEX
  8
0ALV_ROD
 10
620857.19
 20
8586835.00
  0
VERTEX
  8
0ALV_ROD
 10
620876.31
 20
8586779.00
  0
VERTEX
  8
0ALV_ROD
 10
620883.06
 20
8586691.00
  0
VERTEX
  8
0ALV_ROD
 10
620883.63
 20
8586609.00
  0
VERTEX
  8
0ALV_ROD
 10
620884.00
 20
8586547.00
  0
VERTEX
  8
0ALV_ROD
 10
620878.06
 20
8586496.00
  0
VERTEX
  8
0ALV_ROD
 10
620872.19
 20
8586446.00
  0
VERTEX
  8
0ALV_ROD
 10
620860.19
 20
8586371.00
  0
VERTEX
  8
0ALV_ROD
 10
620854.38
 20
8586302.00
  0
VERTEX
  8
0ALV_ROD
 10
620855.13
 20
8586189.00
  0
VERTEX
  8
0ALV_ROD
 10
620855.69
 20
8586095.00
  0
VERTEX
  8
0ALV_ROD
 10
620856.06
 20
8586038.00
  0
VERTEX
  8
0ALV_ROD
 10
620856.44
 20
8585975.00
  0
VERTEX
  8
0ALV_ROD
 10
620856.81
 20
8585925.00
  0
VERTEX
  8
0ALV_ROD
 10
620863.50
 20
8585850.00
  0
VERTEX
  8
0ALV_ROD
 10
620870.25
 20
8585769.00
  0
VERTEX
  8
0ALV_ROD
 10
620883.31
 20
8585681.00
  0
VERTEX
  8
0ALV_ROD
 10
620902.44
 20
8585612.00
  0
VERTEX
  8
0ALV_ROD
 10
620934.06
 20
8585549.00
  0
VERTEX
  8
0ALV_ROD
 10
620953.25
 20
8585474.00
  0
VERTEX
  8
0ALV_ROD
 10
621041.19
 20
8585381.00
  0
VERTEX
  8
0ALV_ROD
 10
621079.19
 20
8585287.00
  0
VERTEX
  8
0ALV_ROD
 10
621166.81
 20
8585238.00
  0
VERTEX
  8
0ALV_ROD
 10
621229.81
 20
8585144.00
  0
VERTEX
  8
0ALV_ROD
 10
621280.00
 20
8585107.00
  0
VERTEX
  8
0ALV_ROD
 10
621330.06
 20
8585076.00
  0
VERTEX
  8
0ALV_ROD
 10
621343.13
 20
8584988.00
  0
VERTEX
  8
0ALV_ROD
 10
621393.50
 20
8584913.00
  0
VERTEX
  8
0ALV_ROD
 10
621469.00
 20
8584813.00
  0
VERTEX
  8
0ALV_ROD
 10
621513.19
 20
8584726.00
  0
VERTEX
  8
0ALV_ROD
 10
621557.38
 20
8584645.00
  0
VERTEX
  8
0ALV_ROD
 10
621589.00
 20
8584576.00
  0
VERTEX
  8
0ALV_ROD
 10
621602.00
 20
8584501.00
  0
VERTEX
  8
0ALV_ROD
 10
621614.81
 20
8584451.00
  0
VERTEX
  8
0ALV_ROD
 10
621627.88
 20
8584357.00
  0
VERTEX
  8
0ALV_ROD
 10
621640.69
 20
8584307.00
  0
VERTEX
  8
0ALV_ROD
 10
621647.38
 20
8584231.00
  0
VERTEX
  8
0ALV_ROD
 10
621654.13
 20
8584150.00
  0
VERTEX
  8
0ALV_ROD
 10
621667.13
 20
8584075.00
  0
VERTEX
  8
0ALV_ROD
 10
621667.63
 20
8583993.00
  0
VERTEX
  8
0ALV_ROD
 10
621674.19
 20
8583937.00
  0
VERTEX
  8
0ALV_ROD
 10
621674.81
 20
8583843.00
  0
VERTEX
  8
0ALV_ROD
 10
621675.13
 20
8583792.00
  0
VERTEX
  8
0ALV_ROD
 10
621681.69
 20
8583742.00
  0
VERTEX
  8
0ALV_ROD
 10
621694.88
 20
8583636.00
  0
VERTEX
  8
0ALV_ROD
 10
621707.94
 20
8583542.00
  0
VERTEX
  8
0ALV_ROD
 10
621727.19
 20
8583460.00
  0
VERTEX
  8
0ALV_ROD
 10
621746.44
 20
8583379.00
  0
VERTEX
  8
0ALV_ROD
 10
621784.38
 20
8583291.00
  0
VERTEX
  8
0ALV_ROD
 10
621828.44
 20
8583229.00
  0
VERTEX
  8
0ALV_ROD
 10
621884.94
 20
8583179.00
  0
VERTEX
  8
0ALV_ROD
 10
621935.00
 20
8583155.00
  0
VERTEX
  8
0ALV_ROD
 10
621997.50
 20
8583130.00
  0
VERTEX
  8
0ALV_ROD
 10
622078.81
 20
8583099.00
  0
VERTEX
  8
0ALV_ROD
 10
622166.31
 20
8583075.00
  0
VERTEX
  8
0ALV_ROD
 10
622216.56
 20
8583025.00
  0
VERTEX
  8
0ALV_ROD
 10
622304.13
 20
8582982.00
  0
VERTEX
  8
0ALV_ROD
 10
622354.44
 20
8582920.00
  0
VERTEX
  8
0ALV_ROD
 10
622411.13
 20
8582838.00
  0
VERTEX
  8
0ALV_ROD
 10
622461.44
 20
8582770.00
  0
VERTEX
  8
0ALV_ROD
 10
622543.13
 20
8582683.00
  0
VERTEX
  8
0ALV_ROD
 10
622587.31
 20
8582601.00
  0
VERTEX
  8
0ALV_ROD
 10
622600.25
 20
8582526.00
  0
VERTEX
  8
0ALV_ROD
 10
622650.75
 20
8582433.00
  0
VERTEX
  8
0ALV_ROD
 10
622701.13
 20
8582358.00
  0
VERTEX
  8
0ALV_ROD
 10
622732.81
 20
8582283.00
  0
VERTEX
  8
0ALV_ROD
 10
622770.75
 20
8582208.00
  0
VERTEX
  8
0ALV_ROD
 10
622858.38
 20
8582158.00
  0
VERTEX
  8
0ALV_ROD
 10
622908.63
 20
8582108.00
  0
VERTEX
  8
0ALV_ROD
 10
622964.94
 20
8582077.00
  0
VERTEX
  8
0ALV_ROD
 10
623008.94
 20
8582021.00
  0
VERTEX
  8
0ALV_ROD
 10
623046.94
 20
8581934.00
  0
VERTEX
  8
0ALV_ROD
 10
623091.13
 20
8581853.00
  0
VERTEX
  8
0ALV_ROD
 10
623141.56
 20
8581771.00
  0
VERTEX
  8
0ALV_ROD
 10
623160.63
 20
8581721.00
  0
VERTEX
  8
0ALV_ROD
 10
623192.25
 20
8581653.00
  0
VERTEX
  8
0ALV_ROD
 10
623205.13
 20
8581590.00
  0
VERTEX
  8
0ALV_ROD
 10
623236.88
 20
8581502.00
  0
VERTEX
  8
0ALV_ROD
 10
623237.19
 20
8581452.00
  0
VERTEX
  8
0ALV_ROD
 10
623287.38
 20
8581402.00
  0
VERTEX
  8
0ALV_ROD
 10
623325.31
 20
8581321.00
  0
VERTEX
  8
0ALV_ROD
 10
623331.88
 20
8581271.00
  0
VERTEX
  8
0ALV_ROD
 10
623382.31
 20
8581196.00
  0
VERTEX
  8
0ALV_ROD
 10
623470.25
 20
8581103.00
  0
VERTEX
  8
0ALV_ROD
 10
623551.81
 20
8581028.00
  0
VERTEX
  8
0ALV_ROD
 10
623633.38
 20
8580953.00
  0
VERTEX
  8
0ALV_ROD
 10
623708.63
 20
8580891.00
  0
VERTEX
  8
0ALV_ROD
 10
623758.94
 20
8580829.00
  0
VERTEX
  8
0ALV_ROD
 10
623834.19
 20
8580767.00
  0
VERTEX
  8
0ALV_ROD
 10
623853.25
 20
8580717.00
  0
VERTEX
  8
0ALV_ROD
 10
623853.75
 20
8580635.00
  0
VERTEX
  8
0ALV_ROD
 10
623854.06
 20
8580585.00
  0
VERTEX
  8
0ALV_ROD
 10
623854.56
 20
8580503.00
  0
VERTEX
  8
0ALV_ROD
 10
623848.88
 20
8580422.00
  0
VERTEX
  8
0ALV_ROD
 10
623830.44
 20
8580372.00
  0
VERTEX
  8
0ALV_ROD
 10
623812.31
 20
8580290.00
  0
VERTEX
  8
0ALV_ROD
 10
623787.69
 20
8580227.00
  0
VERTEX
  8
0ALV_ROD
 10
623769.31
 20
8580177.00
  0
VERTEX
  8
0ALV_ROD
 10
623720.00
 20
8580088.00
  0
VERTEX
  8
0ALV_ROD
 10
623689.13
 20
8580038.00
  0
VERTEX
  8
0ALV_ROD
 10
623676.94
 20
8579988.00
  0
VERTEX
  8
0ALV_ROD
 10
623621.50
 20
8579881.00
  0
VERTEX
  8
0ALV_ROD
 10
623621.94
 20
8579812.00
  0
VERTEX
  8
0ALV_ROD
 10
623622.25
 20
8579761.00
  0
VERTEX
  8
0ALV_ROD
 10
623622.75
 20
8579686.00
  0
VERTEX
  8
0ALV_ROD
 10
623629.69
 20
8579580.00
  0
VERTEX
  8
0ALV_ROD
 10
623630.25
 20
8579492.00
  0
VERTEX
  8
0ALV_ROD
 10
623630.75
 20
8579410.00
  0
VERTEX
  8
0ALV_ROD
 10
623668.63
 20
8579341.00
  0
VERTEX
  8
0ALV_ROD
 10
623688.06
 20
8579229.00
  0
VERTEX
  8
0ALV_ROD
 10
623707.13
 20
8579172.00
  0
VERTEX
  8
0ALV_ROD
 10
623726.38
 20
8579091.00
  0
VERTEX
  8
0ALV_ROD
 10
623745.38
 20
8579041.00
  0
VERTEX
  8
0ALV_ROD
 10
623758.50
 20
8578947.00
  0
VERTEX
  8
0ALV_ROD
 10
623790.25
 20
8578859.00
  0
VERTEX
  8
0ALV_ROD
 10
623803.25
 20
8578772.00
  0
VERTEX
  8
0ALV_ROD
 10
623822.44
 20
8578697.00
  0
VERTEX
  8
0ALV_ROD
 10
623835.44
 20
8578615.00
  0
VERTEX
  8
0ALV_ROD
 10
623842.19
 20
8578540.00
  0
VERTEX
  8
0ALV_ROD
 10
623848.81
 20
8578477.00
  0
VERTEX
  8
0ALV_ROD
 10
623861.88
 20
8578383.00
  0
VERTEX
  8
0ALV_ROD
 10
623868.50
 20
8578327.00
  0
VERTEX
  8
0ALV_ROD
 10
623875.25
 20
8578245.00
  0
VERTEX
  8
0ALV_ROD
 10
623881.81
 20
8578195.00
  0
VERTEX
  8
0ALV_ROD
 10
623894.75
 20
8578120.00
  0
VERTEX
  8
0ALV_ROD
 10
623901.31
 20
8578070.00
  0
VERTEX
  8
0ALV_ROD
 10
623914.31
 20
8577988.00
  0
VERTEX
  8
0ALV_ROD
 10
623927.31
 20
8577907.00
  0
VERTEX
  8
0ALV_ROD
 10
623940.38
 20
8577819.00
  0
VERTEX
  8
0ALV_ROD
 10
623959.44
 20
8577763.00
  0
VERTEX
  8
0ALV_ROD
 10
623972.50
 20
8577669.00
  0
VERTEX
  8
0ALV_ROD
 10
623985.31
 20
8577619.00
  0
VERTEX
  8
0ALV_ROD
 10
623998.38
 20
8577525.00
  0
VERTEX
  8
0ALV_ROD
 10
624011.25
 20
8577462.00
  0
VERTEX
  8
0ALV_ROD
 10
624024.50
 20
8577337.00
  0
VERTEX
  8
0ALV_ROD
 10
624031.25
 20
8577262.00
  0
VERTEX
  8
0ALV_ROD
 10
624044.31
 20
8577168.00
  0
VERTEX
  8
0ALV_ROD
 10
624051.06
 20
8577086.00
  0
VERTEX
  8
0ALV_ROD
 10
624057.63
 20
8577036.00
  0
VERTEX
  8
0ALV_ROD
 10
624070.63
 20
8576954.00
  0
VERTEX
  8
0ALV_ROD
 10
624077.44
 20
8576867.00
  0
VERTEX
  8
0ALV_ROD
 10
624084.13
 20
8576798.00
  0
VERTEX
  8
0ALV_ROD
 10
624097.06
 20
8576729.00
  0
VERTEX
  8
0ALV_ROD
 10
624103.75
 20
8576654.00
  0
VERTEX
  8
0ALV_ROD
 10
624123.00
 20
8576566.00
  0
VERTEX
  8
0ALV_ROD
 10
624129.56
 20
8576516.00
  0
VERTEX
  8
0ALV_ROD
 10
624148.81
 20
8576441.00
  0
VERTEX
  8
0ALV_ROD
 10
624168.00
 20
8576366.00
  0
VERTEX
  8
0ALV_ROD
 10
624187.31
 20
8576272.00
  0
VERTEX
  8
0ALV_ROD
 10
624200.06
 20
8576222.00
  0
VERTEX
  8
0ALV_ROD
 10
624219.25
 20
8576146.00
  0
VERTEX
  8
0ALV_ROD
 10
624238.50
 20
8576065.00
  0
VERTEX
  8
0ALV_ROD
 10
624257.75
 20
8575984.00
  0
VERTEX
  8
0ALV_ROD
 10
624301.94
 20
8575902.00
  0
VERTEX
  8
0ALV_ROD
 10
624314.88
 20
8575827.00
  0
VERTEX
  8
0ALV_ROD
 10
624365.06
 20
8575784.00
  0
VERTEX
  8
0ALV_ROD
 10
624409.13
 20
8575721.00
  0
VERTEX
  8
0ALV_ROD
 10
624428.19
 20
8575665.00
  0
VERTEX
  8
0ALV_ROD
 10
624478.19
 20
8575653.00
  0
VERTEX
  8
0ALV_ROD
 10
624528.50
 20
8575590.00
  0
VERTEX
  8
0ALV_ROD
 10
624578.75
 20
8575541.00
  0
VERTEX
  8
0ALV_ROD
 10
624635.19
 20
8575497.00
  0
VERTEX
  8
0ALV_ROD
 10
624673.00
 20
8575435.00
  0
VERTEX
  8
0ALV_ROD
 10
624729.38
 20
8575391.00
  0
VERTEX
  8
0ALV_ROD
 10
624742.25
 20
8575329.00
  0
VERTEX
  8
0ALV_ROD
 10
624780.06
 20
8575273.00
  0
VERTEX
  8
0ALV_ROD
 10
624867.94
 20
8575185.00
  0
VERTEX
  8
0ALV_ROD
 10
624893.38
 20
8575110.00
  0
VERTEX
  8
0ALV_ROD
 10
624943.69
 20
8575048.00
  0
VERTEX
  8
0ALV_ROD
 10
624950.25
 20
8574998.00
  0
VERTEX
  8
0ALV_ROD
 10
624994.44
 20
8574917.00
  0
VERTEX
  8
0ALV_ROD
 10
625026.19
 20
8574829.00
  0
VERTEX
  8
0ALV_ROD
 10
625045.44
 20
8574748.00
  0
VERTEX
  8
0ALV_ROD
 10
625058.50
 20
8574654.00
  0
VERTEX
  8
0ALV_ROD
 10
625102.63
 20
8574579.00
  0
VERTEX
  8
0ALV_ROD
 10
625121.69
 20
8574529.00
  0
VERTEX
  8
0ALV_ROD
 10
625172.13
 20
8574447.00
  0
VERTEX
  8
0ALV_ROD
 10
625191.25
 20
8574385.00
  0
VERTEX
  8
0ALV_ROD
 10
625210.25
 20
8574335.00
  0
VERTEX
  8
0ALV_ROD
 10
625266.69
 20
8574285.00
  0
VERTEX
  8
0ALV_ROD
 10
625316.94
 20
8574242.00
  0
VERTEX
  8
0ALV_ROD
 10
625373.50
 20
8574173.00
  0
VERTEX
  8
0ALV_ROD
 10
625430.13
 20
8574092.00
  0
VERTEX
  8
0ALV_ROD
 10
625468.00
 20
8574029.00
  0
VERTEX
  8
0ALV_ROD
 10
625518.19
 20
8573980.00
  0
VERTEX
  8
0ALV_ROD
 10
625568.56
 20
8573911.00
  0
VERTEX
  8
0ALV_ROD
 10
625618.69
 20
8573874.00
  0
VERTEX
  8
0ALV_ROD
 10
625668.94
 20
8573824.00
  0
VERTEX
  8
0ALV_ROD
 10
625719.13
 20
8573781.00
  0
VERTEX
  8
0ALV_ROD
 10
625763.19
 20
8573712.00
  0
VERTEX
  8
0ALV_ROD
 10
625807.19
 20
8573656.00
  0
VERTEX
  8
0ALV_ROD
 10
625895.31
 20
8573537.00
  0
VERTEX
  8
0ALV_ROD
 10
625945.50
 20
8573494.00
  0
VERTEX
  8
0ALV_ROD
 10
626027.06
 20
8573425.00
  0
VERTEX
  8
0ALV_ROD
 10
626071.06
 20
8573369.00
  0
VERTEX
  8
0ALV_ROD
 10
626152.38
 20
8573332.00
  0
VERTEX
  8
0ALV_ROD
 10
626202.75
 20
8573264.00
  0
VERTEX
  8
0ALV_ROD
 10
626252.94
 20
8573220.00
  0
VERTEX
  8
0ALV_ROD
 10
626334.25
 20
8573183.00
  0
VERTEX
  8
0ALV_ROD
 10
626378.38
 20
8573114.00
  0
VERTEX
  8
0ALV_ROD
 10
626459.88
 20
8573046.00
  0
VERTEX
  8
0ALV_ROD
 10
626547.81
 20
8572959.00
  0
VERTEX
  8
0ALV_ROD
 10
626598.19
 20
8572884.00
  0
VERTEX
  8
0ALV_ROD
 10
626648.38
 20
8572841.00
  0
VERTEX
  8
0ALV_ROD
 10
626692.56
 20
8572759.00
  0
VERTEX
  8
0ALV_ROD
 10
626755.50
 20
8572672.00
  0
VERTEX
  8
0ALV_ROD
 10
626774.50
 20
8572622.00
  0
VERTEX
  8
0ALV_ROD
 10
626775.00
 20
8572553.00
  0
VERTEX
  8
0ALV_ROD
 10
626775.31
 20
8572503.00
  0
VERTEX
  8
0ALV_ROD
 10
626763.13
 20
8572452.00
  0
VERTEX
  8
0ALV_ROD
 10
626751.06
 20
8572383.00
  0
VERTEX
  8
0ALV_ROD
 10
626745.63
 20
8572264.00
  0
VERTEX
  8
0ALV_ROD
 10
626746.00
 20
8572208.00
  0
VERTEX
  8
0ALV_ROD
 10
626746.31
 20
8572157.00
  0
VERTEX
  8
0ALV_ROD
 10
626765.50
 20
8572082.00
  0
VERTEX
  8
0ALV_ROD
 10
626784.63
 20
8572020.00
  0
VERTEX
  8
0ALV_ROD
 10
626828.81
 20
8571939.00
  0
VERTEX
  8
0ALV_ROD
 10
626885.38
 20
8571876.00
  0
VERTEX
  8
0ALV_ROD
 10
626885.63
 20
8571826.00
  0
VERTEX
  8
0ALV_ROD
 10
626886.00
 20
8571770.00
  0
VERTEX
  8
0ALV_ROD
 10
626886.38
 20
8571713.00
  0
VERTEX
  8
0ALV_ROD
 10
626868.25
 20
8571625.00
  0
VERTEX
  8
0ALV_ROD
 10
626850.00
 20
8571544.00
  0
VERTEX
  8
0ALV_ROD
 10
626825.44
 20
8571487.00
  0
VERTEX
  8
0ALV_ROD
 10
626807.06
 20
8571437.00
  0
VERTEX
  8
0ALV_ROD
 10
626782.56
 20
8571367.00
  0
VERTEX
  8
0ALV_ROD
 10
626764.13
 20
8571317.00
  0
VERTEX
  8
0ALV_ROD
 10
626745.81
 20
8571254.00
  0
VERTEX
  8
0ALV_ROD
 10
626727.69
 20
8571166.00
  0
VERTEX
  8
0ALV_ROD
 10
626728.13
 20
8571091.00
  0
VERTEX
  8
0ALV_ROD
 10
626728.69
 20
8571003.00
  0
VERTEX
  8
0ALV_ROD
 10
626729.06
 20
8570953.00
  0
VERTEX
  8
0ALV_ROD
 10
626729.63
 20
8570865.00
  0
VERTEX
  8
0ALV_ROD
 10
626748.81
 20
8570784.00
  0
VERTEX
  8
0ALV_ROD
 10
626767.94
 20
8570721.00
  0
VERTEX
  8
0ALV_ROD
 10
626799.69
 20
8570640.00
  0
VERTEX
  8
0ALV_ROD
 10
626812.44
 20
8570590.00
  0
VERTEX
  8
0ALV_ROD
 10
627078.38
 20
8570469.00
  0
SEQEND
  8
0ALV_ROD
  0
POLYLINE
  8
0ALV_ROD
 66
     1
  0
VERTEX
  8
0ALV_ROD
 10
783089.38
 20
8570507.00
  0
VERTEX
  8
0ALV_ROD
 10
783053.19
 20
8570494.00
  0
VERTEX
  8
0ALV_ROD
 10
782996.25
 20
8570445.00
  0
VERTEX
  8
0ALV_ROD
 10
782945.63
 20
8570395.00
  0
VERTEX
  8
0ALV_ROD
 10
782875.94
 20
8570321.00
  0
VERTEX
  8
0ALV_ROD
 10
782831.25
 20
8570252.00
  0
VERTEX
  8
0ALV_ROD
 10
782799.00
 20
8570177.00
  0
VERTEX
  8
0ALV_ROD
 10
782766.75
 20
8570102.00
  0
VERTEX
  8
0ALV_ROD
 10
782734.31
 20
8570015.00
  0
VERTEX
  8
0ALV_ROD
 10
782714.81
 20
8569958.00
  0
VERTEX
  8
0ALV_ROD
 10
782694.88
 20
8569871.00
  0
VERTEX
  8
0ALV_ROD
 10
782662.50
 20
8569783.00
  0
VERTEX
  8
0ALV_ROD
 10
782649.06
 20
8569714.00
  0
VERTEX
  8
0ALV_ROD
 10
782629.19
 20
8569633.00
  0
VERTEX
  8
0ALV_ROD
 10
782616.06
 20
8569583.00
  0
VERTEX
  8
0ALV_ROD
 10
782602.88
 20
8569533.00
  0
VERTEX
  8
0ALV_ROD
 10
782583.06
 20
8569458.00
  0
VERTEX
  8
0ALV_ROD
 10
782563.56
 20
8569401.00
  0
VERTEX
  8
0ALV_ROD
 10
782550.13
 20
8569333.00
  0
VERTEX
  8
0ALV_ROD
 10
782543.25
 20
8569282.00
  0
VERTEX
  8
0ALV_ROD
 10
782530.06
 20
8569232.00
  0
VERTEX
  8
0ALV_ROD
 10
782516.69
 20
8569170.00
  0
VERTEX
  8
0ALV_ROD
 10
782484.38
 20
8569088.00
  0
VERTEX
  8
0ALV_ROD
 10
782439.44
 20
8569001.00
  0
VERTEX
  8
0ALV_ROD
 10
782400.94
 20
8568926.00
  0
VERTEX
  8
0ALV_ROD
 10
782362.38
 20
8568845.00
  0
VERTEX
  8
0ALV_ROD
 10
782317.88
 20
8568789.00
  0
VERTEX
  8
0ALV_ROD
 10
782279.63
 20
8568733.00
  0
VERTEX
  8
0ALV_ROD
 10
782222.88
 20
8568690.00
  0
VERTEX
  8
0ALV_ROD
 10
782141.69
 20
8568691.00
  0
VERTEX
  8
0ALV_ROD
 10
782066.75
 20
8568692.00
  0
VERTEX
  8
0ALV_ROD
 10
782065.81
 20
8568623.00
  0
VERTEX
  8
0ALV_ROD
 10
782071.25
 20
8568566.00
  0
VERTEX
  8
0ALV_ROD
 10
782076.81
 20
8568516.00
  0
VERTEX
  8
0ALV_ROD
 10
782088.38
 20
8568447.00
  0
VERTEX
  8
0ALV_ROD
 10
782105.88
 20
8568358.00
  0
VERTEX
  8
0ALV_ROD
 10
782111.13
 20
8568283.00
  0
VERTEX
  8
0ALV_ROD
 10
782110.38
 20
8568227.00
  0
VERTEX
  8
0ALV_ROD
 10
782109.69
 20
8568176.00
  0
VERTEX
  8
0ALV_ROD
 10
782109.00
 20
8568126.00
  0
VERTEX
  8
0ALV_ROD
 10
782108.31
 20
8568076.00
  0
VERTEX
  8
0ALV_ROD
 10
782107.63
 20
8568026.00
  0
VERTEX
  8
0ALV_ROD
 10
782106.94
 20
8567975.00
  0
VERTEX
  8
0ALV_ROD
 10
782106.25
 20
8567925.00
  0
VERTEX
  8
0ALV_ROD
 10
782105.25
 20
8567850.00
  0
VERTEX
  8
0ALV_ROD
 10
782104.44
 20
8567793.00
  0
VERTEX
  8
0ALV_ROD
 10
782103.81
 20
8567743.00
  0
VERTEX
  8
0ALV_ROD
 10
782103.00
 20
8567687.00
  0
VERTEX
  8
0ALV_ROD
 10
782053.13
 20
8567398.00
  0
SEQEND
  8
0ALV_ROD
  0
POLYLINE
  8
0ALV_ROD
 66
     1
  0
VERTEX
  8
0ALV_ROD
 10
627811.63
 20
8566982.00
  0
VERTEX
  8
0ALV_ROD
 10
627808.50
 20
8567009.00
  0
VERTEX
  8
0ALV_ROD
 10
627795.50
 20
8567091.00
  0
VERTEX
  8
0ALV_ROD
 10
627788.94
 20
8567141.00
  0
VERTEX
  8
0ALV_ROD
 10
627775.94
 20
8567228.00
  0
VERTEX
  8
0ALV_ROD
 10
627769.13
 20
8567310.00
  0
VERTEX
  8
0ALV_ROD
 10
627762.50
 20
8567373.00
  0
VERTEX
  8
0ALV_ROD
 10
627749.25
 20
8567492.00
  0
VERTEX
  8
0ALV_ROD
 10
627742.63
 20
8567554.00
  0
VERTEX
  8
0ALV_ROD
 10
627735.81
 20
8567642.00
  0
VERTEX
  8
0ALV_ROD
 10
627722.81
 20
8567730.00
  0
VERTEX
  8
0ALV_ROD
 10
627716.00
 20
8567818.00
  0
VERTEX
  8
0ALV_ROD
 10
627709.38
 20
8567874.00
  0
VERTEX
  8
0ALV_ROD
 10
627702.69
 20
8567949.00
  0
VERTEX
  8
0ALV_ROD
 10
627689.75
 20
8568024.00
  0
VERTEX
  8
0ALV_ROD
 10
627689.38
 20
8568075.00
  0
VERTEX
  8
0ALV_ROD
 10
627682.69
 20
8568150.00
  0
VERTEX
  8
0ALV_ROD
 10
627682.38
 20
8568200.00
  0
VERTEX
  8
0ALV_ROD
 10
627675.63
 20
8568275.00
  0
VERTEX
  8
0ALV_ROD
 10
627668.88
 20
8568357.00
  0
VERTEX
  8
0ALV_ROD
 10
627668.31
 20
8568445.00
  0
VERTEX
  8
0ALV_ROD
 10
627667.81
 20
8568526.00
  0
VERTEX
  8
0ALV_ROD
 10
627660.88
 20
8568633.00
  0
VERTEX
  8
0ALV_ROD
 10
627660.44
 20
8568708.00
  0
VERTEX
  8
0ALV_ROD
 10
627659.81
 20
8568802.00
  0
VERTEX
  8
0ALV_ROD
 10
627653.25
 20
8568852.00
  0
VERTEX
  8
0ALV_ROD
 10
627652.63
 20
8568946.00
  0
VERTEX
  8
0ALV_ROD
 10
627646.06
 20
8568997.00
  0
VERTEX
  8
0ALV_ROD
 10
627639.25
 20
8569091.00
  0
VERTEX
  8
0ALV_ROD
 10
627632.63
 20
8569147.00
  0
VERTEX
  8
0ALV_ROD
 10
627626.06
 20
8569203.00
  0
VERTEX
  8
0ALV_ROD
 10
627619.50
 20
8569253.00
  0
VERTEX
  8
0ALV_ROD
 10
627606.69
 20
8569310.00
  0
VERTEX
  8
0ALV_ROD
 10
627600.06
 20
8569360.00
  0
VERTEX
  8
0ALV_ROD
 10
627581.00
 20
8569416.00
  0
VERTEX
  8
0ALV_ROD
 10
627574.44
 20
8569473.00
  0
VERTEX
  8
0ALV_ROD
 10
627555.13
 20
8569560.00
  0
VERTEX
  8
0ALV_ROD
 10
627536.06
 20
8569617.00
  0
VERTEX
  8
0ALV_ROD
 10
627517.00
 20
8569667.00
  0
VERTEX
  8
0ALV_ROD
 10
627479.19
 20
8569729.00
  0
VERTEX
  8
0ALV_ROD
 10
627460.13
 20
8569792.00
  0
VERTEX
  8
0ALV_ROD
 10
627428.56
 20
8569848.00
  0
VERTEX
  8
0ALV_ROD
 10
627397.00
 20
8569904.00
  0
VERTEX
  8
0ALV_ROD
 10
627377.94
 20
8569954.00
  0
VERTEX
  8
0ALV_ROD
 10
627277.19
 20
8570110.00
  0
SEQEND
  8
0ALV_ROD
  0
POLYLINE
  8
0ALV_ROD
 66
     1
  0
VERTEX
  8
0ALV_ROD
 10
630137.75
 20
8562521.00
  0
VERTEX
  8
0ALV_ROD
 10
630112.38
 20
8562793.00
  0
VERTEX
  8
0ALV_ROD
 10
630062.19
 20
8562842.00
  0
VERTEX
  8
0ALV_ROD
 10
630005.63
 20
8562905.00
  0
VERTEX
  8
0ALV_ROD
 10
629955.50
 20
8562942.00
  0
VERTEX
  8
0ALV_ROD
 10
629880.38
 20
8562985.00
  0
VERTEX
  8
0ALV_ROD
 10
629830.19
 20
8563029.00
  0
VERTEX
  8
0ALV_ROD
 10
629748.81
 20
8563072.00
  0
VERTEX
  8
0ALV_ROD
 10
629661.00
 20
8563147.00
  0
VERTEX
  8
0ALV_ROD
 10
629610.75
 20
8563197.00
  0
VERTEX
  8
0ALV_ROD
 10
629554.31
 20
8563246.00
  0
VERTEX
  8
0ALV_ROD
 10
629485.38
 20
8563290.00
  0
VERTEX
  8
0ALV_ROD
 10
629416.44
 20
8563339.00
  0
VERTEX
  8
0ALV_ROD
 10
629366.00
 20
8563420.00
  0
VERTEX
  8
0ALV_ROD
 10
629316.00
 20
8563445.00
  0
VERTEX
  8
0ALV_ROD
 10
629259.44
 20
8563501.00
  0
VERTEX
  8
0ALV_ROD
 10
629234.19
 20
8563557.00
  0
VERTEX
  8
0ALV_ROD
 10
629177.44
 20
8563645.00
  0
VERTEX
  8
0ALV_ROD
 10
629127.19
 20
8563701.00
  0
VERTEX
  8
0ALV_ROD
 10
629076.94
 20
8563751.00
  0
VERTEX
  8
0ALV_ROD
 10
629039.13
 20
8563813.00
  0
VERTEX
  8
0ALV_ROD
 10
628982.69
 20
8563863.00
  0
VERTEX
  8
0ALV_ROD
 10
628932.56
 20
8563894.00
  0
VERTEX
  8
0ALV_ROD
 10
628851.13
 20
8563943.00
  0
VERTEX
  8
0ALV_ROD
 10
628769.88
 20
8563974.00
  0
VERTEX
  8
0ALV_ROD
 10
628688.75
 20
8563980.00
  0
VERTEX
  8
0ALV_ROD
 10
628638.50
 20
8564030.00
  0
VERTEX
  8
0ALV_ROD
 10
628551.00
 20
8564060.00
  0
VERTEX
  8
0ALV_ROD
 10
628463.44
 20
8564097.00
  0
VERTEX
  8
0ALV_ROD
 10
628394.44
 20
8564147.00
  0
VERTEX
  8
0ALV_ROD
 10
628338.13
 20
8564171.00
  0
VERTEX
  8
0ALV_ROD
 10
628281.81
 20
8564202.00
  0
VERTEX
  8
0ALV_ROD
 10
628206.63
 20
8564252.00
  0
VERTEX
  8
0ALV_ROD
 10
628162.56
 20
8564314.00
  0
VERTEX
  8
0ALV_ROD
 10
628149.75
 20
8564364.00
  0
VERTEX
  8
0ALV_ROD
 10
628136.81
 20
8564446.00
  0
VERTEX
  8
0ALV_ROD
 10
628136.44
 20
8564496.00
  0
VERTEX
  8
0ALV_ROD
 10
628135.88
 20
8564584.00
  0
VERTEX
  8
0ALV_ROD
 10
628135.38
 20
8564666.00
  0
VERTEX
  8
0ALV_ROD
 10
628134.75
 20
8564766.00
  0
VERTEX
  8
0ALV_ROD
 10
628134.19
 20
8564854.00
  0
VERTEX
  8
0ALV_ROD
 10
628133.63
 20
8564942.00
  0
VERTEX
  8
0ALV_ROD
 10
628133.25
 20
8564998.00
  0
VERTEX
  8
0ALV_ROD
 10
628126.63
 20
8565054.00
  0
VERTEX
  8
0ALV_ROD
 10
628126.31
 20
8565105.00
  0
VERTEX
  8
0ALV_ROD
 10
628119.81
 20
8565155.00
  0
VERTEX
  8
0ALV_ROD
 10
628113.00
 20
8565236.00
  0
VERTEX
  8
0ALV_ROD
 10
628106.44
 20
8565286.00
  0
VERTEX
  8
0ALV_ROD
 10
628093.56
 20
8565355.00
  0
VERTEX
  8
0ALV_ROD
 10
628080.50
 20
8565443.00
  0
VERTEX
  8
0ALV_ROD
 10
628029.63
 20
8565599.00
  0
SEQEND
  8
0ALV_ROD
  0
POLYLINE
  8
0ALV_ROD
 66
     1
  0
VERTEX
  8
0ALV_ROD
 10
765400.19
 20
8561484.00
  0
VERTEX
  8
0ALV_ROD
 10
765325.88
 20
8561755.00
  0
VERTEX
  8
0ALV_ROD
 10
765325.00
 20
8561805.00
  0
VERTEX
  8
0ALV_ROD
 10
765324.19
 20
8561854.00
  0
VERTEX
  8
0ALV_ROD
 10
765298.31
 20
8561904.00
  0
VERTEX
  8
0ALV_ROD
 10
765272.94
 20
8561928.00
  0
VERTEX
  8
0ALV_ROD
 10
765222.13
 20
8561977.00
  0
VERTEX
  8
0ALV_ROD
 10
765145.44
 20
8562075.00
  0
VERTEX
  8
0ALV_ROD
 10
765044.63
 20
8562123.00
  0
VERTEX
  8
0ALV_ROD
 10
764968.81
 20
8562171.00
  0
VERTEX
  8
0ALV_ROD
 10
764918.81
 20
8562171.00
  0
VERTEX
  8
0ALV_ROD
 10
764843.44
 20
8562194.00
  0
VERTEX
  8
0ALV_ROD
 10
764768.00
 20
8562218.00
  0
VERTEX
  8
0ALV_ROD
 10
764692.63
 20
8562241.00
  0
VERTEX
  8
0ALV_ROD
 10
764617.19
 20
8562265.00
  0
VERTEX
  8
0ALV_ROD
 10
764566.38
 20
8562313.00
  0
VERTEX
  8
0ALV_ROD
 10
764490.50
 20
8562362.00
  0
VERTEX
  8
0ALV_ROD
 10
764489.69
 20
8562412.00
  0
VERTEX
  8
0ALV_ROD
 10
764363.06
 20
8562509.00
  0
VERTEX
  8
0ALV_ROD
 10
764311.81
 20
8562583.00
  0
VERTEX
  8
0ALV_ROD
 10
764260.56
 20
8562656.00
  0
VERTEX
  8
0ALV_ROD
 10
764234.31
 20
8562731.00
  0
VERTEX
  8
0ALV_ROD
 10
764208.50
 20
8562780.00
  0
VERTEX
  8
0ALV_ROD
 10
764183.06
 20
8562804.00
  0
VERTEX
  8
0ALV_ROD
 10
764180.19
 20
8562979.00
  0
VERTEX
  8
0ALV_ROD
 10
764128.88
 20
8563052.00
  0
VERTEX
  8
0ALV_ROD
 10
764073.50
 20
8563375.00
  0
VERTEX
  8
0ALV_ROD
 10
764020.19
 20
8563573.00
  0
VERTEX
  8
0ALV_ROD
 10
763991.88
 20
8563772.00
  0
VERTEX
  8
0ALV_ROD
 10
763938.56
 20
8563970.00
  0
VERTEX
  8
0ALV_ROD
 10
763885.63
 20
8564143.00
  0
VERTEX
  8
0ALV_ROD
 10
763833.94
 20
8564242.00
  0
VERTEX
  8
0ALV_ROD
 10
763806.06
 20
8564416.00
  0
VERTEX
  8
0ALV_ROD
 10
763699.81
 20
8564787.00
  0
VERTEX
  8
0ALV_ROD
 10
763596.50
 20
8564985.00
  0
VERTEX
  8
0ALV_ROD
 10
763493.19
 20
8565182.00
  0
VERTEX
  8
0ALV_ROD
 10
763392.38
 20
8565230.00
  0
VERTEX
  8
0ALV_ROD
 10
763366.94
 20
8565254.00
  0
VERTEX
  8
0ALV_ROD
 10
763316.50
 20
8565278.00
  0
VERTEX
  8
0ALV_ROD
 10
763240.69
 20
8565327.00
  0
VERTEX
  8
0ALV_ROD
 10
763064.06
 20
8565423.00
  0
VERTEX
  8
0ALV_ROD
 10
762886.19
 20
8565594.00
  0
VERTEX
  8
0ALV_ROD
 10
762708.25
 20
8565765.00
  0
VERTEX
  8
0ALV_ROD
 10
762529.94
 20
8565961.00
  0
VERTEX
  8
0ALV_ROD
 10
762352.06
 20
8566132.00
  0
VERTEX
  8
0ALV_ROD
 10
762348.69
 20
8566331.00
  0
VERTEX
  8
0ALV_ROD
 10
762347.06
 20
8566431.00
  0
VERTEX
  8
0ALV_ROD
 10
762346.19
 20
8566480.00
  0
VERTEX
  8
0ALV_ROD
 10
762366.25
 20
8566780.00
  0
VERTEX
  8
0ALV_ROD
 10
762410.81
 20
8567104.00
  0
VERTEX
  8
0ALV_ROD
 10
762457.44
 20
8567304.00
  0
VERTEX
  8
0ALV_ROD
 10
762529.13
 20
8567505.00
  0
VERTEX
  8
0ALV_ROD
 10
762552.44
 20
8567605.00
  0
VERTEX
  8
0ALV_ROD
 10
762625.81
 20
8567706.00
  0
VERTEX
  8
0ALV_ROD
 10
762697.88
 20
8567881.00
  0
VERTEX
  8
0ALV_ROD
 10
762796.63
 20
8567958.00
  0
VERTEX
  8
0ALV_ROD
 10
762870.38
 20
8568034.00
  0
VERTEX
  8
0ALV_ROD
 10
762968.69
 20
8568135.00
  0
VERTEX
  8
0ALV_ROD
 10
763067.81
 20
8568187.00
  0
VERTEX
  8
0ALV_ROD
 10
763114.50
 20
8568387.00
  0
VERTEX
  8
0ALV_ROD
 10
763312.81
 20
8568490.00
  0
VERTEX
  8
0ALV_ROD
 10
763411.13
 20
8568592.00
  0
VERTEX
  8
0ALV_ROD
 10
763509.88
 20
8568668.00
  0
VERTEX
  8
0ALV_ROD
 10
763559.44
 20
8568694.00
  0
VERTEX
  8
0ALV_ROD
 10
763609.44
 20
8568695.00
  0
VERTEX
  8
0ALV_ROD
 10
763706.13
 20
8568896.00
  0
VERTEX
  8
0ALV_ROD
 10
763752.31
 20
8569121.00
  0
VERTEX
  8
0ALV_ROD
 10
763973.19
 20
8569374.00
  0
VERTEX
  8
0ALV_ROD
 10
764169.81
 20
8569577.00
  0
VERTEX
  8
0ALV_ROD
 10
764366.44
 20
8569780.00
  0
VERTEX
  8
0ALV_ROD
 10
764535.56
 20
8570131.00
  0
VERTEX
  8
0ALV_ROD
 10
764630.19
 20
8570457.00
  0
VERTEX
  8
0ALV_ROD
 10
764627.25
 20
8570631.00
  0
VERTEX
  8
0ALV_ROD
 10
764620.56
 20
8571029.00
  0
VERTEX
  8
0ALV_ROD
 10
764586.88
 20
8571552.00
  0
VERTEX
  8
0ALV_ROD
 10
764549.38
 20
8572298.00
  0
VERTEX
  8
0ALV_ROD
 10
764464.38
 20
8572894.00
  0
VERTEX
  8
0ALV_ROD
 10
764429.81
 20
8573466.00
  0
VERTEX
  8
0ALV_ROD
 10
764372.75
 20
8573888.00
  0
VERTEX
  8
0ALV_ROD
 10
764215.25
 20
8574334.00
  0
VERTEX
  8
0ALV_ROD
 10
764108.63
 20
8574730.00
  0
VERTEX
  8
0ALV_ROD
 10
764002.38
 20
8575102.00
  0
VERTEX
  8
0ALV_ROD
 10
763820.69
 20
8575497.00
  0
VERTEX
  8
0ALV_ROD
 10
763712.44
 20
8575993.00
  0
VERTEX
  8
0ALV_ROD
 10
763527.81
 20
8576562.00
  0
VERTEX
  8
0ALV_ROD
 10
763342.06
 20
8577206.00
  0
VERTEX
  8
0ALV_ROD
 10
763158.31
 20
8577725.00
  0
VERTEX
  8
0ALV_ROD
 10
763000.44
 20
8578196.00
  0
VERTEX
  8
0ALV_ROD
 10
762717.94
 20
8578639.00
  0
VERTEX
  8
0ALV_ROD
 10
762535.50
 20
8579083.00
  0
VERTEX
  8
0ALV_ROD
 10
762428.00
 20
8579530.00
  0
VERTEX
  8
0ALV_ROD
 10
762345.94
 20
8579951.00
  0
VERTEX
  8
0ALV_ROD
 10
762238.00
 20
8580423.00
  0
VERTEX
  8
0ALV_ROD
 10
762152.63
 20
8581043.00
  0
VERTEX
  8
0ALV_ROD
 10
762066.00
 20
8581739.00
  0
VERTEX
  8
0ALV_ROD
 10
761980.63
 20
8582360.00
  0
VERTEX
  8
0ALV_ROD
 10
761923.94
 20
8582757.00
  0
VERTEX
  8
0ALV_ROD
 10
761842.25
 20
8583154.00
  0
VERTEX
  8
0ALV_ROD
 10
761789.94
 20
8583409.00
  0
SEQEND
  8
0ALV_ROD
  0
POLYLINE
  8
0ALV_ROD
 66
     1
  0
VERTEX
  8
0ALV_ROD
 10
782053.13
 20
8567398.00
  0
VERTEX
  8
0ALV_ROD
 10
781900.44
 20
8566571.00
  0
VERTEX
  8
0ALV_ROD
 10
781899.75
 20
8566521.00
  0
VERTEX
  8
0ALV_ROD
 10
781892.50
 20
8566446.00
  0
VERTEX
  8
0ALV_ROD
 10
781885.06
 20
8566358.00
  0
VERTEX
  8
0ALV_ROD
 10
781871.25
 20
8566264.00
  0
VERTEX
  8
0ALV_ROD
 10
781864.19
 20
8566201.00
  0
VERTEX
  8
0ALV_ROD
 10
781850.50
 20
8566114.00
  0
VERTEX
  8
0ALV_ROD
 10
781843.19
 20
8566038.00
  0
VERTEX
  8
0ALV_ROD
 10
781817.06
 20
8565951.00
  0
VERTEX
  8
0ALV_ROD
 10
781809.44
 20
8565850.00
  0
VERTEX
  8
0ALV_ROD
 10
781796.06
 20
8565788.00
  0
VERTEX
  8
0ALV_ROD
 10
781782.50
 20
8565706.00
  0
VERTEX
  8
0ALV_ROD
 10
781775.13
 20
8565625.00
  0
VERTEX
  8
0ALV_ROD
 10
781761.44
 20
8565537.00
  0
VERTEX
  8
0ALV_ROD
 10
781754.19
 20
8565462.00
  0
VERTEX
  8
0ALV_ROD
 10
781740.69
 20
8565387.00
  0
VERTEX
  8
0ALV_ROD
 10
781740.00
 20
8565336.00
  0
VERTEX
  8
0ALV_ROD
 10
781732.69
 20
8565261.00
  0
VERTEX
  8
0ALV_ROD
 10
781731.56
 20
8565179.00
  0
VERTEX
  8
0ALV_ROD
 10
781730.81
 20
8565123.00
  0
VERTEX
  8
0ALV_ROD
 10
781729.56
 20
8565029.00
  0
VERTEX
  8
0ALV_ROD
 10
781728.75
 20
8564972.00
  0
VERTEX
  8
0ALV_ROD
 10
781727.75
 20
8564897.00
  0
VERTEX
  8
0ALV_ROD
 10
781726.88
 20
8564834.00
  0
VERTEX
  8
0ALV_ROD
 10
781732.13
 20
8564759.00
  0
VERTEX
  8
0ALV_ROD
 10
781737.38
 20
8564690.00
  0
VERTEX
  8
0ALV_ROD
 10
781742.63
 20
8564614.00
  0
VERTEX
  8
0ALV_ROD
 10
781753.31
 20
8564482.00
  0
VERTEX
  8
0ALV_ROD
 10
781770.88
 20
8564394.00
  0
VERTEX
  8
0ALV_ROD
 10
781788.75
 20
8564331.00
  0
VERTEX
  8
0ALV_ROD
 10
781812.94
 20
8564274.00
  0
VERTEX
  8
0ALV_ROD
 10
781843.00
 20
8564186.00
  0
VERTEX
  8
0ALV_ROD
 10
781854.69
 20
8564129.00
  0
VERTEX
  8
0ALV_ROD
 10
781866.50
 20
8564079.00
  0
VERTEX
  8
0ALV_ROD
 10
781896.94
 20
8564022.00
  0
VERTEX
  8
0ALV_ROD
 10
781908.69
 20
8563965.00
  0
VERTEX
  8
0ALV_ROD
 10
781933.00
 20
8563915.00
  0
VERTEX
  8
0ALV_ROD
 10
781969.44
 20
8563839.00
  0
VERTEX
  8
0ALV_ROD
 10
781981.13
 20
8563782.00
  0
VERTEX
  8
0ALV_ROD
 10
782024.19
 20
8563731.00
  0
VERTEX
  8
0ALV_ROD
 10
782072.88
 20
8563637.00
  0
VERTEX
  8
0ALV_ROD
 10
782103.06
 20
8563561.00
  0
VERTEX
  8
0ALV_ROD
 10
782126.94
 20
8563479.00
  0
VERTEX
  8
0ALV_ROD
 10
782145.00
 20
8563429.00
  0
VERTEX
  8
0ALV_ROD
 10
782162.69
 20
8563353.00
  0
VERTEX
  8
0ALV_ROD
 10
782186.56
 20
8563271.00
  0
VERTEX
  8
0ALV_ROD
 10
782210.69
 20
8563208.00
  0
VERTEX
  8
0ALV_ROD
 10
782228.63
 20
8563151.00
  0
VERTEX
  8
0ALV_ROD
 10
782246.69
 20
8563101.00
  0
VERTEX
  8
0ALV_ROD
 10
782271.00
 20
8563050.00
  0
VERTEX
  8
0ALV_ROD
 10
782282.81
 20
8563000.00
  0
VERTEX
  8
0ALV_ROD
 10
782288.25
 20
8562943.00
  0
VERTEX
  8
0ALV_ROD
 10
782287.44
 20
8562880.00
  0
VERTEX
  8
0ALV_ROD
 10
782286.75
 20
8562830.00
  0
VERTEX
  8
0ALV_ROD
 10
782285.69
 20
8562755.00
  0
VERTEX
  8
0ALV_ROD
 10
782284.88
 20
8562692.00
  0
VERTEX
  8
0ALV_ROD
 10
782284.19
 20
8562642.00
  0
VERTEX
  8
0ALV_ROD
 10
782283.06
 20
8562560.00
  0
VERTEX
  8
0ALV_ROD
 10
782276.06
 20
8562504.00
  0
VERTEX
  8
0ALV_ROD
 10
782274.75
 20
8562410.00
  0
VERTEX
  8
0ALV_ROD
 10
782273.94
 20
8562347.00
  0
VERTEX
  8
0ALV_ROD
 10
782266.56
 20
8562265.00
  0
VERTEX
  8
0ALV_ROD
 10
782259.25
 20
8562190.00
  0
VERTEX
  8
0ALV_ROD
 10
782246.13
 20
8562140.00
  0
VERTEX
  8
0ALV_ROD
 10
782232.94
 20
8562090.00
  0
VERTEX
  8
0ALV_ROD
 10
782213.44
 20
8562034.00
  0
VERTEX
  8
0ALV_ROD
 10
782200.19
 20
8561977.00
  0
VERTEX
  8
0ALV_ROD
 10
782180.56
 20
8561915.00
  0
VERTEX
  8
0ALV_ROD
 10
782142.00
 20
8561834.00
  0
VERTEX
  8
0ALV_ROD
 10
782110.00
 20
8561777.00
  0
VERTEX
  8
0ALV_ROD
 10
782103.06
 20
8561727.00
  0
VERTEX
  8
0ALV_ROD
 10
782039.50
 20
8561646.00
  0
VERTEX
  8
0ALV_ROD
 10
782058.13
 20
8561394.00
  0
SEQEND
  8
0ALV_ROD
  0
POLYLINE
  8
0ALV_ROD
 66
     1
  0
VERTEX
  8
0ALV_ROD
 10
630137.75
 20
8562521.00
  0
VERTEX
  8
0ALV_ROD
 10
630181.19
 20
8562218.00
  0
VERTEX
  8
0ALV_ROD
 10
630213.50
 20
8562154.00
  0
VERTEX
  8
0ALV_ROD
 10
630277.44
 20
8562123.00
  0
VERTEX
  8
0ALV_ROD
 10
630341.44
 20
8562091.00
  0
VERTEX
  8
0ALV_ROD
 10
630437.44
 20
8562028.00
  0
VERTEX
  8
0ALV_ROD
 10
630501.38
 20
8561997.00
  0
VERTEX
  8
0ALV_ROD
 10
630534.00
 20
8561901.00
  0
VERTEX
  8
0ALV_ROD
 10
630597.94
 20
8561870.00
  0
VERTEX
  8
0ALV_ROD
 10
630661.88
 20
8561838.00
  0
VERTEX
  8
0ALV_ROD
 10
630694.19
 20
8561774.00
  0
VERTEX
  8
0ALV_ROD
 10
630758.38
 20
8561711.00
  0
VERTEX
  8
0ALV_ROD
 10
630822.13
 20
8561712.00
  0
VERTEX
  8
0ALV_ROD
 10
630886.31
 20
8561648.00
  0
VERTEX
  8
0ALV_ROD
 10
630950.25
 20
8561617.00
  0
VERTEX
  8
0ALV_ROD
 10
630950.69
 20
8561553.00
  0
VERTEX
  8
0ALV_ROD
 10
631046.50
 20
8561521.00
  0
VERTEX
  8
0ALV_ROD
 10
631110.44
 20
8561490.00
  0
VERTEX
  8
0ALV_ROD
 10
631142.81
 20
8561426.00
  0
VERTEX
  8
0ALV_ROD
 10
631206.75
 20
8561395.00
  0
VERTEX
  8
0ALV_ROD
 10
631270.44
 20
8561395.00
  0
VERTEX
  8
0ALV_ROD
 10
631270.94
 20
8561331.00
  0
VERTEX
  8
0ALV_ROD
 10
631334.88
 20
8561300.00
  0
VERTEX
  8
0ALV_ROD
 10
631398.81
 20
8561268.00
  0
VERTEX
  8
0ALV_ROD
 10
631462.75
 20
8561237.00
  0
VERTEX
  8
0ALV_ROD
 10
631526.75
 20
8561206.00
  0
VERTEX
  8
0ALV_ROD
 10
631622.75
 20
8561142.00
  0
VERTEX
  8
0ALV_ROD
 10
631686.69
 20
8561111.00
  0
VERTEX
  8
0ALV_ROD
 10
631719.06
 20
8561047.00
  0
VERTEX
  8
0ALV_ROD
 10
631719.50
 20
8560983.00
  0
VERTEX
  8
0ALV_ROD
 10
631783.44
 20
8560952.00
  0
VERTEX
  8
0ALV_ROD
 10
631847.63
 20
8560888.00
  0
VERTEX
  8
0ALV_ROD
 10
631911.81
 20
8560825.00
  0
VERTEX
  8
0ALV_ROD
 10
631944.19
 20
8560761.00
  0
VERTEX
  8
0ALV_ROD
 10
632039.94
 20
8560730.00
  0
VERTEX
  8
0ALV_ROD
 10
632040.44
 20
8560666.00
  0
VERTEX
  8
0ALV_ROD
 10
632104.38
 20
8560635.00
  0
VERTEX
  8
0ALV_ROD
 10
632136.94
 20
8560539.00
  0
VERTEX
  8
0ALV_ROD
 10
632200.88
 20
8560508.00
  0
VERTEX
  8
0ALV_ROD
 10
632264.88
 20
8560476.00
  0
VERTEX
  8
0ALV_ROD
 10
632265.31
 20
8560412.00
  0
VERTEX
  8
0ALV_ROD
 10
632329.06
 20
8560413.00
  0
VERTEX
  8
0ALV_ROD
 10
632393.25
 20
8560349.00
  0
VERTEX
  8
0ALV_ROD
 10
632457.19
 20
8560318.00
  0
VERTEX
  8
0ALV_ROD
 10
632521.13
 20
8560286.00
  0
VERTEX
  8
0ALV_ROD
 10
632584.81
 20
8560287.00
  0
VERTEX
  8
0ALV_ROD
 10
632648.81
 20
8560255.00
  0
VERTEX
  8
0ALV_ROD
 10
632712.50
 20
8560256.00
  0
VERTEX
  8
0ALV_ROD
 10
632776.44
 20
8560224.00
  0
VERTEX
  8
0ALV_ROD
 10
632840.19
 20
8560225.00
  0
VERTEX
  8
0ALV_ROD
 10
632904.13
 20
8560193.00
  0
VERTEX
  8
0ALV_ROD
 10
632968.06
 20
8560162.00
  0
VERTEX
  8
0ALV_ROD
 10
633031.75
 20
8560162.00
  0
VERTEX
  8
0ALV_ROD
 10
633095.75
 20
8560131.00
  0
VERTEX
  8
0ALV_ROD
 10
633159.44
 20
8560131.00
  0
VERTEX
  8
0ALV_ROD
 10
633223.38
 20
8560100.00
  0
VERTEX
  8
0ALV_ROD
 10
633318.94
 20
8560101.00
  0
VERTEX
  8
0ALV_ROD
 10
633382.88
 20
8560069.00
  0
VERTEX
  8
0ALV_ROD
 10
633446.63
 20
8560070.00
  0
VERTEX
  8
0ALV_ROD
 10
633510.31
 20
8560070.00
  0
VERTEX
  8
0ALV_ROD
 10
633574.31
 20
8560039.00
  0
VERTEX
  8
0ALV_ROD
 10
633670.06
 20
8560007.00
  0
VERTEX
  8
0ALV_ROD
 10
633733.81
 20
8560008.00
  0
VERTEX
  8
0ALV_ROD
 10
633797.50
 20
8560008.00
  0
VERTEX
  8
0ALV_ROD
 10
633861.44
 20
8559977.00
  0
VERTEX
  8
0ALV_ROD
 10
633925.19
 20
8559977.00
  0
VERTEX
  8
0ALV_ROD
 10
633988.88
 20
8559978.00
  0
VERTEX
  8
0ALV_ROD
 10
634052.63
 20
8559978.00
  0
VERTEX
  8
0ALV_ROD
 10
634148.19
 20
8559979.00
  0
VERTEX
  8
0ALV_ROD
 10
634211.88
 20
8559979.00
  0
VERTEX
  8
0ALV_ROD
 10
634275.63
 20
8559980.00
  0
VERTEX
  8
0ALV_ROD
 10
634371.19
 20
8559980.00
  0
VERTEX
  8
0ALV_ROD
 10
634434.88
 20
8559981.00
  0
VERTEX
  8
0ALV_ROD
 10
634498.63
 20
8559981.00
  0
VERTEX
  8
0ALV_ROD
 10
634562.31
 20
8559982.00
  0
VERTEX
  8
0ALV_ROD
 10
634626.00
 20
8559982.00
  0
VERTEX
  8
0ALV_ROD
 10
634689.75
 20
8559983.00
  0
VERTEX
  8
0ALV_ROD
 10
634753.19
 20
8560015.00
  0
VERTEX
  8
0ALV_ROD
 10
634816.94
 20
8560016.00
  0
VERTEX
  8
0ALV_ROD
 10
634880.63
 20
8560016.00
  0
VERTEX
  8
0ALV_ROD
 10
634944.63
 20
8559985.00
  0
VERTEX
  8
0ALV_ROD
 10
635008.31
 20
8559985.00
  0
VERTEX
  8
0ALV_ROD
 10
635072.00
 20
8559986.00
  0
VERTEX
  8
0ALV_ROD
 10
635135.75
 20
8559986.00
  0
VERTEX
  8
0ALV_ROD
 10
635199.44
 20
8559987.00
  0
VERTEX
  8
0ALV_ROD
 10
635295.25
 20
8559955.00
  0
VERTEX
  8
0ALV_ROD
 10
635390.81
 20
8559956.00
  0
VERTEX
  8
0ALV_ROD
 10
635486.63
 20
8559925.00
  0
VERTEX
  8
0ALV_ROD
 10
635550.56
 20
8559893.00
  0
VERTEX
  8
0ALV_ROD
 10
635646.38
 20
8559862.00
  0
VERTEX
  8
0ALV_ROD
 10
635710.13
 20
8559863.00
  0
VERTEX
  8
0ALV_ROD
 10
635806.13
 20
8559799.00
  0
VERTEX
  8
0ALV_ROD
 10
635902.19
 20
8559736.00
  0
VERTEX
  8
0ALV_ROD
 10
635998.00
 20
8559705.00
  0
VERTEX
  8
0ALV_ROD
 10
636094.25
 20
8559610.00
  0
VERTEX
  8
0ALV_ROD
 10
636158.44
 20
8559546.00
  0
VERTEX
  8
0ALV_ROD
 10
636158.94
 20
8559482.00
  0
VERTEX
  8
0ALV_ROD
 10
636254.75
 20
8559451.00
  0
VERTEX
  8
0ALV_ROD
 10
636351.00
 20
8559356.00
  0
VERTEX
  8
0ALV_ROD
 10
636351.50
 20
8559292.00
  0
VERTEX
  8
0ALV_ROD
 10
636387.63
 20
8559292.00
  0
SEQEND
  8
0ALV_ROD
  0
POLYLINE
  8
0ALV_ROD
 66
     1
  0
VERTEX
  8
0ALV_ROD
 10
781107.63
 20
8556889.00
  0
VERTEX
  8
0ALV_ROD
 10
781377.44
 20
8557774.00
  0
VERTEX
  8
0ALV_ROD
 10
781400.94
 20
8557844.00
  0
VERTEX
  8
0ALV_ROD
 10
781424.50
 20
8557915.00
  0
VERTEX
  8
0ALV_ROD
 10
781423.06
 20
8557985.00
  0
VERTEX
  8
0ALV_ROD
 10
781446.63
 20
8558056.00
  0
VERTEX
  8
0ALV_ROD
 10
781470.13
 20
8558126.00
  0
VERTEX
  8
0ALV_ROD
 10
781493.63
 20
8558197.00
  0
VERTEX
  8
0ALV_ROD
 10
781517.13
 20
8558267.00
  0
VERTEX
  8
0ALV_ROD
 10
781540.69
 20
8558337.00
  0
VERTEX
  8
0ALV_ROD
 10
781564.25
 20
8558408.00
  0
VERTEX
  8
0ALV_ROD
 10
781587.25
 20
8558502.00
  0
VERTEX
  8
0ALV_ROD
 10
781635.69
 20
8558573.00
  0
VERTEX
  8
0ALV_ROD
 10
781658.75
 20
8558666.00
  0
VERTEX
  8
0ALV_ROD
 10
781681.81
 20
8558760.00
  0
VERTEX
  8
0ALV_ROD
 10
781678.06
 20
8558948.00
  0
VERTEX
  8
0ALV_ROD
 10
781674.75
 20
8559112.00
  0
VERTEX
  8
0ALV_ROD
 10
781697.81
 20
8559206.00
  0
VERTEX
  8
0ALV_ROD
 10
781694.50
 20
8559370.00
  0
VERTEX
  8
0ALV_ROD
 10
781715.63
 20
8559557.00
  0
VERTEX
  8
0ALV_ROD
 10
781738.69
 20
8559651.00
  0
VERTEX
  8
0ALV_ROD
 10
781784.81
 20
8559839.00
  0
VERTEX
  8
0ALV_ROD
 10
781830.38
 20
8560050.00
  0
VERTEX
  8
0ALV_ROD
 10
781876.50
 20
8560238.00
  0
VERTEX
  8
0ALV_ROD
 10
781947.56
 20
8560426.00
  0
VERTEX
  8
0ALV_ROD
 10
781994.13
 20
8560591.00
  0
VERTEX
  8
0ALV_ROD
 10
782040.69
 20
8560755.00
  0
VERTEX
  8
0ALV_ROD
 10
782087.25
 20
8560919.00
  0
VERTEX
  8
0ALV_ROD
 10
782108.88
 20
8561084.00
  0
VERTEX
  8
0ALV_ROD
 10
782058.13
 20
8561394.00
  0
SEQEND
  8
0ALV_ROD
  0
POLYLINE
  8
0ALV_ROD
 66
     1
  0
VERTEX
  8
0ALV_ROD
 10
780734.25
 20
8556767.00
  0
VERTEX
  8
0ALV_ROD
 10
779736.00
 20
8557527.00
  0
VERTEX
  8
0ALV_ROD
 10
779685.19
 20
8557573.00
  0
VERTEX
  8
0ALV_ROD
 10
779633.88
 20
8557643.00
  0
VERTEX
  8
0ALV_ROD
 10
779583.56
 20
8557666.00
  0
VERTEX
  8
0ALV_ROD
 10
779532.69
 20
8557713.00
  0
VERTEX
  8
0ALV_ROD
 10
779482.38
 20
8557736.00
  0
VERTEX
  8
0ALV_ROD
 10
779329.38
 20
8557899.00
  0
VERTEX
  8
0ALV_ROD
 10
779253.13
 20
8557968.00
  0
VERTEX
  8
0ALV_ROD
 10
779102.56
 20
8558014.00
  0
VERTEX
  8
0ALV_ROD
 10
779074.31
 20
8558178.00
  0
VERTEX
  8
0ALV_ROD
 10
778923.69
 20
8558224.00
  0
VERTEX
  8
0ALV_ROD
 10
778796.13
 20
8558363.00
  0
VERTEX
  8
0ALV_ROD
 10
778645.06
 20
8558432.00
  0
VERTEX
  8
0ALV_ROD
 10
778492.56
 20
8558572.00
  0
VERTEX
  8
0ALV_ROD
 10
778342.00
 20
8558617.00
  0
VERTEX
  8
0ALV_ROD
 10
778288.75
 20
8558781.00
  0
VERTEX
  8
0ALV_ROD
 10
778112.75
 20
8558850.00
  0
VERTEX
  8
0ALV_ROD
 10
777962.19
 20
8558896.00
  0
VERTEX
  8
0ALV_ROD
 10
777885.94
 20
8558965.00
  0
VERTEX
  8
0ALV_ROD
 10
777810.19
 20
8559012.00
  0
VERTEX
  8
0ALV_ROD
 10
777634.63
 20
8559057.00
  0
VERTEX
  8
0ALV_ROD
 10
777559.81
 20
8559057.00
  0
VERTEX
  8
0ALV_ROD
 10
777410.13
 20
8559055.00
  0
VERTEX
  8
0ALV_ROD
 10
777335.31
 20
8559055.00
  0
VERTEX
  8
0ALV_ROD
 10
777135.81
 20
8559053.00
  0
VERTEX
  8
0ALV_ROD
 10
776961.19
 20
8559052.00
  0
VERTEX
  8
0ALV_ROD
 10
776836.50
 20
8559051.00
  0
VERTEX
  8
0ALV_ROD
 10
776737.19
 20
8559027.00
  0
VERTEX
  8
0ALV_ROD
 10
776562.63
 20
8559025.00
  0
VERTEX
  8
0ALV_ROD
 10
776412.94
 20
8559024.00
  0
VERTEX
  8
0ALV_ROD
 10
776314.13
 20
8558977.00
  0
VERTEX
  8
0ALV_ROD
 10
776140.50
 20
8558928.00
  0
VERTEX
  8
0ALV_ROD
 10
775966.38
 20
8558904.00
  0
VERTEX
  8
0ALV_ROD
 10
775892.50
 20
8558856.00
  0
VERTEX
  8
0ALV_ROD
 10
775718.38
 20
8558831.00
  0
VERTEX
  8
0ALV_ROD
 10
775569.69
 20
8558783.00
  0
VERTEX
  8
0ALV_ROD
 10
775421.44
 20
8558712.00
  0
VERTEX
  8
0ALV_ROD
 10
775272.75
 20
8558664.00
  0
VERTEX
  8
0ALV_ROD
 10
775124.50
 20
8558593.00
  0
VERTEX
  8
0ALV_ROD
 10
775076.06
 20
8558522.00
  0
VERTEX
  8
0ALV_ROD
 10
774803.06
 20
8558449.00
  0
VERTEX
  8
0ALV_ROD
 10
774629.94
 20
8558378.00
  0
VERTEX
  8
0ALV_ROD
 10
774431.81
 20
8558306.00
  0
VERTEX
  8
0ALV_ROD
 10
774133.00
 20
8558280.00
  0
VERTEX
  8
0ALV_ROD
 10
773886.88
 20
8558114.00
  0
VERTEX
  8
0ALV_ROD
 10
773589.00
 20
8558042.00
  0
VERTEX
  8
0ALV_ROD
 10
773242.63
 20
8557898.00
  0
VERTEX
  8
0ALV_ROD
 10
773044.50
 20
8557827.00
  0
VERTEX
  8
0ALV_ROD
 10
772845.94
 20
8557778.00
  0
VERTEX
  8
0ALV_ROD
 10
772671.31
 20
8557777.00
  0
VERTEX
  8
0ALV_ROD
 10
772496.75
 20
8557775.00
  0
VERTEX
  8
0ALV_ROD
 10
772372.06
 20
8557774.00
  0
VERTEX
  8
0ALV_ROD
 10
772197.44
 20
8557773.00
  0
VERTEX
  8
0ALV_ROD
 10
771947.56
 20
8557795.00
  0
VERTEX
  8
0ALV_ROD
 10
771897.19
 20
8557818.00
  0
VERTEX
  8
0ALV_ROD
 10
771722.13
 20
8557840.00
  0
VERTEX
  8
0ALV_ROD
 10
771647.31
 20
8557839.00
  0
VERTEX
  8
0ALV_ROD
 10
771572.00
 20
8557862.00
  0
VERTEX
  8
0ALV_ROD
 10
771497.19
 20
8557861.00
  0
VERTEX
  8
0ALV_ROD
 10
771419.50
 20
8558001.00
  0
VERTEX
  8
0ALV_ROD
 10
771268.44
 20
8558071.00
  0
VERTEX
  8
0ALV_ROD
 10
771192.19
 20
8558140.00
  0
VERTEX
  8
0ALV_ROD
 10
771041.13
 20
8558209.00
  0
VERTEX
  8
0ALV_ROD
 10
770964.88
 20
8558279.00
  0
VERTEX
  8
0ALV_ROD
 10
770889.13
 20
8558325.00
  0
VERTEX
  8
0ALV_ROD
 10
770810.50
 20
8558512.00
  0
VERTEX
  8
0ALV_ROD
 10
770734.75
 20
8558559.00
  0
VERTEX
  8
0ALV_ROD
 10
770656.56
 20
8558722.00
  0
VERTEX
  8
0ALV_ROD
 10
770577.50
 20
8558932.00
  0
VERTEX
  8
0ALV_ROD
 10
770498.88
 20
8559119.00
  0
VERTEX
  8
0ALV_ROD
 10
770420.75
 20
8559283.00
  0
VERTEX
  8
0ALV_ROD
 10
770367.13
 20
8559470.00
  0
VERTEX
  8
0ALV_ROD
 10
770211.75
 20
8559750.00
  0
VERTEX
  8
0ALV_ROD
 10
770133.63
 20
8559913.00
  0
VERTEX
  8
0ALV_ROD
 10
770104.94
 20
8560100.00
  0
VERTEX
  8
0ALV_ROD
 10
769927.00
 20
8560263.00
  0
VERTEX
  8
0ALV_ROD
 10
769873.81
 20
8560427.00
  0
VERTEX
  8
0ALV_ROD
 10
769723.19
 20
8560472.00
  0
VERTEX
  8
0ALV_ROD
 10
769445.56
 20
8560634.00
  0
VERTEX
  8
0ALV_ROD
 10
769267.63
 20
8560797.00
  0
VERTEX
  8
0ALV_ROD
 10
768964.56
 20
8560982.00
  0
VERTEX
  8
0ALV_ROD
 10
768788.56
 20
8561051.00
  0
VERTEX
  8
0ALV_ROD
 10
768488.75
 20
8561072.00
  0
VERTEX
  8
0ALV_ROD
 10
768313.25
 20
8561118.00
  0
VERTEX
  8
0ALV_ROD
 10
768138.13
 20
8561140.00
  0
VERTEX
  8
0ALV_ROD
 10
767963.56
 20
8561138.00
  0
VERTEX
  8
0ALV_ROD
 10
767813.94
 20
8561137.00
  0
VERTEX
  8
0ALV_ROD
 10
767689.25
 20
8561136.00
  0
VERTEX
  8
0ALV_ROD
 10
767614.38
 20
8561136.00
  0
VERTEX
  8
0ALV_ROD
 10
767464.75
 20
8561134.00
  0
VERTEX
  8
0ALV_ROD
 10
767315.13
 20
8561133.00
  0
VERTEX
  8
0ALV_ROD
 10
767115.56
 20
8561132.00
  0
VERTEX
  8
0ALV_ROD
 10
766940.94
 20
8561130.00
  0
VERTEX
  8
0ALV_ROD
 10
766791.31
 20
8561129.00
  0
VERTEX
  8
0ALV_ROD
 10
766716.50
 20
8561129.00
  0
VERTEX
  8
0ALV_ROD
 10
766541.88
 20
8561127.00
  0
VERTEX
  8
0ALV_ROD
 10
766417.19
 20
8561126.00
  0
VERTEX
  8
0ALV_ROD
 10
766342.81
 20
8561102.00
  0
VERTEX
  8
0ALV_ROD
 10
766268.44
 20
8561078.00
  0
VERTEX
  8
0ALV_ROD
 10
766193.69
 20
8561078.00
  0
VERTEX
  8
0ALV_ROD
 10
766019.06
 20
8561076.00
  0
VERTEX
  8
0ALV_ROD
 10
765944.25
 20
8561076.00
  0
VERTEX
  8
0ALV_ROD
 10
765844.44
 20
8561075.00
  0
VERTEX
  8
0ALV_ROD
 10
765769.63
 20
8561074.00
  0
VERTEX
  8
0ALV_ROD
 10
765694.81
 20
8561074.00
  0
VERTEX
  8
0ALV_ROD
 10
765644.44
 20
8561097.00
  0
VERTEX
  8
0ALV_ROD
 10
765594.13
 20
8561120.00
  0
VERTEX
  8
0ALV_ROD
 10
765541.38
 20
8561260.00
  0
VERTEX
  8
0ALV_ROD
 10
765400.19
 20
8561484.00
  0
SEQEND
  8
0ALV_ROD
  0
POLYLINE
  8
0ALV_ROD
 66
     1
  0
VERTEX
  8
0ALV_ROD
 10
782871.50
 20
8549060.00
  0
VERTEX
  8
0ALV_ROD
 10
782848.94
 20
8549138.00
  0
VERTEX
  8
0ALV_ROD
 10
782822.63
 20
8549208.00
  0
VERTEX
  8
0ALV_ROD
 10
782796.25
 20
8549278.00
  0
VERTEX
  8
0ALV_ROD
 10
782794.81
 20
8549349.00
  0
VERTEX
  8
0ALV_ROD
 10
782768.44
 20
8549419.00
  0
VERTEX
  8
0ALV_ROD
 10
782742.13
 20
8549489.00
  0
VERTEX
  8
0ALV_ROD
 10
782690.31
 20
8549582.00
  0
VERTEX
  8
0ALV_ROD
 10
782661.63
 20
8549769.00
  0
VERTEX
  8
0ALV_ROD
 10
782660.19
 20
8549840.00
  0
VERTEX
  8
0ALV_ROD
 10
782608.88
 20
8549910.00
  0
VERTEX
  8
0ALV_ROD
 10
782607.00
 20
8550003.00
  0
VERTEX
  8
0ALV_ROD
 10
782580.63
 20
8550073.00
  0
VERTEX
  8
0ALV_ROD
 10
782552.81
 20
8550214.00
  0
VERTEX
  8
0ALV_ROD
 10
782500.13
 20
8550354.00
  0
VERTEX
  8
0ALV_ROD
 10
782473.31
 20
8550448.00
  0
VERTEX
  8
0ALV_ROD
 10
782445.50
 20
8550588.00
  0
VERTEX
  8
0ALV_ROD
 10
782393.75
 20
8550681.00
  0
VERTEX
  8
0ALV_ROD
 10
782340.56
 20
8550845.00
  0
VERTEX
  8
0ALV_ROD
 10
782314.19
 20
8550915.00
  0
VERTEX
  8
0ALV_ROD
 10
782262.88
 20
8550985.00
  0
VERTEX
  8
0ALV_ROD
 10
782236.50
 20
8551055.00
  0
VERTEX
  8
0ALV_ROD
 10
782183.75
 20
8551195.00
  0
VERTEX
  8
0ALV_ROD
 10
782132.94
 20
8551242.00
  0
VERTEX
  8
0ALV_ROD
 10
782079.75
 20
8551405.00
  0
VERTEX
  8
0ALV_ROD
 10
782050.56
 20
8551616.00
  0
VERTEX
  8
0ALV_ROD
 10
782047.25
 20
8551780.00
  0
VERTEX
  8
0ALV_ROD
 10
782043.94
 20
8551944.00
  0
VERTEX
  8
0ALV_ROD
 10
782040.63
 20
8552108.00
  0
VERTEX
  8
0ALV_ROD
 10
782037.31
 20
8552272.00
  0
VERTEX
  8
0ALV_ROD
 10
782034.00
 20
8552436.00
  0
VERTEX
  8
0ALV_ROD
 10
782030.19
 20
8552623.00
  0
VERTEX
  8
0ALV_ROD
 10
782026.88
 20
8552787.00
  0
VERTEX
  8
0ALV_ROD
 10
782025.50
 20
8552858.00
  0
VERTEX
  8
0ALV_ROD
 10
782022.63
 20
8552998.00
  0
VERTEX
  8
0ALV_ROD
 10
782021.25
 20
8553069.00
  0
VERTEX
  8
0ALV_ROD
 10
782019.81
 20
8553139.00
  0
VERTEX
  8
0ALV_ROD
 10
782041.94
 20
8553280.00
  0
VERTEX
  8
0ALV_ROD
 10
782040.50
 20
8553350.00
  0
VERTEX
  8
0ALV_ROD
 10
782038.63
 20
8553444.00
  0
VERTEX
  8
0ALV_ROD
 10
782035.81
 20
8553584.00
  0
VERTEX
  8
0ALV_ROD
 10
782034.38
 20
8553655.00
  0
VERTEX
  8
0ALV_ROD
 10
782032.94
 20
8553725.00
  0
VERTEX
  8
0ALV_ROD
 10
782031.06
 20
8553819.00
  0
VERTEX
  8
0ALV_ROD
 10
782027.25
 20
8554006.00
  0
VERTEX
  8
0ALV_ROD
 10
782023.94
 20
8554170.00
  0
VERTEX
  8
0ALV_ROD
 10
782020.63
 20
8554334.00
  0
VERTEX
  8
0ALV_ROD
 10
781992.38
 20
8554498.00
  0
VERTEX
  8
0ALV_ROD
 10
781938.75
 20
8554685.00
  0
VERTEX
  8
0ALV_ROD
 10
781910.50
 20
8554849.00
  0
VERTEX
  8
0ALV_ROD
 10
781884.13
 20
8554919.00
  0
VERTEX
  8
0ALV_ROD
 10
781833.75
 20
8554942.00
  0
VERTEX
  8
0ALV_ROD
 10
781755.63
 20
8555105.00
  0
VERTEX
  8
0ALV_ROD
 10
781602.19
 20
8555292.00
  0
VERTEX
  8
0ALV_ROD
 10
781142.81
 20
8556451.00
  0
SEQEND
  8
0ALV_ROD
  0
LINE
  8
0ALV_ROD
 10
649648.94
 20
8548975.00
 11
649714.69
 21
8548947.00
  0
POLYLINE
  8
0ALV_ROD
 66
     1
  0
VERTEX
  8
0ALV_ROD
 10
637536.56
 20
8557840.00
  0
VERTEX
  8
0ALV_ROD
 10
637541.00
 20
8557831.00
  0
VERTEX
  8
0ALV_ROD
 10
637573.38
 20
8557768.00
  0
VERTEX
  8
0ALV_ROD
 10
637637.31
 20
8557736.00
  0
VERTEX
  8
0ALV_ROD
 10
637701.75
 20
8557641.00
  0
VERTEX
  8
0ALV_ROD
 10
637765.94
 20
8557577.00
  0
VERTEX
  8
0ALV_ROD
 10
637830.31
 20
8557482.00
  0
VERTEX
  8
0ALV_ROD
 10
637926.63
 20
8557387.00
  0
VERTEX
  8
0ALV_ROD
 10
637991.06
 20
8557292.00
  0
VERTEX
  8
0ALV_ROD
 10
638055.25
 20
8557228.00
  0
VERTEX
  8
0ALV_ROD
 10
638087.56
 20
8557164.00
  0
VERTEX
  8
0ALV_ROD
 10
638152.00
 20
8557069.00
  0
VERTEX
  8
0ALV_ROD
 10
638184.31
 20
8557005.00
  0
VERTEX
  8
0ALV_ROD
 10
638184.75
 20
8556941.00
  0
VERTEX
  8
0ALV_ROD
 10
638249.19
 20
8556846.00
  0
VERTEX
  8
0ALV_ROD
 10
638313.38
 20
8556783.00
  0
VERTEX
  8
0ALV_ROD
 10
638377.56
 20
8556719.00
  0
VERTEX
  8
0ALV_ROD
 10
638378.06
 20
8556655.00
  0
VERTEX
  8
0ALV_ROD
 10
638442.00
 20
8556624.00
  0
VERTEX
  8
0ALV_ROD
 10
638442.44
 20
8556560.00
  0
VERTEX
  8
0ALV_ROD
 10
638506.38
 20
8556529.00
  0
VERTEX
  8
0ALV_ROD
 10
638538.75
 20
8556465.00
  0
VERTEX
  8
0ALV_ROD
 10
638571.06
 20
8556401.00
  0
VERTEX
  8
0ALV_ROD
 10
638667.31
 20
8556306.00
  0
VERTEX
  8
0ALV_ROD
 10
638731.50
 20
8556243.00
  0
VERTEX
  8
0ALV_ROD
 10
638795.69
 20
8556179.00
  0
VERTEX
  8
0ALV_ROD
 10
638891.50
 20
8556148.00
  0
VERTEX
  8
0ALV_ROD
 10
638955.69
 20
8556085.00
  0
VERTEX
  8
0ALV_ROD
 10
639019.63
 20
8556053.00
  0
VERTEX
  8
0ALV_ROD
 10
639052.00
 20
8555989.00
  0
VERTEX
  8
0ALV_ROD
 10
639115.94
 20
8555958.00
  0
VERTEX
  8
0ALV_ROD
 10
639180.13
 20
8555895.00
  0
VERTEX
  8
0ALV_ROD
 10
639243.81
 20
8555895.00
  0
VERTEX
  8
0ALV_ROD
 10
639276.13
 20
8555831.00
  0
VERTEX
  8
0ALV_ROD
 10
639340.13
 20
8555800.00
  0
VERTEX
  8
0ALV_ROD
 10
639404.06
 20
8555768.00
  0
VERTEX
  8
0ALV_ROD
 10
639468.25
 20
8555705.00
  0
VERTEX
  8
0ALV_ROD
 10
639532.44
 20
8555642.00
  0
VERTEX
  8
0ALV_ROD
 10
639596.63
 20
8555578.00
  0
VERTEX
  8
0ALV_ROD
 10
639660.56
 20
8555547.00
  0
VERTEX
  8
0ALV_ROD
 10
639724.50
 20
8555515.00
  0
VERTEX
  8
0ALV_ROD
 10
639788.69
 20
8555452.00
  0
VERTEX
  8
0ALV_ROD
 10
639852.88
 20
8555388.00
  0
VERTEX
  8
0ALV_ROD
 10
639916.81
 20
8555357.00
  0
VERTEX
  8
0ALV_ROD
 10
639980.75
 20
8555325.00
  0
VERTEX
  8
0ALV_ROD
 10
640044.75
 20
8555294.00
  0
VERTEX
  8
0ALV_ROD
 10
640108.94
 20
8555230.00
  0
VERTEX
  8
0ALV_ROD
 10
640204.69
 20
8555199.00
  0
VERTEX
  8
0ALV_ROD
 10
640268.44
 20
8555200.00
  0
VERTEX
  8
0ALV_ROD
 10
640396.31
 20
8555137.00
  0
VERTEX
  8
0ALV_ROD
 10
640460.25
 20
8555105.00
  0
VERTEX
  8
0ALV_ROD
 10
640556.31
 20
8555042.00
  0
VERTEX
  8
0ALV_ROD
 10
640620.25
 20
8555011.00
  0
VERTEX
  8
0ALV_ROD
 10
640684.25
 20
8554979.00
  0
VERTEX
  8
0ALV_ROD
 10
640780.25
 20
8554916.00
  0
VERTEX
  8
0ALV_ROD
 10
640876.31
 20
8554853.00
  0
VERTEX
  8
0ALV_ROD
 10
640972.13
 20
8554821.00
  0
VERTEX
  8
0ALV_ROD
 10
641036.31
 20
8554758.00
  0
VERTEX
  8
0ALV_ROD
 10
641100.25
 20
8554727.00
  0
VERTEX
  8
0ALV_ROD
 10
641163.94
 20
8554727.00
  0
VERTEX
  8
0ALV_ROD
 10
641228.13
 20
8554664.00
  0
VERTEX
  8
0ALV_ROD
 10
641323.94
 20
8554632.00
  0
VERTEX
  8
0ALV_ROD
 10
641387.88
 20
8554601.00
  0
VERTEX
  8
0ALV_ROD
 10
641451.63
 20
8554601.00
  0
VERTEX
  8
0ALV_ROD
 10
641547.63
 20
8554538.00
  0
VERTEX
  8
0ALV_ROD
 10
641611.81
 20
8554475.00
  0
VERTEX
  8
0ALV_ROD
 10
641675.56
 20
8554475.00
  0
VERTEX
  8
0ALV_ROD
 10
641739.75
 20
8554412.00
  0
VERTEX
  8
0ALV_ROD
 10
641803.94
 20
8554348.00
  0
VERTEX
  8
0ALV_ROD
 10
641899.94
 20
8554285.00
  0
VERTEX
  8
0ALV_ROD
 10
641963.94
 20
8554254.00
  0
VERTEX
  8
0ALV_ROD
 10
642027.88
 20
8554222.00
  0
VERTEX
  8
0ALV_ROD
 10
642091.81
 20
8554191.00
  0
VERTEX
  8
0ALV_ROD
 10
642124.13
 20
8554127.00
  0
VERTEX
  8
0ALV_ROD
 10
642188.06
 20
8554096.00
  0
VERTEX
  8
0ALV_ROD
 10
642251.81
 20
8554096.00
  0
VERTEX
  8
0ALV_ROD
 10
642347.88
 20
8554033.00
  0
VERTEX
  8
0ALV_ROD
 10
642411.81
 20
8554001.00
  0
VERTEX
  8
0ALV_ROD
 10
642444.13
 20
8553938.00
  0
VERTEX
  8
0ALV_ROD
 10
642507.81
 20
8553938.00
  0
VERTEX
  8
0ALV_ROD
 10
642572.00
 20
8553875.00
  0
VERTEX
  8
0ALV_ROD
 10
642635.75
 20
8553875.00
  0
VERTEX
  8
0ALV_ROD
 10
642699.69
 20
8553844.00
  0
VERTEX
  8
0ALV_ROD
 10
642763.63
 20
8553812.00
  0
VERTEX
  8
0ALV_ROD
 10
642859.44
 20
8553781.00
  0
VERTEX
  8
0ALV_ROD
 10
642923.38
 20
8553750.00
  0
VERTEX
  8
0ALV_ROD
 10
642987.13
 20
8553750.00
  0
VERTEX
  8
0ALV_ROD
 10
643019.44
 20
8553686.00
  0
VERTEX
  8
0ALV_ROD
 10
643083.13
 20
8553687.00
  0
VERTEX
  8
0ALV_ROD
 10
643179.19
 20
8553624.00
  0
VERTEX
  8
0ALV_ROD
 10
643242.88
 20
8553624.00
  0
VERTEX
  8
0ALV_ROD
 10
643306.88
 20
8553593.00
  0
VERTEX
  8
0ALV_ROD
 10
643402.88
 20
8553529.00
  0
VERTEX
  8
0ALV_ROD
 10
643498.69
 20
8553498.00
  0
VERTEX
  8
0ALV_ROD
 10
643594.75
 20
8553435.00
  0
VERTEX
  8
0ALV_ROD
 10
643658.69
 20
8553404.00
  0
VERTEX
  8
0ALV_ROD
 10
643722.38
 20
8553404.00
  0
VERTEX
  8
0ALV_ROD
 10
643754.75
 20
8553340.00
  0
VERTEX
  8
0ALV_ROD
 10
643818.94
 20
8553277.00
  0
VERTEX
  8
0ALV_ROD
 10
643882.88
 20
8553245.00
  0
VERTEX
  8
0ALV_ROD
 10
643946.81
 20
8553214.00
  0
VERTEX
  8
0ALV_ROD
 10
644042.88
 20
8553151.00
  0
VERTEX
  8
0ALV_ROD
 10
644106.81
 20
8553119.00
  0
VERTEX
  8
0ALV_ROD
 10
644202.88
 20
8553056.00
  0
VERTEX
  8
0ALV_ROD
 10
644266.81
 20
8553025.00
  0
VERTEX
  8
0ALV_ROD
 10
644331.00
 20
8552961.00
  0
VERTEX
  8
0ALV_ROD
 10
644394.94
 20
8552930.00
  0
VERTEX
  8
0ALV_ROD
 10
644458.88
 20
8552898.00
  0
VERTEX
  8
0ALV_ROD
 10
644523.06
 20
8552835.00
  0
VERTEX
  8
0ALV_ROD
 10
644587.00
 20
8552803.00
  0
VERTEX
  8
0ALV_ROD
 10
644651.00
 20
8552772.00
  0
VERTEX
  8
0ALV_ROD
 10
644714.94
 20
8552740.00
  0
VERTEX
  8
0ALV_ROD
 10
644778.88
 20
8552709.00
  0
VERTEX
  8
0ALV_ROD
 10
644874.69
 20
8552678.00
  0
VERTEX
  8
0ALV_ROD
 10
644907.00
 20
8552614.00
  0
VERTEX
  8
0ALV_ROD
 10
644970.94
 20
8552583.00
  0
VERTEX
  8
0ALV_ROD
 10
645034.88
 20
8552551.00
  0
VERTEX
  8
0ALV_ROD
 10
645098.63
 20
8552552.00
  0
VERTEX
  8
0ALV_ROD
 10
645099.06
 20
8552488.00
  0
VERTEX
  8
0ALV_ROD
 10
645162.81
 20
8552488.00
  0
VERTEX
  8
0ALV_ROD
 10
645163.25
 20
8552424.00
  0
VERTEX
  8
0ALV_ROD
 10
645227.19
 20
8552393.00
  0
VERTEX
  8
0ALV_ROD
 10
645291.19
 20
8552361.00
  0
VERTEX
  8
0ALV_ROD
 10
645355.38
 20
8552298.00
  0
VERTEX
  8
0ALV_ROD
 10
645451.19
 20
8552267.00
  0
VERTEX
  8
0ALV_ROD
 10
645515.38
 20
8552203.00
  0
VERTEX
  8
0ALV_ROD
 10
645579.31
 20
8552172.00
  0
VERTEX
  8
0ALV_ROD
 10
645611.63
 20
8552108.00
  0
VERTEX
  8
0ALV_ROD
 10
645675.31
 20
8552109.00
  0
VERTEX
  8
0ALV_ROD
 10
645707.69
 20
8552045.00
  0
VERTEX
  8
0ALV_ROD
 10
645771.63
 20
8552013.00
  0
VERTEX
  8
0ALV_ROD
 10
645867.88
 20
8551918.00
  0
VERTEX
  8
0ALV_ROD
 10
645900.25
 20
8551855.00
  0
VERTEX
  8
0ALV_ROD
 10
645964.19
 20
8551823.00
  0
VERTEX
  8
0ALV_ROD
 10
646028.38
 20
8551760.00
  0
VERTEX
  8
0ALV_ROD
 10
646124.63
 20
8551665.00
  0
VERTEX
  8
0ALV_ROD
 10
646188.56
 20
8551633.00
  0
VERTEX
  8
0ALV_ROD
 10
646220.94
 20
8551569.00
  0
VERTEX
  8
0ALV_ROD
 10
646284.88
 20
8551538.00
  0
VERTEX
  8
0ALV_ROD
 10
646349.06
 20
8551474.00
  0
VERTEX
  8
0ALV_ROD
 10
646413.00
 20
8551443.00
  0
VERTEX
  8
0ALV_ROD
 10
646476.94
 20
8551412.00
  0
VERTEX
  8
0ALV_ROD
 10
646541.13
 20
8551348.00
  0
VERTEX
  8
0ALV_ROD
 10
646605.06
 20
8551317.00
  0
VERTEX
  8
0ALV_ROD
 10
646669.00
 20
8551285.00
  0
VERTEX
  8
0ALV_ROD
 10
646733.19
 20
8551222.00
  0
VERTEX
  8
0ALV_ROD
 10
646829.00
 20
8551190.00
  0
VERTEX
  8
0ALV_ROD
 10
646861.38
 20
8551127.00
  0
VERTEX
  8
0ALV_ROD
 10
646957.13
 20
8551096.00
  0
VERTEX
  8
0ALV_ROD
 10
647021.31
 20
8551032.00
  0
VERTEX
  8
0ALV_ROD
 10
647117.38
 20
8550969.00
  0
VERTEX
  8
0ALV_ROD
 10
647181.56
 20
8550906.00
  0
VERTEX
  8
0ALV_ROD
 10
647245.50
 20
8550874.00
  0
VERTEX
  8
0ALV_ROD
 10
647309.94
 20
8550779.00
  0
VERTEX
  8
0ALV_ROD
 10
647373.88
 20
8550747.00
  0
VERTEX
  8
0ALV_ROD
 10
647437.81
 20
8550716.00
  0
VERTEX
  8
0ALV_ROD
 10
647502.00
 20
8550652.00
  0
VERTEX
  8
0ALV_ROD
 10
647566.00
 20
8550621.00
  0
VERTEX
  8
0ALV_ROD
 10
647598.31
 20
8550557.00
  0
VERTEX
  8
0ALV_ROD
 10
647694.13
 20
8550526.00
  0
VERTEX
  8
0ALV_ROD
 10
647790.13
 20
8550463.00
  0
VERTEX
  8
0ALV_ROD
 10
647886.19
 20
8550400.00
  0
VERTEX
  8
0ALV_ROD
 10
647950.13
 20
8550368.00
  0
VERTEX
  8
0ALV_ROD
 10
647982.44
 20
8550304.00
  0
VERTEX
  8
0ALV_ROD
 10
648046.44
 20
8550273.00
  0
VERTEX
  8
0ALV_ROD
 10
648078.75
 20
8550209.00
  0
VERTEX
  8
0ALV_ROD
 10
648174.56
 20
8550178.00
  0
VERTEX
  8
0ALV_ROD
 10
648206.88
 20
8550114.00
  0
VERTEX
  8
0ALV_ROD
 10
648271.06
 20
8550051.00
  0
VERTEX
  8
0ALV_ROD
 10
648334.81
 20
8550051.00
  0
VERTEX
  8
0ALV_ROD
 10
648335.25
 20
8549988.00
  0
VERTEX
  8
0ALV_ROD
 10
648399.19
 20
8549956.00
  0
VERTEX
  8
0ALV_ROD
 10
648463.13
 20
8549925.00
  0
VERTEX
  8
0ALV_ROD
 10
648495.50
 20
8549861.00
  0
VERTEX
  8
0ALV_ROD
 10
648559.19
 20
8549861.00
  0
VERTEX
  8
0ALV_ROD
 10
648591.50
 20
8549798.00
  0
VERTEX
  8
0ALV_ROD
 10
648655.50
 20
8549766.00
  0
VERTEX
  8
0ALV_ROD
 10
648719.44
 20
8549735.00
  0
VERTEX
  8
0ALV_ROD
 10
648783.38
 20
8549703.00
  0
VERTEX
  8
0ALV_ROD
 10
648847.56
 20
8549640.00
  0
VERTEX
  8
0ALV_ROD
 10
648911.50
 20
8549608.00
  0
VERTEX
  8
0ALV_ROD
 10
648975.69
 20
8549545.00
  0
VERTEX
  8
0ALV_ROD
 10
649039.88
 20
8549482.00
  0
VERTEX
  8
0ALV_ROD
 10
649135.69
 20
8549450.00
  0
VERTEX
  8
0ALV_ROD
 10
649168.00
 20
8549387.00
  0
VERTEX
  8
0ALV_ROD
 10
649263.81
 20
8549355.00
  0
VERTEX
  8
0ALV_ROD
 10
649327.56
 20
8549356.00
  0
VERTEX
  8
0ALV_ROD
 10
649391.69
 20
8549292.00
  0
VERTEX
  8
0ALV_ROD
 10
649455.88
 20
8549229.00
  0
VERTEX
  8
0ALV_ROD
 10
649551.69
 20
8549198.00
  0
VERTEX
  8
0ALV_ROD
 10
649615.88
 20
8549134.00
  0
VERTEX
  8
0ALV_ROD
 10
649616.38
 20
8549070.00
  0
VERTEX
  8
0ALV_ROD
 10
649680.31
 20
8549039.00
  0
VERTEX
  8
0ALV_ROD
 10
649712.63
 20
8548975.00
  0
VERTEX
  8
0ALV_ROD
 10
649807.19
 20
8548908.00
  0
SEQEND
  8
0ALV_ROD
  0
LINE
  8
0ALV_ROD
 10
649807.19
 20
8548908.00
 11
649714.69
 21
8548947.00
  0
LINE
  8
0ALV_ROD
 10
649872.63
 20
8548881.00
 11
649807.19
 21
8548908.00
  0
POLYLINE
  8
0ALV_ROD
 66
     1
  0
VERTEX
  8
0ALV_ROD
 10
649714.69
 20
8548947.00
  0
VERTEX
  8
0ALV_ROD
 10
649745.19
 20
8548880.00
  0
VERTEX
  8
0ALV_ROD
 10
649841.00
 20
8548848.00
  0
VERTEX
  8
0ALV_ROD
 10
649905.19
 20
8548785.00
  0
VERTEX
  8
0ALV_ROD
 10
650001.00
 20
8548754.00
  0
VERTEX
  8
0ALV_ROD
 10
650065.19
 20
8548690.00
  0
VERTEX
  8
0ALV_ROD
 10
650129.38
 20
8548627.00
  0
VERTEX
  8
0ALV_ROD
 10
650225.19
 20
8548596.00
  0
VERTEX
  8
0ALV_ROD
 10
650257.50
 20
8548532.00
  0
VERTEX
  8
0ALV_ROD
 10
650353.06
 20
8548533.00
  0
VERTEX
  8
0ALV_ROD
 10
650417.25
 20
8548469.00
  0
VERTEX
  8
0ALV_ROD
 10
650481.19
 20
8548438.00
  0
VERTEX
  8
0ALV_ROD
 10
650545.38
 20
8548374.00
  0
VERTEX
  8
0ALV_ROD
 10
650609.56
 20
8548311.00
  0
VERTEX
  8
0ALV_ROD
 10
650673.50
 20
8548280.00
  0
VERTEX
  8
0ALV_ROD
 10
650705.88
 20
8548216.00
  0
VERTEX
  8
0ALV_ROD
 10
650770.06
 20
8548152.00
  0
VERTEX
  8
0ALV_ROD
 10
650770.50
 20
8548089.00
  0
VERTEX
  8
0ALV_ROD
 10
650834.25
 20
8548089.00
  0
VERTEX
  8
0ALV_ROD
 10
650866.56
 20
8548025.00
  0
VERTEX
  8
0ALV_ROD
 10
650898.88
 20
8547962.00
  0
VERTEX
  8
0ALV_ROD
 10
650963.06
 20
8547898.00
  0
VERTEX
  8
0ALV_ROD
 10
651059.13
 20
8547835.00
  0
VERTEX
  8
0ALV_ROD
 10
651091.44
 20
8547771.00
  0
VERTEX
  8
0ALV_ROD
 10
651155.38
 20
8547740.00
  0
VERTEX
  8
0ALV_ROD
 10
651187.75
 20
8547676.00
  0
VERTEX
  8
0ALV_ROD
 10
651251.94
 20
8547613.00
  0
VERTEX
  8
0ALV_ROD
 10
651315.63
 20
8547613.00
  0
VERTEX
  8
0ALV_ROD
 10
651347.94
 20
8547550.00
  0
VERTEX
  8
0ALV_ROD
 10
651411.69
 20
8547550.00
  0
VERTEX
  8
0ALV_ROD
 10
651444.00
 20
8547486.00
  0
VERTEX
  8
0ALV_ROD
 10
651507.94
 20
8547455.00
  0
VERTEX
  8
0ALV_ROD
 10
651603.75
 20
8547424.00
  0
VERTEX
  8
0ALV_ROD
 10
651667.69
 20
8547392.00
  0
VERTEX
  8
0ALV_ROD
 10
651763.75
 20
8547329.00
  0
VERTEX
  8
0ALV_ROD
 10
651859.56
 20
8547298.00
  0
VERTEX
  8
0ALV_ROD
 10
651923.75
 20
8547234.00
  0
VERTEX
  8
0ALV_ROD
 10
652019.56
 20
8547203.00
  0
VERTEX
  8
0ALV_ROD
 10
652051.88
 20
8547140.00
  0
VERTEX
  8
0ALV_ROD
 10
652115.81
 20
8547108.00
  0
VERTEX
  8
0ALV_ROD
 10
652180.00
 20
8547045.00
  0
VERTEX
  8
0ALV_ROD
 10
652243.94
 20
8547013.00
  0
VERTEX
  8
0ALV_ROD
 10
652372.06
 20
8546918.00
  0
VERTEX
  8
0ALV_ROD
 10
652436.50
 20
8546823.00
  0
VERTEX
  8
0ALV_ROD
 10
652500.19
 20
8546823.00
  0
VERTEX
  8
0ALV_ROD
 10
652564.38
 20
8546760.00
  0
VERTEX
  8
0ALV_ROD
 10
652628.56
 20
8546696.00
  0
VERTEX
  8
0ALV_ROD
 10
652692.75
 20
8546633.00
  0
VERTEX
  8
0ALV_ROD
 10
652756.75
 20
8546602.00
  0
VERTEX
  8
0ALV_ROD
 10
652820.44
 20
8546602.00
  0
VERTEX
  8
0ALV_ROD
 10
652852.75
 20
8546538.00
  0
VERTEX
  8
0ALV_ROD
 10
652948.81
 20
8546475.00
  0
VERTEX
  8
0ALV_ROD
 10
653012.75
 20
8546444.00
  0
VERTEX
  8
0ALV_ROD
 10
653076.69
 20
8546412.00
  0
VERTEX
  8
0ALV_ROD
 10
653140.88
 20
8546349.00
  0
VERTEX
  8
0ALV_ROD
 10
653204.81
 20
8546317.00
  0
VERTEX
  8
0ALV_ROD
 10
653237.19
 20
8546254.00
  0
VERTEX
  8
0ALV_ROD
 10
653300.88
 20
8546254.00
  0
VERTEX
  8
0ALV_ROD
 10
653333.19
 20
8546190.00
  0
VERTEX
  8
0ALV_ROD
 10
653397.38
 20
8546127.00
  0
VERTEX
  8
0ALV_ROD
 10
653493.44
 20
8546064.00
  0
VERTEX
  8
0ALV_ROD
 10
653525.75
 20
8546000.00
  0
VERTEX
  8
0ALV_ROD
 10
653589.94
 20
8545937.00
  0
VERTEX
  8
0ALV_ROD
 10
653653.88
 20
8545905.00
  0
VERTEX
  8
0ALV_ROD
 10
653686.25
 20
8545842.00
  0
VERTEX
  8
0ALV_ROD
 10
653718.56
 20
8545778.00
  0
VERTEX
  8
0ALV_ROD
 10
653782.50
 20
8545747.00
  0
VERTEX
  8
0ALV_ROD
 10
653814.81
 20
8545683.00
  0
VERTEX
  8
0ALV_ROD
 10
653878.81
 20
8545651.00
  0
VERTEX
  8
0ALV_ROD
 10
653911.13
 20
8545588.00
  0
VERTEX
  8
0ALV_ROD
 10
653974.81
 20
8545588.00
  0
VERTEX
  8
0ALV_ROD
 10
653975.31
 20
8545524.00
  0
VERTEX
  8
0ALV_ROD
 10
654039.25
 20
8545493.00
  0
VERTEX
  8
0ALV_ROD
 10
654102.94
 20
8545493.00
  0
VERTEX
  8
0ALV_ROD
 10
654167.38
 20
8545398.00
  0
VERTEX
  8
0ALV_ROD
 10
654231.56
 20
8545334.00
  0
VERTEX
  8
0ALV_ROD
 10
654327.63
 20
8545271.00
  0
VERTEX
  8
0ALV_ROD
 10
654391.56
 20
8545240.00
  0
VERTEX
  8
0ALV_ROD
 10
654423.88
 20
8545176.00
  0
VERTEX
  8
0ALV_ROD
 10
654519.94
 20
8545113.00
  0
VERTEX
  8
0ALV_ROD
 10
654583.88
 20
8545081.00
  0
VERTEX
  8
0ALV_ROD
 10
654616.19
 20
8545018.00
  0
VERTEX
  8
0ALV_ROD
 10
654679.94
 20
8545018.00
  0
VERTEX
  8
0ALV_ROD
 10
654712.25
 20
8544955.00
  0
VERTEX
  8
0ALV_ROD
 10
654808.06
 20
8544923.00
  0
VERTEX
  8
0ALV_ROD
 10
654872.00
 20
8544892.00
  0
VERTEX
  8
0ALV_ROD
 10
654936.19
 20
8544828.00
  0
VERTEX
  8
0ALV_ROD
 10
655000.38
 20
8544765.00
  0
VERTEX
  8
0ALV_ROD
 10
655096.44
 20
8544702.00
  0
VERTEX
  8
0ALV_ROD
 10
655160.13
 20
8544702.00
  0
VERTEX
  8
0ALV_ROD
 10
655192.44
 20
8544639.00
  0
VERTEX
  8
0ALV_ROD
 10
655288.25
 20
8544607.00
  0
VERTEX
  8
0ALV_ROD
 10
655352.69
 20
8544512.00
  0
VERTEX
  8
0ALV_ROD
 10
655416.63
 20
8544481.00
  0
VERTEX
  8
0ALV_ROD
 10
655480.81
 20
8544417.00
  0
VERTEX
  8
0ALV_ROD
 10
655544.75
 20
8544386.00
  0
VERTEX
  8
0ALV_ROD
 10
655577.13
 20
8544322.00
  0
VERTEX
  8
0ALV_ROD
 10
655641.06
 20
8544291.00
  0
VERTEX
  8
0ALV_ROD
 10
655705.25
 20
8544227.00
  0
VERTEX
  8
0ALV_ROD
 10
655769.44
 20
8544164.00
  0
VERTEX
  8
0ALV_ROD
 10
655833.63
 20
8544100.00
  0
VERTEX
  8
0ALV_ROD
 10
655865.94
 20
8544037.00
  0
VERTEX
  8
0ALV_ROD
 10
655930.13
 20
8543973.00
  0
VERTEX
  8
0ALV_ROD
 10
655994.31
 20
8543910.00
  0
VERTEX
  8
0ALV_ROD
 10
656026.63
 20
8543846.00
  0
VERTEX
  8
0ALV_ROD
 10
656091.06
 20
8543751.00
  0
VERTEX
  8
0ALV_ROD
 10
656123.38
 20
8543687.00
  0
VERTEX
  8
0ALV_ROD
 10
656155.69
 20
8543623.00
  0
VERTEX
  8
0ALV_ROD
 10
656219.88
 20
8543560.00
  0
VERTEX
  8
0ALV_ROD
 10
656220.38
 20
8543496.00
  0
SEQEND
  8
0ALV_ROD
  0
POLYLINE
  8
0ALV_ROD
 66
     1
  0
VERTEX
  8
0ALV_ROD
 10
785906.38
 20
8536086.00
  0
VERTEX
  8
0ALV_ROD
 10
785880.06
 20
8536156.00
  0
VERTEX
  8
0ALV_ROD
 10
785853.69
 20
8536226.00
  0
VERTEX
  8
0ALV_ROD
 10
785826.81
 20
8536319.00
  0
VERTEX
  8
0ALV_ROD
 10
785800.50
 20
8536390.00
  0
VERTEX
  8
0ALV_ROD
 10
785774.13
 20
8536460.00
  0
VERTEX
  8
0ALV_ROD
 10
785723.75
 20
8536483.00
  0
VERTEX
  8
0ALV_ROD
 10
785695.00
 20
8536670.00
  0
VERTEX
  8
0ALV_ROD
 10
785643.75
 20
8536740.00
  0
VERTEX
  8
0ALV_ROD
 10
785592.88
 20
8536786.00
  0
VERTEX
  8
0ALV_ROD
 10
785539.69
 20
8536950.00
  0
VERTEX
  8
0ALV_ROD
 10
785488.44
 20
8537020.00
  0
VERTEX
  8
0ALV_ROD
 10
785412.19
 20
8537090.00
  0
VERTEX
  8
0ALV_ROD
 10
785361.31
 20
8537136.00
  0
VERTEX
  8
0ALV_ROD
 10
785310.94
 20
8537159.00
  0
VERTEX
  8
0ALV_ROD
 10
785160.88
 20
8537181.00
  0
VERTEX
  8
0ALV_ROD
 10
785085.56
 20
8537204.00
  0
VERTEX
  8
0ALV_ROD
 10
784910.50
 20
8537226.00
  0
VERTEX
  8
0ALV_ROD
 10
784735.44
 20
8537248.00
  0
VERTEX
  8
0ALV_ROD
 10
784585.75
 20
8537247.00
  0
VERTEX
  8
0ALV_ROD
 10
784410.69
 20
8537269.00
  0
VERTEX
  8
0ALV_ROD
 10
784260.56
 20
8537292.00
  0
VERTEX
  8
0ALV_ROD
 10
784184.81
 20
8537338.00
  0
VERTEX
  8
0ALV_ROD
 10
784033.75
 20
8537407.00
  0
VERTEX
  8
0ALV_ROD
 10
783881.25
 20
8537546.00
  0
VERTEX
  8
0ALV_ROD
 10
783805.00
 20
8537616.00
  0
VERTEX
  8
0ALV_ROD
 10
783653.94
 20
8537685.00
  0
VERTEX
  8
0ALV_ROD
 10
783601.25
 20
8537825.00
  0
VERTEX
  8
0ALV_ROD
 10
783599.81
 20
8537896.00
  0
VERTEX
  8
0ALV_ROD
 10
783598.38
 20
8537966.00
  0
VERTEX
  8
0ALV_ROD
 10
783596.50
 20
8538060.00
  0
VERTEX
  8
0ALV_ROD
 10
783595.06
 20
8538130.00
  0
VERTEX
  8
0ALV_ROD
 10
783616.69
 20
8538294.00
  0
VERTEX
  8
0ALV_ROD
 10
783637.38
 20
8538505.00
  0
VERTEX
  8
0ALV_ROD
 10
783658.50
 20
8538693.00
  0
VERTEX
  8
0ALV_ROD
 10
783731.94
 20
8538764.00
  0
VERTEX
  8
0ALV_ROD
 10
783803.44
 20
8538928.00
  0
VERTEX
  8
0ALV_ROD
 10
783851.94
 20
8538999.00
  0
VERTEX
  8
0ALV_ROD
 10
783850.50
 20
8539069.00
  0
VERTEX
  8
0ALV_ROD
 10
783998.75
 20
8539141.00
  0
VERTEX
  8
0ALV_ROD
 10
784047.19
 20
8539211.00
  0
VERTEX
  8
0ALV_ROD
 10
784194.00
 20
8539353.00
  0
VERTEX
  8
0ALV_ROD
 10
784267.44
 20
8539424.00
  0
VERTEX
  8
0ALV_ROD
 10
784314.50
 20
8539565.00
  0
VERTEX
  8
0ALV_ROD
 10
784513.06
 20
8539613.00
  0
VERTEX
  8
0ALV_ROD
 10
784658.94
 20
8539802.00
  0
VERTEX
  8
0ALV_ROD
 10
784729.94
 20
8539990.00
  0
VERTEX
  8
0ALV_ROD
 10
784801.00
 20
8540178.00
  0
VERTEX
  8
0ALV_ROD
 10
784847.13
 20
8540366.00
  0
VERTEX
  8
0ALV_ROD
 10
784918.63
 20
8540531.00
  0
VERTEX
  8
0ALV_ROD
 10
784939.75
 20
8540718.00
  0
VERTEX
  8
0ALV_ROD
 10
784936.44
 20
8540882.00
  0
VERTEX
  8
0ALV_ROD
 10
784932.69
 20
8541070.00
  0
VERTEX
  8
0ALV_ROD
 10
784928.88
 20
8541257.00
  0
VERTEX
  8
0ALV_ROD
 10
784925.56
 20
8541421.00
  0
VERTEX
  8
0ALV_ROD
 10
784921.81
 20
8541609.00
  0
VERTEX
  8
0ALV_ROD
 10
784918.50
 20
8541773.00
  0
VERTEX
  8
0ALV_ROD
 10
784889.75
 20
8541960.00
  0
VERTEX
  8
0ALV_ROD
 10
784861.50
 20
8542124.00
  0
VERTEX
  8
0ALV_ROD
 10
784832.75
 20
8542311.00
  0
VERTEX
  8
0ALV_ROD
 10
784804.06
 20
8542498.00
  0
VERTEX
  8
0ALV_ROD
 10
784750.38
 20
8542685.00
  0
VERTEX
  8
0ALV_ROD
 10
784721.63
 20
8542872.00
  0
VERTEX
  8
0ALV_ROD
 10
784639.25
 20
8543247.00
  0
VERTEX
  8
0ALV_ROD
 10
784585.56
 20
8543434.00
  0
VERTEX
  8
0ALV_ROD
 10
784557.31
 20
8543598.00
  0
VERTEX
  8
0ALV_ROD
 10
784479.25
 20
8543761.00
  0
VERTEX
  8
0ALV_ROD
 10
784426.00
 20
8543925.00
  0
VERTEX
  8
0ALV_ROD
 10
784350.25
 20
8543971.00
  0
VERTEX
  8
0ALV_ROD
 10
784272.13
 20
8544134.00
  0
VERTEX
  8
0ALV_ROD
 10
784218.94
 20
8544298.00
  0
VERTEX
  8
0ALV_ROD
 10
784141.25
 20
8544438.00
  0
VERTEX
  8
0ALV_ROD
 10
784065.00
 20
8544508.00
  0
VERTEX
  8
0ALV_ROD
 10
784013.69
 20
8544578.00
  0
VERTEX
  8
0ALV_ROD
 10
783937.44
 20
8544647.00
  0
VERTEX
  8
0ALV_ROD
 10
783859.31
 20
8544811.00
  0
VERTEX
  8
0ALV_ROD
 10
783783.56
 20
8544857.00
  0
VERTEX
  8
0ALV_ROD
 10
783705.44
 20
8545020.00
  0
VERTEX
  8
0ALV_ROD
 10
783654.13
 20
8545090.00
  0
VERTEX
  8
0ALV_ROD
 10
783602.81
 20
8545160.00
  0
VERTEX
  8
0ALV_ROD
 10
783551.94
 20
8545207.00
  0
VERTEX
  8
0ALV_ROD
 10
783498.81
 20
8545370.00
  0
VERTEX
  8
0ALV_ROD
 10
783471.94
 20
8545464.00
  0
VERTEX
  8
0ALV_ROD
 10
783468.63
 20
8545628.00
  0
VERTEX
  8
0ALV_ROD
 10
783465.31
 20
8545792.00
  0
VERTEX
  8
0ALV_ROD
 10
783463.44
 20
8545886.00
  0
VERTEX
  8
0ALV_ROD
 10
783459.63
 20
8546073.00
  0
VERTEX
  8
0ALV_ROD
 10
783456.38
 20
8546237.00
  0
VERTEX
  8
0ALV_ROD
 10
783371.63
 20
8547328.00
  0
SEQEND
  8
0ALV_ROD
  0
TEXT
  8
1ALV_ROD
 10
614681.63
 20
8598290.00
 40
700.00
  1
181
  0
TEXT
  8
1ALV_ROD
 10
618631.19
 20
8624758.00
 40
700.00
  1
181
  0
TEXT
  8
1ALV_ROD
 10
620674.81
 20
8654405.00
 40
700.00
  1
181
  0
TEXT
  8
1ALV_ROD
 10
627741.13
 20
8565842.00
 40
700.00
  1
181
  0
TEXT
  8
1ALV_ROD
 10
636442.31
 20
8558068.00
 40
700.00
  1
181
  0
TEXT
  8
1ALV_ROD
 10
643314.81
 20
8585474.00
 40
700.00
  1
373
  0
TEXT
  8
1ALV_ROD
 10
665146.81
 20
8606719.00
 40
700.00
  1
164
  0
TEXT
  8
1ALV_ROD
 10
666268.19
 20
8596653.00
 40
700.00
  1
373
  0
TEXT
  8
1ALV_ROD
 10
695267.81
 20
8667820.00
 40
700.00
  1
153
  0
TEXT
  8
1ALV_ROD
 10
700957.06
 20
8616916.00
 40
700.00
  1
373
  0
TEXT
  8
1ALV_ROD
 10
707139.44
 20
8618477.00
 40
700.00
  1
373
  0
TEXT
  8
1ALV_ROD
 10
703580.31
 20
8623368.00
 40
700.00
  1
153
  0
TEXT
  8
1ALV_ROD
 10
705531.06
 20
8613635.00
 40
700.00
  1
153
  0
TEXT
  8
1ALV_ROD
 10
767723.50
 20
8661313.00
 40
700.00
  1
450
  0
TEXT
  8
1ALV_ROD
 10
750894.69
 20
8631113.00
 40
700.00
  1
450
  0
TEXT
  8
1ALV_ROD
 10
741451.31
 20
8668626.00
 40
700.00
  1
483
  0
TEXT
  8
1ALV_ROD
 10
746277.44
 20
8628849.00
 40
700.00
  1
450
  0
TEXT
  8
1ALV_ROD
 10
757230.75
 20
8625462.00
 40
700.00
  1
402
  0
TEXT
  8
1ALV_ROD
 10
763210.38
 20
8670565.00
 40
700.00
  1
255
  0
TEXT
  8
1ALV_ROD
 10
761359.63
 20
8583856.00
 40
700.00
  1
402
  0
TEXT
  8
1ALV_ROD
 10
783244.25
 20
8570412.00
 40
700.00
  1
387
  0
TEXT
  8
1ALV_ROD
 10
782554.69
 20
8547777.00
 40
700.00
  1
387
  0
TEXT
  8
1ALV_ROD
 10
776928.50
 20
8655308.00
 40
700.00
  1
280
  0
TEXT
  8
1ALV_ROD
 10
795943.31
 20
8670446.00
 40
700.00
  1
280
  0
TEXT
  8
1ALV_ROD
 10
801895.00
 20
8654989.00
 40
700.00
  1
242
  0
TEXT
  8
1ALV_ROD
 10
813524.88
 20
8607334.00
 40
700.00
  1
387
  0
ENDSEC
  0
EOF
