  0
SECTION
  2
HEADER
  9
$EXTMIN
 10
489254.69           
 20
8446330.00          
  9
$EXTMAX
 10
834680.25           
 20
8675533.00          
  9
$LUPREC
 70
     7
  0
ENDSEC
  0
SECTION
  2
ENTITIES
  0
LINE
  8
0ALV_GRD
 10
520000.00
 20
8673388.00
 11
540000.00
 21
8673333.00
  0
LINE
  8
0ALV_GRD
 10
540000.00
 20
8673333.00
 11
560000.00
 21
8673279.00
  0
LINE
  8
0ALV_GRD
 10
560000.00
 20
8673279.00
 11
580000.00
 21
8673224.00
  0
LINE
  8
0ALV_GRD
 10
580000.00
 20
8673224.00
 11
600000.00
 21
8673170.00
  0
LINE
  8
0ALV_GRD
 10
600000.00
 20
8673170.00
 11
620000.00
 21
8673115.00
  0
LINE
  8
0ALV_GRD
 10
620000.00
 20
8673115.00
 11
640000.00
 21
8673061.00
  0
LINE
  8
0ALV_GRD
 10
640000.00
 20
8673061.00
 11
660000.00
 21
8673006.00
  0
POLYLINE
  8
0ALV_GRD
 66
     1
  0
VERTEX
  8
0ALV_GRD
 10
660000.00
 20
8673006.00
  0
VERTEX
  8
0ALV_GRD
 10
663306.38
 20
8672997.00
  0
VERTEX
  8
0ALV_GRD
 10
680000.00
 20
8672861.00
  0
SEQEND
  8
0ALV_GRD
  0
LINE
  8
0ALV_GRD
 10
680000.00
 20
8672861.00
 11
700000.00
 21
8672698.00
  0
LINE
  8
0ALV_GRD
 10
700000.00
 20
8672698.00
 11
720000.00
 21
8672534.00
  0
LINE
  8
0ALV_GRD
 10
720000.00
 20
8672534.00
 11
740000.00
 21
8672371.00
  0
LINE
  8
0ALV_GRD
 10
740000.00
 20
8672371.00
 11
760000.00
 21
8672207.00
  0
LINE
  8
0ALV_GRD
 10
760000.00
 20
8672207.00
 11
780000.00
 21
8672044.00
  0
LINE
  8
0ALV_GRD
 10
780000.00
 20
8672044.00
 11
800000.00
 21
8671880.00
  0
LINE
  8
0ALV_GRD
 10
800000.00
 20
8671880.00
 11
820000.00
 21
8671717.00
  0
POLYLINE
  8
0ALV_GRD
 66
     1
  0
VERTEX
  8
0ALV_GRD
 10
500000.00
 20
8660000.00
  0
VERTEX
  8
0ALV_GRD
 10
500000.00
 20
8673442.00
  0
VERTEX
  8
0ALV_GRD
 10
520000.00
 20
8673388.00
  0
SEQEND
  8
0ALV_GRD
  0
LINE
  8
0ALV_GRD
 10
520000.00
 20
8660000.00
 11
520000.00
 21
8673388.00
  0
LINE
  8
0ALV_GRD
 10
500000.00
 20
8660000.00
 11
520000.00
 21
8660000.00
  0
LINE
  8
0ALV_GRD
 10
540000.00
 20
8660000.00
 11
540000.00
 21
8673333.00
  0
LINE
  8
0ALV_GRD
 10
520000.00
 20
8660000.00
 11
540000.00
 21
8660000.00
  0
LINE
  8
0ALV_GRD
 10
560000.00
 20
8660000.00
 11
560000.00
 21
8673279.00
  0
LINE
  8
0ALV_GRD
 10
540000.00
 20
8660000.00
 11
560000.00
 21
8660000.00
  0
LINE
  8
0ALV_GRD
 10
580000.00
 20
8660000.00
 11
580000.00
 21
8673224.00
  0
LINE
  8
0ALV_GRD
 10
560000.00
 20
8660000.00
 11
580000.00
 21
8660000.00
  0
LINE
  8
0ALV_GRD
 10
600000.00
 20
8660000.00
 11
600000.00
 21
8673170.00
  0
LINE
  8
0ALV_GRD
 10
580000.00
 20
8660000.00
 11
600000.00
 21
8660000.00
  0
LINE
  8
0ALV_GRD
 10
620000.00
 20
8660000.00
 11
620000.00
 21
8673115.00
  0
LINE
  8
0ALV_GRD
 10
600000.00
 20
8660000.00
 11
620000.00
 21
8660000.00
  0
LINE
  8
0ALV_GRD
 10
640000.00
 20
8660000.00
 11
640000.00
 21
8673061.00
  0
LINE
  8
0ALV_GRD
 10
620000.00
 20
8660000.00
 11
640000.00
 21
8660000.00
  0
LINE
  8
0ALV_GRD
 10
660000.00
 20
8660000.00
 11
660000.00
 21
8673006.00
  0
LINE
  8
0ALV_GRD
 10
640000.00
 20
8660000.00
 11
660000.00
 21
8660000.00
  0
LINE
  8
0ALV_GRD
 10
680000.00
 20
8660000.00
 11
680000.00
 21
8672861.00
  0
LINE
  8
0ALV_GRD
 10
660000.00
 20
8660000.00
 11
680000.00
 21
8660000.00
  0
LINE
  8
0ALV_GRD
 10
700000.00
 20
8660000.00
 11
700000.00
 21
8672698.00
  0
LINE
  8
0ALV_GRD
 10
680000.00
 20
8660000.00
 11
700000.00
 21
8660000.00
  0
LINE
  8
0ALV_GRD
 10
720000.00
 20
8660000.00
 11
720000.00
 21
8672534.00
  0
LINE
  8
0ALV_GRD
 10
700000.00
 20
8660000.00
 11
720000.00
 21
8660000.00
  0
LINE
  8
0ALV_GRD
 10
740000.00
 20
8660000.00
 11
740000.00
 21
8672371.00
  0
LINE
  8
0ALV_GRD
 10
720000.00
 20
8660000.00
 11
740000.00
 21
8660000.00
  0
LINE
  8
0ALV_GRD
 10
760000.00
 20
8660000.00
 11
760000.00
 21
8672207.00
  0
LINE
  8
0ALV_GRD
 10
740000.00
 20
8660000.00
 11
760000.00
 21
8660000.00
  0
LINE
  8
0ALV_GRD
 10
780000.00
 20
8660000.00
 11
780000.00
 21
8672044.00
  0
LINE
  8
0ALV_GRD
 10
760000.00
 20
8660000.00
 11
780000.00
 21
8660000.00
  0
LINE
  8
0ALV_GRD
 10
800000.00
 20
8660000.00
 11
800000.00
 21
8671880.00
  0
LINE
  8
0ALV_GRD
 10
780000.00
 20
8660000.00
 11
800000.00
 21
8660000.00
  0
LINE
  8
0ALV_GRD
 10
820000.00
 20
8660000.00
 11
820000.00
 21
8671717.00
  0
LINE
  8
0ALV_GRD
 10
800000.00
 20
8660000.00
 11
820000.00
 21
8660000.00
  0
POLYLINE
  8
0ALV_GRD
 66
     1
  0
VERTEX
  8
0ALV_GRD
 10
820000.00
 20
8671717.00
  0
VERTEX
  8
0ALV_GRD
 10
826715.81
 20
8671662.00
  0
VERTEX
  8
0ALV_GRD
 10
826583.50
 20
8660000.00
  0
SEQEND
  8
0ALV_GRD
  0
LINE
  8
0ALV_GRD
 10
820000.00
 20
8660000.00
 11
826583.50
 21
8660000.00
  0
LINE
  8
0ALV_GRD
 10
500000.00
 20
8640000.00
 11
500000.00
 21
8660000.00
  0
LINE
  8
0ALV_GRD
 10
520000.00
 20
8640000.00
 11
520000.00
 21
8660000.00
  0
LINE
  8
0ALV_GRD
 10
500000.00
 20
8640000.00
 11
520000.00
 21
8640000.00
  0
LINE
  8
0ALV_GRD
 10
540000.00
 20
8640000.00
 11
540000.00
 21
8660000.00
  0
LINE
  8
0ALV_GRD
 10
520000.00
 20
8640000.00
 11
540000.00
 21
8640000.00
  0
LINE
  8
0ALV_GRD
 10
560000.00
 20
8640000.00
 11
560000.00
 21
8660000.00
  0
LINE
  8
0ALV_GRD
 10
540000.00
 20
8640000.00
 11
560000.00
 21
8640000.00
  0
LINE
  8
0ALV_GRD
 10
580000.00
 20
8640000.00
 11
580000.00
 21
8660000.00
  0
LINE
  8
0ALV_GRD
 10
560000.00
 20
8640000.00
 11
580000.00
 21
8640000.00
  0
LINE
  8
0ALV_GRD
 10
600000.00
 20
8640000.00
 11
600000.00
 21
8660000.00
  0
LINE
  8
0ALV_GRD
 10
580000.00
 20
8640000.00
 11
600000.00
 21
8640000.00
  0
LINE
  8
0ALV_GRD
 10
620000.00
 20
8640000.00
 11
620000.00
 21
8660000.00
  0
LINE
  8
0ALV_GRD
 10
600000.00
 20
8640000.00
 11
620000.00
 21
8640000.00
  0
LINE
  8
0ALV_GRD
 10
640000.00
 20
8640000.00
 11
640000.00
 21
8660000.00
  0
LINE
  8
0ALV_GRD
 10
620000.00
 20
8640000.00
 11
640000.00
 21
8640000.00
  0
LINE
  8
0ALV_GRD
 10
660000.00
 20
8640000.00
 11
660000.00
 21
8660000.00
  0
LINE
  8
0ALV_GRD
 10
640000.00
 20
8640000.00
 11
660000.00
 21
8640000.00
  0
LINE
  8
0ALV_GRD
 10
680000.00
 20
8640000.00
 11
680000.00
 21
8660000.00
  0
LINE
  8
0ALV_GRD
 10
660000.00
 20
8640000.00
 11
680000.00
 21
8640000.00
  0
LINE
  8
0ALV_GRD
 10
700000.00
 20
8640000.00
 11
700000.00
 21
8660000.00
  0
LINE
  8
0ALV_GRD
 10
680000.00
 20
8640000.00
 11
700000.00
 21
8640000.00
  0
LINE
  8
0ALV_GRD
 10
720000.00
 20
8640000.00
 11
720000.00
 21
8660000.00
  0
LINE
  8
0ALV_GRD
 10
700000.00
 20
8640000.00
 11
720000.00
 21
8640000.00
  0
LINE
  8
0ALV_GRD
 10
740000.00
 20
8640000.00
 11
740000.00
 21
8660000.00
  0
LINE
  8
0ALV_GRD
 10
720000.00
 20
8640000.00
 11
740000.00
 21
8640000.00
  0
LINE
  8
0ALV_GRD
 10
760000.00
 20
8640000.00
 11
760000.00
 21
8660000.00
  0
LINE
  8
0ALV_GRD
 10
740000.00
 20
8640000.00
 11
760000.00
 21
8640000.00
  0
LINE
  8
0ALV_GRD
 10
780000.00
 20
8640000.00
 11
780000.00
 21
8660000.00
  0
LINE
  8
0ALV_GRD
 10
760000.00
 20
8640000.00
 11
780000.00
 21
8640000.00
  0
LINE
  8
0ALV_GRD
 10
800000.00
 20
8640000.00
 11
800000.00
 21
8660000.00
  0
LINE
  8
0ALV_GRD
 10
780000.00
 20
8640000.00
 11
800000.00
 21
8640000.00
  0
LINE
  8
0ALV_GRD
 10
820000.00
 20
8640000.00
 11
820000.00
 21
8660000.00
  0
LINE
  8
0ALV_GRD
 10
800000.00
 20
8640000.00
 11
820000.00
 21
8640000.00
  0
LINE
  8
0ALV_GRD
 10
826583.50
 20
8660000.00
 11
826356.63
 21
8640000.00
  0
LINE
  8
0ALV_GRD
 10
820000.00
 20
8640000.00
 11
826356.63
 21
8640000.00
  0
LINE
  8
0ALV_GRD
 10
500000.00
 20
8620000.00
 11
500000.00
 21
8640000.00
  0
LINE
  8
0ALV_GRD
 10
520000.00
 20
8620000.00
 11
520000.00
 21
8640000.00
  0
LINE
  8
0ALV_GRD
 10
500000.00
 20
8620000.00
 11
520000.00
 21
8620000.00
  0
LINE
  8
0ALV_GRD
 10
540000.00
 20
8620000.00
 11
540000.00
 21
8640000.00
  0
LINE
  8
0ALV_GRD
 10
520000.00
 20
8620000.00
 11
540000.00
 21
8620000.00
  0
LINE
  8
0ALV_GRD
 10
560000.00
 20
8620000.00
 11
560000.00
 21
8640000.00
  0
LINE
  8
0ALV_GRD
 10
540000.00
 20
8620000.00
 11
560000.00
 21
8620000.00
  0
LINE
  8
0ALV_GRD
 10
580000.00
 20
8620000.00
 11
580000.00
 21
8640000.00
  0
LINE
  8
0ALV_GRD
 10
560000.00
 20
8620000.00
 11
580000.00
 21
8620000.00
  0
LINE
  8
0ALV_GRD
 10
600000.00
 20
8620000.00
 11
600000.00
 21
8640000.00
  0
LINE
  8
0ALV_GRD
 10
580000.00
 20
8620000.00
 11
600000.00
 21
8620000.00
  0
LINE
  8
0ALV_GRD
 10
620000.00
 20
8620000.00
 11
620000.00
 21
8640000.00
  0
LINE
  8
0ALV_GRD
 10
600000.00
 20
8620000.00
 11
620000.00
 21
8620000.00
  0
LINE
  8
0ALV_GRD
 10
640000.00
 20
8620000.00
 11
640000.00
 21
8640000.00
  0
LINE
  8
0ALV_GRD
 10
620000.00
 20
8620000.00
 11
640000.00
 21
8620000.00
  0
LINE
  8
0ALV_GRD
 10
660000.00
 20
8620000.00
 11
660000.00
 21
8640000.00
  0
LINE
  8
0ALV_GRD
 10
640000.00
 20
8620000.00
 11
660000.00
 21
8620000.00
  0
LINE
  8
0ALV_GRD
 10
680000.00
 20
8620000.00
 11
680000.00
 21
8640000.00
  0
LINE
  8
0ALV_GRD
 10
660000.00
 20
8620000.00
 11
680000.00
 21
8620000.00
  0
LINE
  8
0ALV_GRD
 10
700000.00
 20
8620000.00
 11
700000.00
 21
8640000.00
  0
LINE
  8
0ALV_GRD
 10
680000.00
 20
8620000.00
 11
700000.00
 21
8620000.00
  0
LINE
  8
0ALV_GRD
 10
720000.00
 20
8620000.00
 11
720000.00
 21
8640000.00
  0
LINE
  8
0ALV_GRD
 10
700000.00
 20
8620000.00
 11
720000.00
 21
8620000.00
  0
LINE
  8
0ALV_GRD
 10
740000.00
 20
8620000.00
 11
740000.00
 21
8640000.00
  0
LINE
  8
0ALV_GRD
 10
720000.00
 20
8620000.00
 11
740000.00
 21
8620000.00
  0
LINE
  8
0ALV_GRD
 10
760000.00
 20
8620000.00
 11
760000.00
 21
8640000.00
  0
LINE
  8
0ALV_GRD
 10
740000.00
 20
8620000.00
 11
760000.00
 21
8620000.00
  0
LINE
  8
0ALV_GRD
 10
780000.00
 20
8620000.00
 11
780000.00
 21
8640000.00
  0
LINE
  8
0ALV_GRD
 10
760000.00
 20
8620000.00
 11
780000.00
 21
8620000.00
  0
LINE
  8
0ALV_GRD
 10
800000.00
 20
8620000.00
 11
800000.00
 21
8640000.00
  0
LINE
  8
0ALV_GRD
 10
780000.00
 20
8620000.00
 11
800000.00
 21
8620000.00
  0
LINE
  8
0ALV_GRD
 10
820000.00
 20
8620000.00
 11
820000.00
 21
8640000.00
  0
LINE
  8
0ALV_GRD
 10
800000.00
 20
8620000.00
 11
820000.00
 21
8620000.00
  0
LINE
  8
0ALV_GRD
 10
826356.63
 20
8640000.00
 11
826129.69
 21
8620000.00
  0
LINE
  8
0ALV_GRD
 10
820000.00
 20
8620000.00
 11
826129.69
 21
8620000.00
  0
LINE
  8
0ALV_GRD
 10
500000.00
 20
8600000.00
 11
500000.00
 21
8620000.00
  0
LINE
  8
0ALV_GRD
 10
520000.00
 20
8600000.00
 11
520000.00
 21
8620000.00
  0
LINE
  8
0ALV_GRD
 10
500000.00
 20
8600000.00
 11
520000.00
 21
8600000.00
  0
LINE
  8
0ALV_GRD
 10
540000.00
 20
8600000.00
 11
540000.00
 21
8620000.00
  0
LINE
  8
0ALV_GRD
 10
520000.00
 20
8600000.00
 11
540000.00
 21
8600000.00
  0
LINE
  8
0ALV_GRD
 10
560000.00
 20
8600000.00
 11
560000.00
 21
8620000.00
  0
LINE
  8
0ALV_GRD
 10
540000.00
 20
8600000.00
 11
560000.00
 21
8600000.00
  0
LINE
  8
0ALV_GRD
 10
580000.00
 20
8600000.00
 11
580000.00
 21
8620000.00
  0
LINE
  8
0ALV_GRD
 10
560000.00
 20
8600000.00
 11
580000.00
 21
8600000.00
  0
LINE
  8
0ALV_GRD
 10
600000.00
 20
8600000.00
 11
600000.00
 21
8620000.00
  0
LINE
  8
0ALV_GRD
 10
580000.00
 20
8600000.00
 11
600000.00
 21
8600000.00
  0
LINE
  8
0ALV_GRD
 10
620000.00
 20
8600000.00
 11
620000.00
 21
8620000.00
  0
LINE
  8
0ALV_GRD
 10
600000.00
 20
8600000.00
 11
620000.00
 21
8600000.00
  0
LINE
  8
0ALV_GRD
 10
640000.00
 20
8600000.00
 11
640000.00
 21
8620000.00
  0
LINE
  8
0ALV_GRD
 10
620000.00
 20
8600000.00
 11
640000.00
 21
8600000.00
  0
LINE
  8
0ALV_GRD
 10
660000.00
 20
8600000.00
 11
660000.00
 21
8620000.00
  0
LINE
  8
0ALV_GRD
 10
640000.00
 20
8600000.00
 11
660000.00
 21
8600000.00
  0
LINE
  8
0ALV_GRD
 10
680000.00
 20
8600000.00
 11
680000.00
 21
8620000.00
  0
LINE
  8
0ALV_GRD
 10
660000.00
 20
8600000.00
 11
680000.00
 21
8600000.00
  0
LINE
  8
0ALV_GRD
 10
700000.00
 20
8600000.00
 11
700000.00
 21
8620000.00
  0
LINE
  8
0ALV_GRD
 10
680000.00
 20
8600000.00
 11
700000.00
 21
8600000.00
  0
LINE
  8
0ALV_GRD
 10
720000.00
 20
8600000.00
 11
720000.00
 21
8620000.00
  0
LINE
  8
0ALV_GRD
 10
700000.00
 20
8600000.00
 11
720000.00
 21
8600000.00
  0
LINE
  8
0ALV_GRD
 10
740000.00
 20
8600000.00
 11
740000.00
 21
8620000.00
  0
LINE
  8
0ALV_GRD
 10
720000.00
 20
8600000.00
 11
740000.00
 21
8600000.00
  0
LINE
  8
0ALV_GRD
 10
760000.00
 20
8600000.00
 11
760000.00
 21
8620000.00
  0
LINE
  8
0ALV_GRD
 10
740000.00
 20
8600000.00
 11
760000.00
 21
8600000.00
  0
LINE
  8
0ALV_GRD
 10
780000.00
 20
8600000.00
 11
780000.00
 21
8620000.00
  0
LINE
  8
0ALV_GRD
 10
760000.00
 20
8600000.00
 11
780000.00
 21
8600000.00
  0
LINE
  8
0ALV_GRD
 10
800000.00
 20
8600000.00
 11
800000.00
 21
8620000.00
  0
LINE
  8
0ALV_GRD
 10
780000.00
 20
8600000.00
 11
800000.00
 21
8600000.00
  0
LINE
  8
0ALV_GRD
 10
820000.00
 20
8600000.00
 11
820000.00
 21
8620000.00
  0
LINE
  8
0ALV_GRD
 10
800000.00
 20
8600000.00
 11
820000.00
 21
8600000.00
  0
LINE
  8
0ALV_GRD
 10
826129.69
 20
8620000.00
 11
825902.81
 21
8600000.00
  0
LINE
  8
0ALV_GRD
 10
820000.00
 20
8600000.00
 11
825902.81
 21
8600000.00
  0
LINE
  8
0ALV_GRD
 10
500000.00
 20
8580000.00
 11
500000.00
 21
8600000.00
  0
LINE
  8
0ALV_GRD
 10
520000.00
 20
8580000.00
 11
520000.00
 21
8600000.00
  0
LINE
  8
0ALV_GRD
 10
500000.00
 20
8580000.00
 11
520000.00
 21
8580000.00
  0
LINE
  8
0ALV_GRD
 10
540000.00
 20
8580000.00
 11
540000.00
 21
8600000.00
  0
LINE
  8
0ALV_GRD
 10
520000.00
 20
8580000.00
 11
540000.00
 21
8580000.00
  0
LINE
  8
0ALV_GRD
 10
560000.00
 20
8580000.00
 11
560000.00
 21
8600000.00
  0
LINE
  8
0ALV_GRD
 10
540000.00
 20
8580000.00
 11
560000.00
 21
8580000.00
  0
LINE
  8
0ALV_GRD
 10
580000.00
 20
8580000.00
 11
580000.00
 21
8600000.00
  0
LINE
  8
0ALV_GRD
 10
560000.00
 20
8580000.00
 11
580000.00
 21
8580000.00
  0
LINE
  8
0ALV_GRD
 10
600000.00
 20
8580000.00
 11
600000.00
 21
8600000.00
  0
LINE
  8
0ALV_GRD
 10
580000.00
 20
8580000.00
 11
600000.00
 21
8580000.00
  0
LINE
  8
0ALV_GRD
 10
620000.00
 20
8580000.00
 11
620000.00
 21
8600000.00
  0
LINE
  8
0ALV_GRD
 10
600000.00
 20
8580000.00
 11
620000.00
 21
8580000.00
  0
LINE
  8
0ALV_GRD
 10
640000.00
 20
8580000.00
 11
640000.00
 21
8600000.00
  0
LINE
  8
0ALV_GRD
 10
620000.00
 20
8580000.00
 11
640000.00
 21
8580000.00
  0
LINE
  8
0ALV_GRD
 10
660000.00
 20
8580000.00
 11
660000.00
 21
8600000.00
  0
LINE
  8
0ALV_GRD
 10
640000.00
 20
8580000.00
 11
660000.00
 21
8580000.00
  0
LINE
  8
0ALV_GRD
 10
680000.00
 20
8580000.00
 11
680000.00
 21
8600000.00
  0
LINE
  8
0ALV_GRD
 10
660000.00
 20
8580000.00
 11
680000.00
 21
8580000.00
  0
LINE
  8
0ALV_GRD
 10
700000.00
 20
8580000.00
 11
700000.00
 21
8600000.00
  0
LINE
  8
0ALV_GRD
 10
680000.00
 20
8580000.00
 11
700000.00
 21
8580000.00
  0
LINE
  8
0ALV_GRD
 10
720000.00
 20
8580000.00
 11
720000.00
 21
8600000.00
  0
LINE
  8
0ALV_GRD
 10
700000.00
 20
8580000.00
 11
720000.00
 21
8580000.00
  0
LINE
  8
0ALV_GRD
 10
740000.00
 20
8580000.00
 11
740000.00
 21
8600000.00
  0
LINE
  8
0ALV_GRD
 10
720000.00
 20
8580000.00
 11
740000.00
 21
8580000.00
  0
LINE
  8
0ALV_GRD
 10
760000.00
 20
8580000.00
 11
760000.00
 21
8600000.00
  0
LINE
  8
0ALV_GRD
 10
740000.00
 20
8580000.00
 11
760000.00
 21
8580000.00
  0
LINE
  8
0ALV_GRD
 10
780000.00
 20
8580000.00
 11
780000.00
 21
8600000.00
  0
LINE
  8
0ALV_GRD
 10
760000.00
 20
8580000.00
 11
780000.00
 21
8580000.00
  0
LINE
  8
0ALV_GRD
 10
800000.00
 20
8580000.00
 11
800000.00
 21
8600000.00
  0
LINE
  8
0ALV_GRD
 10
780000.00
 20
8580000.00
 11
800000.00
 21
8580000.00
  0
LINE
  8
0ALV_GRD
 10
820000.00
 20
8580000.00
 11
820000.00
 21
8600000.00
  0
LINE
  8
0ALV_GRD
 10
800000.00
 20
8580000.00
 11
820000.00
 21
8580000.00
  0
LINE
  8
0ALV_GRD
 10
825902.81
 20
8600000.00
 11
825675.88
 21
8580000.00
  0
LINE
  8
0ALV_GRD
 10
820000.00
 20
8580000.00
 11
825675.88
 21
8580000.00
  0
POLYLINE
  8
0ALV_GRD
 66
     1
  0
VERTEX
  8
0ALV_GRD
 10
500000.00
 20
8560000.00
  0
VERTEX
  8
0ALV_GRD
 10
500000.00
 20
8562859.00
  0
VERTEX
  8
0ALV_GRD
 10
500000.00
 20
8580000.00
  0
SEQEND
  8
0ALV_GRD
  0
LINE
  8
0ALV_GRD
 10
520000.00
 20
8560000.00
 11
520000.00
 21
8580000.00
  0
LINE
  8
0ALV_GRD
 10
500000.00
 20
8560000.00
 11
520000.00
 21
8560000.00
  0
LINE
  8
0ALV_GRD
 10
540000.00
 20
8560000.00
 11
540000.00
 21
8580000.00
  0
LINE
  8
0ALV_GRD
 10
520000.00
 20
8560000.00
 11
540000.00
 21
8560000.00
  0
LINE
  8
0ALV_GRD
 10
560000.00
 20
8560000.00
 11
560000.00
 21
8580000.00
  0
LINE
  8
0ALV_GRD
 10
540000.00
 20
8560000.00
 11
560000.00
 21
8560000.00
  0
LINE
  8
0ALV_GRD
 10
580000.00
 20
8560000.00
 11
580000.00
 21
8580000.00
  0
LINE
  8
0ALV_GRD
 10
560000.00
 20
8560000.00
 11
580000.00
 21
8560000.00
  0
LINE
  8
0ALV_GRD
 10
600000.00
 20
8560000.00
 11
600000.00
 21
8580000.00
  0
LINE
  8
0ALV_GRD
 10
580000.00
 20
8560000.00
 11
600000.00
 21
8560000.00
  0
LINE
  8
0ALV_GRD
 10
620000.00
 20
8560000.00
 11
620000.00
 21
8580000.00
  0
LINE
  8
0ALV_GRD
 10
600000.00
 20
8560000.00
 11
620000.00
 21
8560000.00
  0
LINE
  8
0ALV_GRD
 10
640000.00
 20
8560000.00
 11
640000.00
 21
8580000.00
  0
LINE
  8
0ALV_GRD
 10
620000.00
 20
8560000.00
 11
640000.00
 21
8560000.00
  0
LINE
  8
0ALV_GRD
 10
660000.00
 20
8560000.00
 11
660000.00
 21
8580000.00
  0
LINE
  8
0ALV_GRD
 10
640000.00
 20
8560000.00
 11
660000.00
 21
8560000.00
  0
LINE
  8
0ALV_GRD
 10
680000.00
 20
8560000.00
 11
680000.00
 21
8580000.00
  0
LINE
  8
0ALV_GRD
 10
660000.00
 20
8560000.00
 11
680000.00
 21
8560000.00
  0
LINE
  8
0ALV_GRD
 10
700000.00
 20
8560000.00
 11
700000.00
 21
8580000.00
  0
LINE
  8
0ALV_GRD
 10
680000.00
 20
8560000.00
 11
700000.00
 21
8560000.00
  0
LINE
  8
0ALV_GRD
 10
720000.00
 20
8560000.00
 11
720000.00
 21
8580000.00
  0
LINE
  8
0ALV_GRD
 10
700000.00
 20
8560000.00
 11
720000.00
 21
8560000.00
  0
LINE
  8
0ALV_GRD
 10
740000.00
 20
8560000.00
 11
740000.00
 21
8580000.00
  0
LINE
  8
0ALV_GRD
 10
720000.00
 20
8560000.00
 11
740000.00
 21
8560000.00
  0
LINE
  8
0ALV_GRD
 10
760000.00
 20
8560000.00
 11
760000.00
 21
8580000.00
  0
LINE
  8
0ALV_GRD
 10
740000.00
 20
8560000.00
 11
760000.00
 21
8560000.00
  0
LINE
  8
0ALV_GRD
 10
780000.00
 20
8560000.00
 11
780000.00
 21
8580000.00
  0
LINE
  8
0ALV_GRD
 10
760000.00
 20
8560000.00
 11
780000.00
 21
8560000.00
  0
LINE
  8
0ALV_GRD
 10
800000.00
 20
8560000.00
 11
800000.00
 21
8580000.00
  0
LINE
  8
0ALV_GRD
 10
780000.00
 20
8560000.00
 11
800000.00
 21
8560000.00
  0
LINE
  8
0ALV_GRD
 10
820000.00
 20
8560000.00
 11
820000.00
 21
8580000.00
  0
LINE
  8
0ALV_GRD
 10
800000.00
 20
8560000.00
 11
820000.00
 21
8560000.00
  0
POLYLINE
  8
0ALV_GRD
 66
     1
  0
VERTEX
  8
0ALV_GRD
 10
825675.88
 20
8580000.00
  0
VERTEX
  8
0ALV_GRD
 10
825457.75
 20
8560772.00
  0
VERTEX
  8
0ALV_GRD
 10
825448.31
 20
8560000.00
  0
SEQEND
  8
0ALV_GRD
  0
LINE
  8
0ALV_GRD
 10
820000.00
 20
8560000.00
 11
825448.31
 21
8560000.00
  0
LINE
  8
0ALV_GRD
 10
500000.00
 20
8540000.00
 11
500000.00
 21
8560000.00
  0
LINE
  8
0ALV_GRD
 10
520000.00
 20
8540000.00
 11
520000.00
 21
8560000.00
  0
LINE
  8
0ALV_GRD
 10
500000.00
 20
8540000.00
 11
520000.00
 21
8540000.00
  0
LINE
  8
0ALV_GRD
 10
540000.00
 20
8540000.00
 11
540000.00
 21
8560000.00
  0
LINE
  8
0ALV_GRD
 10
520000.00
 20
8540000.00
 11
540000.00
 21
8540000.00
  0
LINE
  8
0ALV_GRD
 10
560000.00
 20
8540000.00
 11
560000.00
 21
8560000.00
  0
LINE
  8
0ALV_GRD
 10
540000.00
 20
8540000.00
 11
560000.00
 21
8540000.00
  0
LINE
  8
0ALV_GRD
 10
580000.00
 20
8540000.00
 11
580000.00
 21
8560000.00
  0
LINE
  8
0ALV_GRD
 10
560000.00
 20
8540000.00
 11
580000.00
 21
8540000.00
  0
LINE
  8
0ALV_GRD
 10
600000.00
 20
8540000.00
 11
600000.00
 21
8560000.00
  0
LINE
  8
0ALV_GRD
 10
580000.00
 20
8540000.00
 11
600000.00
 21
8540000.00
  0
LINE
  8
0ALV_GRD
 10
620000.00
 20
8540000.00
 11
620000.00
 21
8560000.00
  0
LINE
  8
0ALV_GRD
 10
600000.00
 20
8540000.00
 11
620000.00
 21
8540000.00
  0
LINE
  8
0ALV_GRD
 10
640000.00
 20
8540000.00
 11
640000.00
 21
8560000.00
  0
LINE
  8
0ALV_GRD
 10
620000.00
 20
8540000.00
 11
640000.00
 21
8540000.00
  0
LINE
  8
0ALV_GRD
 10
660000.00
 20
8540000.00
 11
660000.00
 21
8560000.00
  0
LINE
  8
0ALV_GRD
 10
640000.00
 20
8540000.00
 11
660000.00
 21
8540000.00
  0
LINE
  8
0ALV_GRD
 10
680000.00
 20
8540000.00
 11
680000.00
 21
8560000.00
  0
LINE
  8
0ALV_GRD
 10
660000.00
 20
8540000.00
 11
680000.00
 21
8540000.00
  0
LINE
  8
0ALV_GRD
 10
700000.00
 20
8540000.00
 11
700000.00
 21
8560000.00
  0
LINE
  8
0ALV_GRD
 10
680000.00
 20
8540000.00
 11
700000.00
 21
8540000.00
  0
LINE
  8
0ALV_GRD
 10
720000.00
 20
8540000.00
 11
720000.00
 21
8560000.00
  0
LINE
  8
0ALV_GRD
 10
700000.00
 20
8540000.00
 11
720000.00
 21
8540000.00
  0
LINE
  8
0ALV_GRD
 10
740000.00
 20
8540000.00
 11
740000.00
 21
8560000.00
  0
LINE
  8
0ALV_GRD
 10
720000.00
 20
8540000.00
 11
740000.00
 21
8540000.00
  0
LINE
  8
0ALV_GRD
 10
760000.00
 20
8540000.00
 11
760000.00
 21
8560000.00
  0
LINE
  8
0ALV_GRD
 10
740000.00
 20
8540000.00
 11
760000.00
 21
8540000.00
  0
LINE
  8
0ALV_GRD
 10
780000.00
 20
8540000.00
 11
780000.00
 21
8560000.00
  0
LINE
  8
0ALV_GRD
 10
760000.00
 20
8540000.00
 11
780000.00
 21
8540000.00
  0
LINE
  8
0ALV_GRD
 10
800000.00
 20
8540000.00
 11
800000.00
 21
8560000.00
  0
LINE
  8
0ALV_GRD
 10
780000.00
 20
8540000.00
 11
800000.00
 21
8540000.00
  0
LINE
  8
0ALV_GRD
 10
820000.00
 20
8540000.00
 11
820000.00
 21
8560000.00
  0
LINE
  8
0ALV_GRD
 10
800000.00
 20
8540000.00
 11
820000.00
 21
8540000.00
  0
LINE
  8
0ALV_GRD
 10
825448.31
 20
8560000.00
 11
825203.63
 21
8540000.00
  0
LINE
  8
0ALV_GRD
 10
820000.00
 20
8540000.00
 11
825203.63
 21
8540000.00
  0
LINE
  8
0ALV_GRD
 10
500000.00
 20
8520000.00
 11
500000.00
 21
8540000.00
  0
LINE
  8
0ALV_GRD
 10
520000.00
 20
8520000.00
 11
520000.00
 21
8540000.00
  0
LINE
  8
0ALV_GRD
 10
500000.00
 20
8520000.00
 11
520000.00
 21
8520000.00
  0
LINE
  8
0ALV_GRD
 10
540000.00
 20
8520000.00
 11
540000.00
 21
8540000.00
  0
LINE
  8
0ALV_GRD
 10
520000.00
 20
8520000.00
 11
540000.00
 21
8520000.00
  0
LINE
  8
0ALV_GRD
 10
560000.00
 20
8520000.00
 11
560000.00
 21
8540000.00
  0
LINE
  8
0ALV_GRD
 10
540000.00
 20
8520000.00
 11
560000.00
 21
8520000.00
  0
LINE
  8
0ALV_GRD
 10
580000.00
 20
8520000.00
 11
580000.00
 21
8540000.00
  0
LINE
  8
0ALV_GRD
 10
560000.00
 20
8520000.00
 11
580000.00
 21
8520000.00
  0
LINE
  8
0ALV_GRD
 10
600000.00
 20
8520000.00
 11
600000.00
 21
8540000.00
  0
LINE
  8
0ALV_GRD
 10
580000.00
 20
8520000.00
 11
600000.00
 21
8520000.00
  0
LINE
  8
0ALV_GRD
 10
620000.00
 20
8520000.00
 11
620000.00
 21
8540000.00
  0
LINE
  8
0ALV_GRD
 10
600000.00
 20
8520000.00
 11
620000.00
 21
8520000.00
  0
LINE
  8
0ALV_GRD
 10
640000.00
 20
8520000.00
 11
640000.00
 21
8540000.00
  0
LINE
  8
0ALV_GRD
 10
620000.00
 20
8520000.00
 11
640000.00
 21
8520000.00
  0
LINE
  8
0ALV_GRD
 10
660000.00
 20
8520000.00
 11
660000.00
 21
8540000.00
  0
LINE
  8
0ALV_GRD
 10
640000.00
 20
8520000.00
 11
660000.00
 21
8520000.00
  0
LINE
  8
0ALV_GRD
 10
680000.00
 20
8520000.00
 11
680000.00
 21
8540000.00
  0
LINE
  8
0ALV_GRD
 10
660000.00
 20
8520000.00
 11
680000.00
 21
8520000.00
  0
LINE
  8
0ALV_GRD
 10
700000.00
 20
8520000.00
 11
700000.00
 21
8540000.00
  0
LINE
  8
0ALV_GRD
 10
680000.00
 20
8520000.00
 11
700000.00
 21
8520000.00
  0
LINE
  8
0ALV_GRD
 10
720000.00
 20
8520000.00
 11
720000.00
 21
8540000.00
  0
LINE
  8
0ALV_GRD
 10
700000.00
 20
8520000.00
 11
720000.00
 21
8520000.00
  0
LINE
  8
0ALV_GRD
 10
740000.00
 20
8520000.00
 11
740000.00
 21
8540000.00
  0
LINE
  8
0ALV_GRD
 10
720000.00
 20
8520000.00
 11
740000.00
 21
8520000.00
  0
LINE
  8
0ALV_GRD
 10
760000.00
 20
8520000.00
 11
760000.00
 21
8540000.00
  0
LINE
  8
0ALV_GRD
 10
740000.00
 20
8520000.00
 11
760000.00
 21
8520000.00
  0
LINE
  8
0ALV_GRD
 10
780000.00
 20
8520000.00
 11
780000.00
 21
8540000.00
  0
LINE
  8
0ALV_GRD
 10
760000.00
 20
8520000.00
 11
780000.00
 21
8520000.00
  0
LINE
  8
0ALV_GRD
 10
800000.00
 20
8520000.00
 11
800000.00
 21
8540000.00
  0
LINE
  8
0ALV_GRD
 10
780000.00
 20
8520000.00
 11
800000.00
 21
8520000.00
  0
LINE
  8
0ALV_GRD
 10
820000.00
 20
8520000.00
 11
820000.00
 21
8540000.00
  0
LINE
  8
0ALV_GRD
 10
800000.00
 20
8520000.00
 11
820000.00
 21
8520000.00
  0
LINE
  8
0ALV_GRD
 10
825203.63
 20
8540000.00
 11
824958.94
 21
8520000.00
  0
LINE
  8
0ALV_GRD
 10
820000.00
 20
8520000.00
 11
824958.94
 21
8520000.00
  0
LINE
  8
0ALV_GRD
 10
500000.00
 20
8500000.00
 11
500000.00
 21
8520000.00
  0
LINE
  8
0ALV_GRD
 10
520000.00
 20
8500000.00
 11
520000.00
 21
8520000.00
  0
LINE
  8
0ALV_GRD
 10
500000.00
 20
8500000.00
 11
520000.00
 21
8500000.00
  0
LINE
  8
0ALV_GRD
 10
540000.00
 20
8500000.00
 11
540000.00
 21
8520000.00
  0
LINE
  8
0ALV_GRD
 10
520000.00
 20
8500000.00
 11
540000.00
 21
8500000.00
  0
LINE
  8
0ALV_GRD
 10
560000.00
 20
8500000.00
 11
560000.00
 21
8520000.00
  0
LINE
  8
0ALV_GRD
 10
540000.00
 20
8500000.00
 11
560000.00
 21
8500000.00
  0
LINE
  8
0ALV_GRD
 10
580000.00
 20
8500000.00
 11
580000.00
 21
8520000.00
  0
LINE
  8
0ALV_GRD
 10
560000.00
 20
8500000.00
 11
580000.00
 21
8500000.00
  0
LINE
  8
0ALV_GRD
 10
600000.00
 20
8500000.00
 11
600000.00
 21
8520000.00
  0
LINE
  8
0ALV_GRD
 10
580000.00
 20
8500000.00
 11
600000.00
 21
8500000.00
  0
LINE
  8
0ALV_GRD
 10
620000.00
 20
8500000.00
 11
620000.00
 21
8520000.00
  0
LINE
  8
0ALV_GRD
 10
600000.00
 20
8500000.00
 11
620000.00
 21
8500000.00
  0
LINE
  8
0ALV_GRD
 10
640000.00
 20
8500000.00
 11
640000.00
 21
8520000.00
  0
LINE
  8
0ALV_GRD
 10
620000.00
 20
8500000.00
 11
640000.00
 21
8500000.00
  0
LINE
  8
0ALV_GRD
 10
660000.00
 20
8500000.00
 11
660000.00
 21
8520000.00
  0
LINE
  8
0ALV_GRD
 10
640000.00
 20
8500000.00
 11
660000.00
 21
8500000.00
  0
LINE
  8
0ALV_GRD
 10
680000.00
 20
8500000.00
 11
680000.00
 21
8520000.00
  0
LINE
  8
0ALV_GRD
 10
660000.00
 20
8500000.00
 11
680000.00
 21
8500000.00
  0
LINE
  8
0ALV_GRD
 10
700000.00
 20
8500000.00
 11
700000.00
 21
8520000.00
  0
LINE
  8
0ALV_GRD
 10
680000.00
 20
8500000.00
 11
700000.00
 21
8500000.00
  0
LINE
  8
0ALV_GRD
 10
720000.00
 20
8500000.00
 11
720000.00
 21
8520000.00
  0
LINE
  8
0ALV_GRD
 10
700000.00
 20
8500000.00
 11
720000.00
 21
8500000.00
  0
LINE
  8
0ALV_GRD
 10
740000.00
 20
8500000.00
 11
740000.00
 21
8520000.00
  0
LINE
  8
0ALV_GRD
 10
720000.00
 20
8500000.00
 11
740000.00
 21
8500000.00
  0
LINE
  8
0ALV_GRD
 10
760000.00
 20
8500000.00
 11
760000.00
 21
8520000.00
  0
LINE
  8
0ALV_GRD
 10
740000.00
 20
8500000.00
 11
760000.00
 21
8500000.00
  0
LINE
  8
0ALV_GRD
 10
780000.00
 20
8500000.00
 11
780000.00
 21
8520000.00
  0
LINE
  8
0ALV_GRD
 10
760000.00
 20
8500000.00
 11
780000.00
 21
8500000.00
  0
LINE
  8
0ALV_GRD
 10
800000.00
 20
8500000.00
 11
800000.00
 21
8520000.00
  0
LINE
  8
0ALV_GRD
 10
780000.00
 20
8500000.00
 11
800000.00
 21
8500000.00
  0
LINE
  8
0ALV_GRD
 10
820000.00
 20
8500000.00
 11
820000.00
 21
8520000.00
  0
LINE
  8
0ALV_GRD
 10
800000.00
 20
8500000.00
 11
820000.00
 21
8500000.00
  0
LINE
  8
0ALV_GRD
 10
824958.94
 20
8520000.00
 11
824714.25
 21
8500000.00
  0
LINE
  8
0ALV_GRD
 10
820000.00
 20
8500000.00
 11
824714.25
 21
8500000.00
  0
LINE
  8
0ALV_GRD
 10
500000.00
 20
8480000.00
 11
500000.00
 21
8500000.00
  0
LINE
  8
0ALV_GRD
 10
520000.00
 20
8480000.00
 11
520000.00
 21
8500000.00
  0
LINE
  8
0ALV_GRD
 10
500000.00
 20
8480000.00
 11
520000.00
 21
8480000.00
  0
LINE
  8
0ALV_GRD
 10
540000.00
 20
8480000.00
 11
540000.00
 21
8500000.00
  0
LINE
  8
0ALV_GRD
 10
520000.00
 20
8480000.00
 11
540000.00
 21
8480000.00
  0
LINE
  8
0ALV_GRD
 10
560000.00
 20
8480000.00
 11
560000.00
 21
8500000.00
  0
LINE
  8
0ALV_GRD
 10
540000.00
 20
8480000.00
 11
560000.00
 21
8480000.00
  0
LINE
  8
0ALV_GRD
 10
580000.00
 20
8480000.00
 11
580000.00
 21
8500000.00
  0
LINE
  8
0ALV_GRD
 10
560000.00
 20
8480000.00
 11
580000.00
 21
8480000.00
  0
LINE
  8
0ALV_GRD
 10
600000.00
 20
8480000.00
 11
600000.00
 21
8500000.00
  0
LINE
  8
0ALV_GRD
 10
580000.00
 20
8480000.00
 11
600000.00
 21
8480000.00
  0
LINE
  8
0ALV_GRD
 10
620000.00
 20
8480000.00
 11
620000.00
 21
8500000.00
  0
LINE
  8
0ALV_GRD
 10
600000.00
 20
8480000.00
 11
620000.00
 21
8480000.00
  0
LINE
  8
0ALV_GRD
 10
640000.00
 20
8480000.00
 11
640000.00
 21
8500000.00
  0
LINE
  8
0ALV_GRD
 10
620000.00
 20
8480000.00
 11
640000.00
 21
8480000.00
  0
LINE
  8
0ALV_GRD
 10
660000.00
 20
8480000.00
 11
660000.00
 21
8500000.00
  0
LINE
  8
0ALV_GRD
 10
640000.00
 20
8480000.00
 11
660000.00
 21
8480000.00
  0
LINE
  8
0ALV_GRD
 10
680000.00
 20
8480000.00
 11
680000.00
 21
8500000.00
  0
LINE
  8
0ALV_GRD
 10
660000.00
 20
8480000.00
 11
680000.00
 21
8480000.00
  0
LINE
  8
0ALV_GRD
 10
700000.00
 20
8480000.00
 11
700000.00
 21
8500000.00
  0
LINE
  8
0ALV_GRD
 10
680000.00
 20
8480000.00
 11
700000.00
 21
8480000.00
  0
LINE
  8
0ALV_GRD
 10
720000.00
 20
8480000.00
 11
720000.00
 21
8500000.00
  0
LINE
  8
0ALV_GRD
 10
700000.00
 20
8480000.00
 11
720000.00
 21
8480000.00
  0
LINE
  8
0ALV_GRD
 10
740000.00
 20
8480000.00
 11
740000.00
 21
8500000.00
  0
LINE
  8
0ALV_GRD
 10
720000.00
 20
8480000.00
 11
740000.00
 21
8480000.00
  0
LINE
  8
0ALV_GRD
 10
760000.00
 20
8480000.00
 11
760000.00
 21
8500000.00
  0
LINE
  8
0ALV_GRD
 10
740000.00
 20
8480000.00
 11
760000.00
 21
8480000.00
  0
LINE
  8
0ALV_GRD
 10
780000.00
 20
8480000.00
 11
780000.00
 21
8500000.00
  0
LINE
  8
0ALV_GRD
 10
760000.00
 20
8480000.00
 11
780000.00
 21
8480000.00
  0
LINE
  8
0ALV_GRD
 10
800000.00
 20
8480000.00
 11
800000.00
 21
8500000.00
  0
LINE
  8
0ALV_GRD
 10
780000.00
 20
8480000.00
 11
800000.00
 21
8480000.00
  0
LINE
  8
0ALV_GRD
 10
820000.00
 20
8480000.00
 11
820000.00
 21
8500000.00
  0
LINE
  8
0ALV_GRD
 10
800000.00
 20
8480000.00
 11
820000.00
 21
8480000.00
  0
LINE
  8
0ALV_GRD
 10
824714.25
 20
8500000.00
 11
824469.56
 21
8480000.00
  0
LINE
  8
0ALV_GRD
 10
820000.00
 20
8480000.00
 11
824469.56
 21
8480000.00
  0
LINE
  8
0ALV_GRD
 10
500000.00
 20
8460000.00
 11
500000.00
 21
8480000.00
  0
LINE
  8
0ALV_GRD
 10
520000.00
 20
8460000.00
 11
520000.00
 21
8480000.00
  0
LINE
  8
0ALV_GRD
 10
500000.00
 20
8460000.00
 11
520000.00
 21
8460000.00
  0
LINE
  8
0ALV_GRD
 10
540000.00
 20
8460000.00
 11
540000.00
 21
8480000.00
  0
LINE
  8
0ALV_GRD
 10
520000.00
 20
8460000.00
 11
540000.00
 21
8460000.00
  0
LINE
  8
0ALV_GRD
 10
560000.00
 20
8460000.00
 11
560000.00
 21
8480000.00
  0
LINE
  8
0ALV_GRD
 10
540000.00
 20
8460000.00
 11
560000.00
 21
8460000.00
  0
LINE
  8
0ALV_GRD
 10
580000.00
 20
8460000.00
 11
580000.00
 21
8480000.00
  0
LINE
  8
0ALV_GRD
 10
560000.00
 20
8460000.00
 11
580000.00
 21
8460000.00
  0
LINE
  8
0ALV_GRD
 10
600000.00
 20
8460000.00
 11
600000.00
 21
8480000.00
  0
LINE
  8
0ALV_GRD
 10
580000.00
 20
8460000.00
 11
600000.00
 21
8460000.00
  0
LINE
  8
0ALV_GRD
 10
620000.00
 20
8460000.00
 11
620000.00
 21
8480000.00
  0
LINE
  8
0ALV_GRD
 10
600000.00
 20
8460000.00
 11
620000.00
 21
8460000.00
  0
LINE
  8
0ALV_GRD
 10
640000.00
 20
8460000.00
 11
640000.00
 21
8480000.00
  0
LINE
  8
0ALV_GRD
 10
620000.00
 20
8460000.00
 11
640000.00
 21
8460000.00
  0
LINE
  8
0ALV_GRD
 10
660000.00
 20
8460000.00
 11
660000.00
 21
8480000.00
  0
LINE
  8
0ALV_GRD
 10
640000.00
 20
8460000.00
 11
660000.00
 21
8460000.00
  0
LINE
  8
0ALV_GRD
 10
680000.00
 20
8460000.00
 11
680000.00
 21
8480000.00
  0
LINE
  8
0ALV_GRD
 10
660000.00
 20
8460000.00
 11
680000.00
 21
8460000.00
  0
LINE
  8
0ALV_GRD
 10
700000.00
 20
8460000.00
 11
700000.00
 21
8480000.00
  0
LINE
  8
0ALV_GRD
 10
680000.00
 20
8460000.00
 11
700000.00
 21
8460000.00
  0
LINE
  8
0ALV_GRD
 10
720000.00
 20
8460000.00
 11
720000.00
 21
8480000.00
  0
LINE
  8
0ALV_GRD
 10
700000.00
 20
8460000.00
 11
720000.00
 21
8460000.00
  0
LINE
  8
0ALV_GRD
 10
740000.00
 20
8460000.00
 11
740000.00
 21
8480000.00
  0
LINE
  8
0ALV_GRD
 10
720000.00
 20
8460000.00
 11
740000.00
 21
8460000.00
  0
LINE
  8
0ALV_GRD
 10
760000.00
 20
8460000.00
 11
760000.00
 21
8480000.00
  0
LINE
  8
0ALV_GRD
 10
740000.00
 20
8460000.00
 11
760000.00
 21
8460000.00
  0
LINE
  8
0ALV_GRD
 10
780000.00
 20
8460000.00
 11
780000.00
 21
8480000.00
  0
LINE
  8
0ALV_GRD
 10
760000.00
 20
8460000.00
 11
780000.00
 21
8460000.00
  0
LINE
  8
0ALV_GRD
 10
800000.00
 20
8460000.00
 11
800000.00
 21
8480000.00
  0
LINE
  8
0ALV_GRD
 10
780000.00
 20
8460000.00
 11
800000.00
 21
8460000.00
  0
LINE
  8
0ALV_GRD
 10
820000.00
 20
8460000.00
 11
820000.00
 21
8480000.00
  0
LINE
  8
0ALV_GRD
 10
800000.00
 20
8460000.00
 11
820000.00
 21
8460000.00
  0
LINE
  8
0ALV_GRD
 10
820000.00
 20
8460000.00
 11
824224.88
 21
8460000.00
  0
LINE
  8
0ALV_GRD
 10
520000.00
 20
8452205.00
 11
520000.00
 21
8460000.00
  0
POLYLINE
  8
0ALV_GRD
 66
     1
  0
VERTEX
  8
0ALV_GRD
 10
520000.00
 20
8452205.00
  0
VERTEX
  8
0ALV_GRD
 10
500000.00
 20
8452268.00
  0
VERTEX
  8
0ALV_GRD
 10
500000.00
 20
8460000.00
  0
SEQEND
  8
0ALV_GRD
  0
LINE
  8
0ALV_GRD
 10
540000.00
 20
8452142.00
 11
540000.00
 21
8460000.00
  0
LINE
  8
0ALV_GRD
 10
540000.00
 20
8452142.00
 11
520000.00
 21
8452205.00
  0
LINE
  8
0ALV_GRD
 10
560000.00
 20
8452078.00
 11
560000.00
 21
8460000.00
  0
LINE
  8
0ALV_GRD
 10
560000.00
 20
8452078.00
 11
540000.00
 21
8452142.00
  0
LINE
  8
0ALV_GRD
 10
580000.00
 20
8452015.00
 11
580000.00
 21
8460000.00
  0
LINE
  8
0ALV_GRD
 10
580000.00
 20
8452015.00
 11
560000.00
 21
8452078.00
  0
LINE
  8
0ALV_GRD
 10
600000.00
 20
8451952.00
 11
600000.00
 21
8460000.00
  0
LINE
  8
0ALV_GRD
 10
600000.00
 20
8451952.00
 11
580000.00
 21
8452015.00
  0
LINE
  8
0ALV_GRD
 10
620000.00
 20
8451889.00
 11
620000.00
 21
8460000.00
  0
LINE
  8
0ALV_GRD
 10
620000.00
 20
8451889.00
 11
600000.00
 21
8451952.00
  0
LINE
  8
0ALV_GRD
 10
640000.00
 20
8451825.00
 11
640000.00
 21
8460000.00
  0
LINE
  8
0ALV_GRD
 10
640000.00
 20
8451825.00
 11
620000.00
 21
8451889.00
  0
LINE
  8
0ALV_GRD
 10
660000.00
 20
8451762.00
 11
660000.00
 21
8460000.00
  0
LINE
  8
0ALV_GRD
 10
680000.00
 20
8451577.00
 11
680000.00
 21
8460000.00
  0
LINE
  8
0ALV_GRD
 10
700000.00
 20
8451388.00
 11
700000.00
 21
8460000.00
  0
LINE
  8
0ALV_GRD
 10
720000.00
 20
8451198.00
 11
720000.00
 21
8460000.00
  0
LINE
  8
0ALV_GRD
 10
740000.00
 20
8451009.00
 11
740000.00
 21
8460000.00
  0
LINE
  8
0ALV_GRD
 10
760000.00
 20
8450820.00
 11
760000.00
 21
8460000.00
  0
LINE
  8
0ALV_GRD
 10
779999.94
 20
8450623.00
 11
780000.00
 21
8460000.00
  0
POLYLINE
  8
0ALV_GRD
 66
     1
  0
VERTEX
  8
0ALV_GRD
 10
779999.94
 20
8450623.00
  0
VERTEX
  8
0ALV_GRD
 10
644521.75
 20
8451811.00
  0
VERTEX
  8
0ALV_GRD
 10
640000.00
 20
8451825.00
  0
SEQEND
  8
0ALV_GRD
  0
LINE
  8
0ALV_GRD
 10
800000.00
 20
8450448.00
 11
800000.00
 21
8460000.00
  0
LINE
  8
0ALV_GRD
 10
800000.00
 20
8450448.00
 11
779999.94
 21
8450623.00
  0
LINE
  8
0ALV_GRD
 10
820000.00
 20
8450273.00
 11
820000.00
 21
8460000.00
  0
LINE
  8
0ALV_GRD
 10
820000.00
 20
8450273.00
 11
800000.00
 21
8450448.00
  0
LINE
  8
0ALV_GRD
 10
820000.00
 20
8450253.00
 11
820000.00
 21
8450273.00
  0
POLYLINE
  8
0ALV_GRD
 66
     1
  0
VERTEX
  8
0ALV_GRD
 10
824469.56
 20
8480000.00
  0
VERTEX
  8
0ALV_GRD
 10
824258.25
 20
8462726.00
  0
VERTEX
  8
0ALV_GRD
 10
824403.81
 20
8450234.00
  0
SEQEND
  8
0ALV_GRD
  0
LINE
  8
0ALV_GRD
 10
824403.81
 20
8450234.00
 11
820000.00
 21
8450273.00
  0
TEXT
  8
1ALV_GRD
 10
677925.38
 20
8674253.00
 40
1000.00
  1
  680
  0
TEXT
  8
1ALV_GRD
 10
677889.38
 20
8448408.00
 40
1000.00
  1
  680
  0
TEXT
  8
1ALV_GRD
 10
489278.22
 20
8452845.00
 40
1000.00
  1
s -14
  0
TEXT
  8
1ALV_GRD
 10
495365.25
 20
8449626.00
 40
1000.00
  1
o 51
  0
TEXT
  8
1ALV_GRD
 10
491133.53
 20
8459544.00
 40
1000.00
  1
 8460
  0
TEXT
  8
1ALV_GRD
 10
495678.84
 20
8459568.00
 40
1000.00
  1
kmN
  0
TEXT
  8
1ALV_GRD
 10
496499.97
 20
8452834.00
 40
1000.00
  1
00'
  0
TEXT
  8
1ALV_GRD
 10
495454.00
 20
8453560.00
 40
1000.00
  1
o
  0
TEXT
  8
1ALV_GRD
 10
494755.44
 20
8559546.00
 40
1000.00
  1
 8560
  0
TEXT
  8
1ALV_GRD
 10
494755.44
 20
8539546.00
 40
1000.00
  1
 8540
  0
TEXT
  8
1ALV_GRD
 10
494755.44
 20
8519546.00
 40
1000.00
  1
 8520
  0
TEXT
  8
1ALV_GRD
 10
494755.44
 20
8499546.00
 40
1000.00
  1
 8500
  0
TEXT
  8
1ALV_GRD
 10
494755.44
 20
8479546.00
 40
1000.00
  1
 8480
  0
TEXT
  8
1ALV_GRD
 10
490881.06
 20
8659546.00
 40
1000.00
  1
 8660
  0
TEXT
  8
1ALV_GRD
 10
489254.69
 20
8671463.00
 40
1000.00
  1
s -12
  0
TEXT
  8
1ALV_GRD
 10
495170.22
 20
8659510.00
 40
1000.00
  1
kmN
  0
TEXT
  8
1ALV_GRD
 10
495814.19
 20
8674798.00
 40
1000.00
  1
o 51
  0
TEXT
  8
1ALV_GRD
 10
495482.72
 20
8672127.00
 40
1000.00
  1
o
  0
TEXT
  8
1ALV_GRD
 10
496549.78
 20
8671275.00
 40
1000.00
  1
00'
  0
TEXT
  8
1ALV_GRD
 10
494755.44
 20
8639546.00
 40
1000.00
  1
 8640
  0
TEXT
  8
1ALV_GRD
 10
494755.44
 20
8619546.00
 40
1000.00
  1
 8620
  0
TEXT
  8
1ALV_GRD
 10
494755.44
 20
8599546.00
 40
1000.00
  1
 8600
  0
TEXT
  8
1ALV_GRD
 10
494755.44
 20
8579546.00
 40
1000.00
  1
 8580
  0
TEXT
  8
1ALV_GRD
 10
501425.63
 20
8449680.00
 40
1000.00
  1
00'
  0
TEXT
  8
1ALV_GRD
 10
500149.66
 20
8450343.00
 40
1000.00
  1
o
  0
TEXT
  8
1ALV_GRD
 10
502042.94
 20
8674785.00
 40
1000.00
  1
00'
  0
TEXT
  8
1ALV_GRD
 10
500631.25
 20
8675533.00
 40
1000.00
  1
o
  0
TEXT
  8
1ALV_GRD
 10
522014.00
 20
8448323.00
 40
1000.00
  1
kmE
  0
TEXT
  8
1ALV_GRD
 10
517193.03
 20
8448408.00
 40
1000.00
  1
  520
  0
TEXT
  8
1ALV_GRD
 10
520480.78
 20
8674241.00
 40
1000.00
  1
kmE
  0
TEXT
  8
1ALV_GRD
 10
516079.50
 20
8674253.00
 40
1000.00
  1
  520
  0
TEXT
  8
1ALV_GRD
 10
537889.38
 20
8448408.00
 40
1000.00
  1
  540
  0
TEXT
  8
1ALV_GRD
 10
537925.38
 20
8674253.00
 40
1000.00
  1
  540
  0
TEXT
  8
1ALV_GRD
 10
557889.38
 20
8448408.00
 40
1000.00
  1
  560
  0
TEXT
  8
1ALV_GRD
 10
557925.38
 20
8674253.00
 40
1000.00
  1
  560
  0
TEXT
  8
1ALV_GRD
 10
577889.38
 20
8448408.00
 40
1000.00
  1
  580
  0
TEXT
  8
1ALV_GRD
 10
577925.38
 20
8674253.00
 40
1000.00
  1
  580
  0
TEXT
  8
1ALV_GRD
 10
597889.38
 20
8448408.00
 40
1000.00
  1
  600
  0
TEXT
  8
1ALV_GRD
 10
597925.38
 20
8674253.00
 40
1000.00
  1
  600
  0
TEXT
  8
1ALV_GRD
 10
617889.38
 20
8448408.00
 40
1000.00
  1
  620
  0
TEXT
  8
1ALV_GRD
 10
617925.38
 20
8674253.00
 40
1000.00
  1
  620
  0
TEXT
  8
1ALV_GRD
 10
637889.38
 20
8448408.00
 40
1000.00
  1
  640
  0
TEXT
  8
1ALV_GRD
 10
637925.38
 20
8674253.00
 40
1000.00
  1
  640
  0
TEXT
  8
1ALV_GRD
 10
657889.38
 20
8448408.00
 40
1000.00
  1
  660
  0
TEXT
  8
1ALV_GRD
 10
657925.38
 20
8674253.00
 40
1000.00
  1
  660
  0
TEXT
  8
1ALV_GRD
 10
697889.38
 20
8448408.00
 40
1000.00
  1
  700
  0
TEXT
  8
1ALV_GRD
 10
697925.38
 20
8674253.00
 40
1000.00
  1
  700
  0
TEXT
  8
1ALV_GRD
 10
717889.38
 20
8448408.00
 40
1000.00
  1
  720
  0
TEXT
  8
1ALV_GRD
 10
717925.38
 20
8674253.00
 40
1000.00
  1
  720
  0
TEXT
  8
1ALV_GRD
 10
737889.38
 20
8448408.00
 40
1000.00
  1
  740
  0
TEXT
  8
1ALV_GRD
 10
737925.38
 20
8674253.00
 40
1000.00
  1
  740
  0
TEXT
  8
1ALV_GRD
 10
757889.38
 20
8448408.00
 40
1000.00
  1
  760
  0
TEXT
  8
1ALV_GRD
 10
757925.38
 20
8674253.00
 40
1000.00
  1
  760
  0
TEXT
  8
1ALV_GRD
 10
777889.38
 20
8448408.00
 40
1000.00
  1
  780
  0
TEXT
  8
1ALV_GRD
 10
777925.38
 20
8674253.00
 40
1000.00
  1
  780
  0
TEXT
  8
1ALV_GRD
 10
797889.38
 20
8448408.00
 40
1000.00
  1
  800
  0
TEXT
  8
1ALV_GRD
 10
797925.38
 20
8674253.00
 40
1000.00
  1
  800
  0
TEXT
  8
1ALV_GRD
 10
824153.56
 20
8446468.00
 40
1000.00
  1
00'
  0
TEXT
  8
1ALV_GRD
 10
825284.81
 20
8450830.00
 40
1000.00
  1
s -14
  0
TEXT
  8
1ALV_GRD
 10
817638.69
 20
8446330.00
 40
1000.00
  1
o 48
  0
TEXT
  8
1ALV_GRD
 10
816060.00
 20
8448400.00
 40
1000.00
  1
  820
  0
TEXT
  8
1ALV_GRD
 10
822905.94
 20
8447035.00
 40
1000.00
  1
o
  0
TEXT
  8
1ALV_GRD
 10
820318.75
 20
8448372.00
 40
1000.00
  1
kmE
  0
TEXT
  8
1ALV_GRD
 10
815922.50
 20
8674185.00
 40
1000.00
  1
  820
  0
TEXT
  8
1ALV_GRD
 10
821825.06
 20
8672935.00
 40
1000.00
  1
o 48
  0
TEXT
  8
1ALV_GRD
 10
820268.38
 20
8674258.00
 40
1000.00
  1
kmE
  0
TEXT
  8
1ALV_GRD
 10
832660.19
 20
8450836.00
 40
1000.00
  1
00'
  0
TEXT
  8
1ALV_GRD
 10
831469.25
 20
8451574.00
 40
1000.00
  1
o
  0
TEXT
  8
1ALV_GRD
 10
830157.31
 20
8459724.00
 40
1000.00
  1
kmN
  0
TEXT
  8
1ALV_GRD
 10
826943.81
 20
8559724.00
 40
1000.00
  1
 8560
  0
TEXT
  8
1ALV_GRD
 10
826943.81
 20
8539724.00
 40
1000.00
  1
 8540
  0
TEXT
  8
1ALV_GRD
 10
826943.81
 20
8519724.00
 40
1000.00
  1
 8520
  0
TEXT
  8
1ALV_GRD
 10
826943.81
 20
8499724.00
 40
1000.00
  1
 8500
  0
TEXT
  8
1ALV_GRD
 10
826943.81
 20
8479724.00
 40
1000.00
  1
 8480
  0
TEXT
  8
1ALV_GRD
 10
825862.88
 20
8459721.00
 40
1000.00
  1
 8460
  0
TEXT
  8
1ALV_GRD
 10
833522.00
 20
8671101.00
 40
1000.00
  1
o
  0
TEXT
  8
1ALV_GRD
 10
827344.63
 20
8670406.00
 40
1000.00
  1
s -12
  0
TEXT
  8
1ALV_GRD
 10
828425.63
 20
8672955.00
 40
1000.00
  1
00'
  0
TEXT
  8
1ALV_GRD
 10
827112.94
 20
8673573.00
 40
1000.00
  1
o
  0
TEXT
  8
1ALV_GRD
 10
831321.69
 20
8659742.00
 40
1000.00
  1
kmN
  0
TEXT
  8
1ALV_GRD
 10
826943.81
 20
8659724.00
 40
1000.00
  1
 8660
  0
TEXT
  8
1ALV_GRD
 10
826943.81
 20
8639724.00
 40
1000.00
  1
 8640
  0
TEXT
  8
1ALV_GRD
 10
826943.81
 20
8619724.00
 40
1000.00
  1
 8620
  0
TEXT
  8
1ALV_GRD
 10
826943.81
 20
8599724.00
 40
1000.00
  1
 8600
  0
TEXT
  8
1ALV_GRD
 10
826943.81
 20
8579724.00
 40
1000.00
  1
 8580
  0
TEXT
  8
1ALV_GRD
 10
834680.25
 20
8670406.00
 40
1000.00
  1
00'
  0
ENDSEC
  0
EOF
