  0
SECTION
  2
HEADER
  9
$EXTMIN
 10
531724.00           
 20
8527987.00          
  9
$EXTMAX
 10
812506.19           
 20
8673354.00          
  9
$LUPREC
 70
     7
  0
ENDSEC
  0
SECTION
  2
ENTITIES
  0
LINE
  8
0ALV_DRE
 10
533796.25
 20
8673350.00
 11
535157.13
 21
8673354.00
  0
POLYLINE
  8
0ALV_DRE
 66
     1
  0
VERTEX
  8
0ALV_DRE
 10
534958.69
 20
8672592.00
  0
VERTEX
  8
0ALV_DRE
 10
535046.94
 20
8673065.00
  0
VERTEX
  8
0ALV_DRE
 10
535157.13
 20
8673354.00
  0
SEQEND
  8
0ALV_DRE
  0
LINE
  8
0ALV_DRE
 10
768529.69
 20
8672138.00
 11
769267.81
 21
8672132.00
  0
LINE
  8
0ALV_DRE
 10
769267.81
 20
8672132.00
 11
769644.31
 21
8672120.00
  0
POLYLINE
  8
0ALV_DRE
 66
     1
  0
VERTEX
  8
0ALV_DRE
 10
769198.56
 20
8670472.00
  0
VERTEX
  8
0ALV_DRE
 10
769507.13
 20
8671271.00
  0
VERTEX
  8
0ALV_DRE
 10
769644.31
 20
8672120.00
  0
SEQEND
  8
0ALV_DRE
  0
POLYLINE
  8
0ALV_DRE
 66
     1
  0
VERTEX
  8
0ALV_DRE
 10
533796.25
 20
8673350.00
  0
VERTEX
  8
0ALV_DRE
 10
534055.56
 20
8671947.00
  0
VERTEX
  8
0ALV_DRE
 10
534307.13
 20
8670675.00
  0
VERTEX
  8
0ALV_DRE
 10
534178.94
 20
8670241.00
  0
VERTEX
  8
0ALV_DRE
 10
533602.69
 20
8668681.00
  0
VERTEX
  8
0ALV_DRE
 10
533687.56
 20
8668098.00
  0
VERTEX
  8
0ALV_DRE
 10
534410.25
 20
8667288.00
  0
VERTEX
  8
0ALV_DRE
 10
535263.56
 20
8666541.00
  0
VERTEX
  8
0ALV_DRE
 10
535698.06
 20
8665917.00
  0
VERTEX
  8
0ALV_DRE
 10
535806.94
 20
8665485.00
  0
VERTEX
  8
0ALV_DRE
 10
535921.63
 20
8665109.00
  0
VERTEX
  8
0ALV_DRE
 10
535850.13
 20
8664594.00
  0
VERTEX
  8
0ALV_DRE
 10
535572.06
 20
8664190.00
  0
VERTEX
  8
0ALV_DRE
 10
535462.19
 20
8663813.00
  0
VERTEX
  8
0ALV_DRE
 10
535481.88
 20
8662709.00
  0
VERTEX
  8
0ALV_DRE
 10
535238.38
 20
8661778.00
  0
VERTEX
  8
0ALV_DRE
 10
535031.94
 20
8658984.00
  0
VERTEX
  8
0ALV_DRE
 10
535277.44
 20
8657687.00
  0
VERTEX
  8
0ALV_DRE
 10
535179.88
 20
8657341.00
  0
VERTEX
  8
0ALV_DRE
 10
534833.69
 20
8656855.00
  0
VERTEX
  8
0ALV_DRE
 10
534783.50
 20
8655939.00
  0
VERTEX
  8
0ALV_DRE
 10
534819.69
 20
8655167.00
  0
VERTEX
  8
0ALV_DRE
 10
534298.00
 20
8653845.00
  0
VERTEX
  8
0ALV_DRE
 10
533725.38
 20
8652686.00
  0
VERTEX
  8
0ALV_DRE
 10
533795.88
 20
8651438.00
  0
VERTEX
  8
0ALV_DRE
 10
534036.19
 20
8650938.00
  0
VERTEX
  8
0ALV_DRE
 10
534219.00
 20
8649684.00
  0
VERTEX
  8
0ALV_DRE
 10
534678.25
 20
8649098.00
  0
VERTEX
  8
0ALV_DRE
 10
535174.25
 20
8648606.00
  0
VERTEX
  8
0ALV_DRE
 10
536155.06
 20
8648400.00
  0
VERTEX
  8
0ALV_DRE
 10
536676.88
 20
8648743.00
  0
VERTEX
  8
0ALV_DRE
 10
537664.31
 20
8649429.00
  0
VERTEX
  8
0ALV_DRE
 10
538007.94
 20
8649350.00
  0
VERTEX
  8
0ALV_DRE
 10
538523.25
 20
8648776.00
  0
VERTEX
  8
0ALV_DRE
 10
538601.00
 20
8648325.00
  0
VERTEX
  8
0ALV_DRE
 10
538397.19
 20
8648010.00
  0
VERTEX
  8
0ALV_DRE
 10
537846.69
 20
8647284.00
  0
VERTEX
  8
0ALV_DRE
 10
537683.63
 20
8646461.00
  0
VERTEX
  8
0ALV_DRE
 10
537514.25
 20
8645643.00
  0
VERTEX
  8
0ALV_DRE
 10
537866.63
 20
8645176.00
  0
VERTEX
  8
0ALV_DRE
 10
538714.38
 20
8644329.00
  0
VERTEX
  8
0ALV_DRE
 10
539521.06
 20
8644028.00
  0
VERTEX
  8
0ALV_DRE
 10
539854.88
 20
8643541.00
  0
VERTEX
  8
0ALV_DRE
 10
540086.56
 20
8642444.00
  0
VERTEX
  8
0ALV_DRE
 10
539657.63
 20
8642215.00
  0
VERTEX
  8
0ALV_DRE
 10
539247.44
 20
8641980.00
  0
VERTEX
  8
0ALV_DRE
 10
538453.19
 20
8641315.00
  0
VERTEX
  8
0ALV_DRE
 10
538018.31
 20
8641035.00
  0
VERTEX
  8
0ALV_DRE
 10
537673.81
 20
8640292.00
  0
VERTEX
  8
0ALV_DRE
 10
537452.56
 20
8639782.00
  0
VERTEX
  8
0ALV_DRE
 10
537512.94
 20
8639124.00
  0
VERTEX
  8
0ALV_DRE
 10
537990.25
 20
8638638.00
  0
VERTEX
  8
0ALV_DRE
 10
538647.13
 20
8638361.00
  0
VERTEX
  8
0ALV_DRE
 10
538800.94
 20
8637728.00
  0
VERTEX
  8
0ALV_DRE
 10
538659.75
 20
8637375.00
  0
VERTEX
  8
0ALV_DRE
 10
538841.25
 20
8636323.00
  0
VERTEX
  8
0ALV_DRE
 10
538581.88
 20
8635919.00
  0
VERTEX
  8
0ALV_DRE
 10
538193.25
 20
8635238.00
  0
VERTEX
  8
0ALV_DRE
 10
538084.06
 20
8634760.00
  0
VERTEX
  8
0ALV_DRE
 10
538406.25
 20
8634142.00
  0
VERTEX
  8
0ALV_DRE
 10
539323.50
 20
8633157.00
  0
VERTEX
  8
0ALV_DRE
 10
539752.81
 20
8632370.00
  0
VERTEX
  8
0ALV_DRE
 10
539993.13
 20
8631870.00
  0
VERTEX
  8
0ALV_DRE
 10
540016.31
 20
8631186.00
  0
VERTEX
  8
0ALV_DRE
 10
539976.44
 20
8630596.00
  0
VERTEX
  8
0ALV_DRE
 10
540099.88
 20
8629844.00
  0
VERTEX
  8
0ALV_DRE
 10
539718.44
 20
8629025.00
  0
VERTEX
  8
0ALV_DRE
 10
539348.94
 20
8628282.00
  0
VERTEX
  8
0ALV_DRE
 10
539379.63
 20
8627397.00
  0
VERTEX
  8
0ALV_DRE
 10
539669.56
 20
8626941.00
  0
VERTEX
  8
0ALV_DRE
 10
540152.56
 20
8626537.00
  0
VERTEX
  8
0ALV_DRE
 10
540849.56
 20
8624886.00
  0
VERTEX
  8
0ALV_DRE
 10
540471.50
 20
8624500.00
  0
VERTEX
  8
0ALV_DRE
 10
540137.31
 20
8624090.00
  0
VERTEX
  8
0ALV_DRE
 10
539851.81
 20
8623862.00
  0
SEQEND
  8
0ALV_DRE
  0
POLYLINE
  8
0ALV_DRE
 66
     1
  0
VERTEX
  8
0ALV_DRE
 10
534958.69
 20
8672592.00
  0
VERTEX
  8
0ALV_DRE
 10
535467.31
 20
8671663.00
  0
VERTEX
  8
0ALV_DRE
 10
535382.31
 20
8671299.00
  0
VERTEX
  8
0ALV_DRE
 10
534706.31
 20
8669725.00
  0
VERTEX
  8
0ALV_DRE
 10
534487.94
 20
8668775.00
  0
VERTEX
  8
0ALV_DRE
 10
534785.44
 20
8668112.00
  0
VERTEX
  8
0ALV_DRE
 10
535429.75
 20
8666888.00
  0
VERTEX
  8
0ALV_DRE
 10
536166.81
 20
8666743.00
  0
VERTEX
  8
0ALV_DRE
 10
536476.06
 20
8666193.00
  0
VERTEX
  8
0ALV_DRE
 10
536631.69
 20
8665284.00
  0
VERTEX
  8
0ALV_DRE
 10
536510.63
 20
8664712.00
  0
VERTEX
  8
0ALV_DRE
 10
536209.81
 20
8663969.00
  0
VERTEX
  8
0ALV_DRE
 10
536202.94
 20
8663110.00
  0
VERTEX
  8
0ALV_DRE
 10
536085.19
 20
8662023.00
  0
VERTEX
  8
0ALV_DRE
 10
536155.06
 20
8660875.00
  0
VERTEX
  8
0ALV_DRE
 10
536255.56
 20
8659809.00
  0
VERTEX
  8
0ALV_DRE
 10
535917.69
 20
8659003.00
  0
VERTEX
  8
0ALV_DRE
 10
535968.31
 20
8657937.00
  0
VERTEX
  8
0ALV_DRE
 10
535862.75
 20
8655934.00
  0
VERTEX
  8
0ALV_DRE
 10
535397.56
 20
8655523.00
  0
VERTEX
  8
0ALV_DRE
 10
535003.19
 20
8654767.00
  0
VERTEX
  8
0ALV_DRE
 10
534908.44
 20
8652074.00
  0
VERTEX
  8
0ALV_DRE
 10
534385.63
 20
8650928.00
  0
VERTEX
  8
0ALV_DRE
 10
534589.13
 20
8650327.00
  0
VERTEX
  8
0ALV_DRE
 10
535053.56
 20
8649904.00
  0
VERTEX
  8
0ALV_DRE
 10
535466.69
 20
8649688.00
  0
VERTEX
  8
0ALV_DRE
 10
536108.69
 20
8649774.00
  0
VERTEX
  8
0ALV_DRE
 10
536737.25
 20
8650005.00
  0
VERTEX
  8
0ALV_DRE
 10
537517.56
 20
8649929.00
  0
VERTEX
  8
0ALV_DRE
 10
538657.00
 20
8649311.00
  0
VERTEX
  8
0ALV_DRE
 10
538959.56
 20
8648830.00
  0
VERTEX
  8
0ALV_DRE
 10
538946.50
 20
8647964.00
  0
VERTEX
  8
0ALV_DRE
 10
538463.25
 20
8647452.00
  0
VERTEX
  8
0ALV_DRE
 10
538122.81
 20
8647035.00
  0
VERTEX
  8
0ALV_DRE
 10
538009.31
 20
8646262.00
  0
VERTEX
  8
0ALV_DRE
 10
539329.13
 20
8644760.00
  0
VERTEX
  8
0ALV_DRE
 10
539818.06
 20
8644400.00
  0
VERTEX
  8
0ALV_DRE
 10
540236.06
 20
8643443.00
  0
VERTEX
  8
0ALV_DRE
 10
540602.31
 20
8642762.00
  0
VERTEX
  8
0ALV_DRE
 10
540437.75
 20
8642165.00
  0
VERTEX
  8
0ALV_DRE
 10
540047.81
 20
8641691.00
  0
VERTEX
  8
0ALV_DRE
 10
539083.81
 20
8641232.00
  0
VERTEX
  8
0ALV_DRE
 10
538624.56
 20
8640864.00
  0
VERTEX
  8
0ALV_DRE
 10
538267.44
 20
8640146.00
  0
VERTEX
  8
0ALV_DRE
 10
538643.56
 20
8638906.00
  0
VERTEX
  8
0ALV_DRE
 10
539408.00
 20
8637431.00
  0
VERTEX
  8
0ALV_DRE
 10
539467.38
 20
8636936.00
  0
VERTEX
  8
0ALV_DRE
 10
538856.19
 20
8635946.00
  0
VERTEX
  8
0ALV_DRE
 10
538755.06
 20
8635186.00
  0
VERTEX
  8
0ALV_DRE
 10
539368.31
 20
8633936.00
  0
VERTEX
  8
0ALV_DRE
 10
539775.69
 20
8633650.00
  0
VERTEX
  8
0ALV_DRE
 10
540369.94
 20
8632450.00
  0
VERTEX
  8
0ALV_DRE
 10
540840.63
 20
8631055.00
  0
VERTEX
  8
0ALV_DRE
 10
540618.44
 20
8630683.00
  0
VERTEX
  8
0ALV_DRE
 10
540190.69
 20
8629311.00
  0
VERTEX
  8
0ALV_DRE
 10
540319.00
 20
8628766.00
  0
VERTEX
  8
0ALV_DRE
 10
541540.31
 20
8625149.00
  0
VERTEX
  8
0ALV_DRE
 10
540827.94
 20
8623411.00
  0
VERTEX
  8
0ALV_DRE
 10
540631.56
 20
8622914.00
  0
VERTEX
  8
0ALV_DRE
 10
540120.81
 20
8622784.00
  0
VERTEX
  8
0ALV_DRE
 10
539902.56
 20
8622770.00
  0
SEQEND
  8
0ALV_DRE
  0
POLYLINE
  8
0ALV_DRE
 66
     1
  0
VERTEX
  8
0ALV_DRE
 10
768529.69
 20
8672138.00
  0
VERTEX
  8
0ALV_DRE
 10
768421.38
 20
8671430.00
  0
VERTEX
  8
0ALV_DRE
 10
768473.00
 20
8670127.00
  0
VERTEX
  8
0ALV_DRE
 10
768873.69
 20
8668391.00
  0
VERTEX
  8
0ALV_DRE
 10
769239.44
 20
8667368.00
  0
VERTEX
  8
0ALV_DRE
 10
769313.13
 20
8666979.00
  0
VERTEX
  8
0ALV_DRE
 10
769742.81
 20
8666320.00
  0
VERTEX
  8
0ALV_DRE
 10
770435.13
 20
8665584.00
  0
VERTEX
  8
0ALV_DRE
 10
770783.75
 20
8665037.00
  0
VERTEX
  8
0ALV_DRE
 10
770951.00
 20
8664536.00
  0
VERTEX
  8
0ALV_DRE
 10
770784.81
 20
8663585.00
  0
VERTEX
  8
0ALV_DRE
 10
770853.19
 20
8663459.00
  0
VERTEX
  8
0ALV_DRE
 10
770739.38
 20
8663147.00
  0
VERTEX
  8
0ALV_DRE
 10
770571.69
 20
8661789.00
  0
VERTEX
  8
0ALV_DRE
 10
770551.69
 20
8661451.00
  0
VERTEX
  8
0ALV_DRE
 10
771037.00
 20
8660609.00
  0
VERTEX
  8
0ALV_DRE
 10
771771.31
 20
8659353.00
  0
VERTEX
  8
0ALV_DRE
 10
772175.81
 20
8658669.00
  0
VERTEX
  8
0ALV_DRE
 10
773249.00
 20
8657649.00
  0
VERTEX
  8
0ALV_DRE
 10
773815.25
 20
8656669.00
  0
VERTEX
  8
0ALV_DRE
 10
773869.19
 20
8655993.00
  0
VERTEX
  8
0ALV_DRE
 10
774213.50
 20
8654257.00
  0
VERTEX
  8
0ALV_DRE
 10
773998.56
 20
8653682.00
  0
VERTEX
  8
0ALV_DRE
 10
773079.94
 20
8652434.00
  0
VERTEX
  8
0ALV_DRE
 10
772971.69
 20
8651940.00
  0
VERTEX
  8
0ALV_DRE
 10
773259.31
 20
8650104.00
  0
VERTEX
  8
0ALV_DRE
 10
774200.25
 20
8648859.00
  0
VERTEX
  8
0ALV_DRE
 10
774499.88
 20
8648595.00
  0
VERTEX
  8
0ALV_DRE
 10
775631.19
 20
8648063.00
  0
VERTEX
  8
0ALV_DRE
 10
776687.44
 20
8647538.00
  0
VERTEX
  8
0ALV_DRE
 10
778311.63
 20
8646503.00
  0
VERTEX
  8
0ALV_DRE
 10
778899.63
 20
8646369.00
  0
VERTEX
  8
0ALV_DRE
 10
779866.06
 20
8646966.00
  0
VERTEX
  8
0ALV_DRE
 10
781035.19
 20
8646503.00
  0
VERTEX
  8
0ALV_DRE
 10
782648.00
 20
8645794.00
  0
VERTEX
  8
0ALV_DRE
 10
784593.25
 20
8645252.00
  0
VERTEX
  8
0ALV_DRE
 10
785574.63
 20
8644802.00
  0
VERTEX
  8
0ALV_DRE
 10
786525.81
 20
8644654.00
  0
VERTEX
  8
0ALV_DRE
 10
787157.44
 20
8644444.00
  0
VERTEX
  8
0ALV_DRE
 10
788358.88
 20
8644257.00
  0
VERTEX
  8
0ALV_DRE
 10
790133.38
 20
8643234.00
  0
VERTEX
  8
0ALV_DRE
 10
792880.13
 20
8640978.00
  0
VERTEX
  8
0ALV_DRE
 10
794111.63
 20
8640446.00
  0
VERTEX
  8
0ALV_DRE
 10
794698.06
 20
8639855.00
  0
VERTEX
  8
0ALV_DRE
 10
795871.50
 20
8638841.00
  0
VERTEX
  8
0ALV_DRE
 10
795952.25
 20
8638665.00
  0
VERTEX
  8
0ALV_DRE
 10
797481.63
 20
8637381.00
  0
VERTEX
  8
0ALV_DRE
 10
798087.75
 20
8637064.00
  0
VERTEX
  8
0ALV_DRE
 10
798367.81
 20
8636581.00
  0
VERTEX
  8
0ALV_DRE
 10
798390.94
 20
8636055.00
  0
VERTEX
  8
0ALV_DRE
 10
798198.94
 20
8634910.00
  0
VERTEX
  8
0ALV_DRE
 10
797983.38
 20
8634166.00
  0
VERTEX
  8
0ALV_DRE
 10
798037.88
 20
8633652.00
  0
VERTEX
  8
0ALV_DRE
 10
798073.06
 20
8632994.00
  0
VERTEX
  8
0ALV_DRE
 10
798413.75
 20
8631978.00
  0
VERTEX
  8
0ALV_DRE
 10
799355.50
 20
8630947.00
  0
VERTEX
  8
0ALV_DRE
 10
800336.63
 20
8630435.00
  0
VERTEX
  8
0ALV_DRE
 10
800549.06
 20
8630315.00
  0
VERTEX
  8
0ALV_DRE
 10
800884.88
 20
8629674.00
  0
VERTEX
  8
0ALV_DRE
 10
800945.56
 20
8629148.00
  0
VERTEX
  8
0ALV_DRE
 10
800709.69
 20
8627978.00
  0
VERTEX
  8
0ALV_DRE
 10
800457.81
 20
8627585.00
  0
VERTEX
  8
0ALV_DRE
 10
799863.13
 20
8625891.00
  0
VERTEX
  8
0ALV_DRE
 10
798794.63
 20
8624750.00
  0
VERTEX
  8
0ALV_DRE
 10
797325.81
 20
8623724.00
  0
VERTEX
  8
0ALV_DRE
 10
796947.00
 20
8622856.00
  0
VERTEX
  8
0ALV_DRE
 10
796864.31
 20
8622493.00
  0
VERTEX
  8
0ALV_DRE
 10
797031.31
 20
8621929.00
  0
VERTEX
  8
0ALV_DRE
 10
797292.75
 20
8621502.00
  0
VERTEX
  8
0ALV_DRE
 10
798211.31
 20
8620990.00
  0
VERTEX
  8
0ALV_DRE
 10
799781.44
 20
8620607.00
  0
VERTEX
  8
0ALV_DRE
 10
800770.75
 20
8620608.00
  0
VERTEX
  8
0ALV_DRE
 10
801328.13
 20
8620655.00
  0
VERTEX
  8
0ALV_DRE
 10
802629.69
 20
8620449.00
  0
VERTEX
  8
0ALV_DRE
 10
802922.69
 20
8620097.00
  0
VERTEX
  8
0ALV_DRE
 10
803458.44
 20
8619343.00
  0
VERTEX
  8
0ALV_DRE
 10
803237.31
 20
8618799.00
  0
VERTEX
  8
0ALV_DRE
 10
803077.00
 20
8618395.00
  0
SEQEND
  8
0ALV_DRE
  0
POLYLINE
  8
0ALV_DRE
 66
     1
  0
VERTEX
  8
0ALV_DRE
 10
769198.56
 20
8670472.00
  0
VERTEX
  8
0ALV_DRE
 10
769536.06
 20
8668030.00
  0
VERTEX
  8
0ALV_DRE
 10
769891.06
 20
8667490.00
  0
VERTEX
  8
0ALV_DRE
 10
770996.06
 20
8666608.00
  0
VERTEX
  8
0ALV_DRE
 10
771537.44
 20
8665685.00
  0
VERTEX
  8
0ALV_DRE
 10
771625.00
 20
8663925.00
  0
VERTEX
  8
0ALV_DRE
 10
772138.19
 20
8660385.00
  0
VERTEX
  8
0ALV_DRE
 10
772929.88
 20
8659435.00
  0
VERTEX
  8
0ALV_DRE
 10
773509.88
 20
8658794.00
  0
VERTEX
  8
0ALV_DRE
 10
773945.94
 20
8658184.00
  0
VERTEX
  8
0ALV_DRE
 10
774596.75
 20
8656353.00
  0
VERTEX
  8
0ALV_DRE
 10
774628.19
 20
8654655.00
  0
VERTEX
  8
0ALV_DRE
 10
774336.44
 20
8653624.00
  0
VERTEX
  8
0ALV_DRE
 10
774053.31
 20
8653231.00
  0
VERTEX
  8
0ALV_DRE
 10
773850.38
 20
8652524.00
  0
VERTEX
  8
0ALV_DRE
 10
773378.06
 20
8651775.00
  0
VERTEX
  8
0ALV_DRE
 10
773769.63
 20
8650978.00
  0
VERTEX
  8
0ALV_DRE
 10
774222.56
 20
8649836.00
  0
VERTEX
  8
0ALV_DRE
 10
774615.00
 20
8649277.00
  0
VERTEX
  8
0ALV_DRE
 10
775120.81
 20
8648892.00
  0
VERTEX
  8
0ALV_DRE
 10
775977.19
 20
8648519.00
  0
VERTEX
  8
0ALV_DRE
 10
777421.56
 20
8647979.00
  0
VERTEX
  8
0ALV_DRE
 10
778627.56
 20
8647316.00
  0
VERTEX
  8
0ALV_DRE
 10
779146.38
 20
8647063.00
  0
VERTEX
  8
0ALV_DRE
 10
779510.94
 20
8647468.00
  0
VERTEX
  8
0ALV_DRE
 10
779993.38
 20
8647560.00
  0
VERTEX
  8
0ALV_DRE
 10
780593.63
 20
8647331.00
  0
VERTEX
  8
0ALV_DRE
 10
781488.31
 20
8647152.00
  0
VERTEX
  8
0ALV_DRE
 10
781831.94
 20
8646931.00
  0
VERTEX
  8
0ALV_DRE
 10
782782.50
 20
8646632.00
  0
VERTEX
  8
0ALV_DRE
 10
783544.50
 20
8646115.00
  0
VERTEX
  8
0ALV_DRE
 10
784645.31
 20
8645796.00
  0
VERTEX
  8
0ALV_DRE
 10
787724.38
 20
8645406.00
  0
VERTEX
  8
0ALV_DRE
 10
789511.88
 20
8644508.00
  0
VERTEX
  8
0ALV_DRE
 10
790218.00
 20
8644129.00
  0
VERTEX
  8
0ALV_DRE
 10
790910.13
 20
8643342.00
  0
VERTEX
  8
0ALV_DRE
 10
792429.63
 20
8642803.00
  0
VERTEX
  8
0ALV_DRE
 10
792953.63
 20
8642268.00
  0
VERTEX
  8
0ALV_DRE
 10
793252.06
 20
8641690.00
  0
VERTEX
  8
0ALV_DRE
 10
797504.00
 20
8638382.00
  0
VERTEX
  8
0ALV_DRE
 10
797959.88
 20
8638054.00
  0
VERTEX
  8
0ALV_DRE
 10
798153.06
 20
8637797.00
  0
VERTEX
  8
0ALV_DRE
 10
798314.38
 20
8637389.00
  0
VERTEX
  8
0ALV_DRE
 10
798452.50
 20
8637495.00
  0
VERTEX
  8
0ALV_DRE
 10
798820.31
 20
8637055.00
  0
VERTEX
  8
0ALV_DRE
 10
798887.19
 20
8636497.00
  0
VERTEX
  8
0ALV_DRE
 10
798821.13
 20
8635546.00
  0
VERTEX
  8
0ALV_DRE
 10
798612.31
 20
8634945.00
  0
VERTEX
  8
0ALV_DRE
 10
798599.06
 20
8632998.00
  0
VERTEX
  8
0ALV_DRE
 10
798965.00
 20
8632051.00
  0
VERTEX
  8
0ALV_DRE
 10
799501.06
 20
8631384.00
  0
VERTEX
  8
0ALV_DRE
 10
801267.88
 20
8629973.00
  0
VERTEX
  8
0ALV_DRE
 10
801397.44
 20
8629434.00
  0
VERTEX
  8
0ALV_DRE
 10
801400.75
 20
8628626.00
  0
VERTEX
  8
0ALV_DRE
 10
801209.56
 20
8627700.00
  0
VERTEX
  8
0ALV_DRE
 10
800844.50
 20
8627157.00
  0
VERTEX
  8
0ALV_DRE
 10
800629.94
 20
8626701.00
  0
VERTEX
  8
0ALV_DRE
 10
799784.81
 20
8624996.00
  0
VERTEX
  8
0ALV_DRE
 10
798999.50
 20
8624274.00
  0
VERTEX
  8
0ALV_DRE
 10
797398.38
 20
8623010.00
  0
VERTEX
  8
0ALV_DRE
 10
797769.69
 20
8621800.00
  0
VERTEX
  8
0ALV_DRE
 10
798519.50
 20
8621377.00
  0
VERTEX
  8
0ALV_DRE
 10
800120.88
 20
8620962.00
  0
VERTEX
  8
0ALV_DRE
 10
801022.63
 20
8621008.00
  0
VERTEX
  8
0ALV_DRE
 10
802118.94
 20
8621178.00
  0
VERTEX
  8
0ALV_DRE
 10
803150.00
 20
8620621.00
  0
VERTEX
  8
0ALV_DRE
 10
803562.00
 20
8620281.00
  0
VERTEX
  8
0ALV_DRE
 10
803735.63
 20
8619811.00
  0
VERTEX
  8
0ALV_DRE
 10
804038.50
 20
8618732.00
  0
VERTEX
  8
0ALV_DRE
 10
803986.69
 20
8618244.00
  0
VERTEX
  8
0ALV_DRE
 10
803821.56
 20
8618051.00
  0
SEQEND
  8
0ALV_DRE
  0
LINE
  8
0ALV_DRE
 10
803821.56
 20
8618051.00
 11
803505.56
 21
8617759.00
  0
LINE
  8
0ALV_DRE
 10
802908.25
 20
8617819.00
 11
803505.56
 21
8617759.00
  0
POLYLINE
  8
0ALV_DRE
 66
     1
  0
VERTEX
  8
0ALV_DRE
 10
535045.13
 20
8607057.00
  0
VERTEX
  8
0ALV_DRE
 10
535799.44
 20
8607144.00
  0
VERTEX
  8
0ALV_DRE
 10
536036.56
 20
8607127.00
  0
VERTEX
  8
0ALV_DRE
 10
535423.00
 20
8606508.00
  0
VERTEX
  8
0ALV_DRE
 10
535010.69
 20
8606592.00
  0
VERTEX
  8
0ALV_DRE
 10
534827.13
 20
8607005.00
  0
VERTEX
  8
0ALV_DRE
 10
535045.13
 20
8607057.00
  0
SEQEND
  8
0ALV_DRE
  0
POLYLINE
  8
0ALV_DRE
 66
     1
  0
VERTEX
  8
0ALV_DRE
 10
539902.56
 20
8622770.00
  0
VERTEX
  8
0ALV_DRE
 10
539126.94
 20
8623084.00
  0
VERTEX
  8
0ALV_DRE
 10
538788.81
 20
8623282.00
  0
VERTEX
  8
0ALV_DRE
 10
538159.31
 20
8623183.00
  0
VERTEX
  8
0ALV_DRE
 10
537755.75
 20
8622885.00
  0
VERTEX
  8
0ALV_DRE
 10
537721.69
 20
8622370.00
  0
VERTEX
  8
0ALV_DRE
 10
538627.13
 20
8620319.00
  0
VERTEX
  8
0ALV_DRE
 10
538416.94
 20
8620029.00
  0
VERTEX
  8
0ALV_DRE
 10
538213.13
 20
8619707.00
  0
VERTEX
  8
0ALV_DRE
 10
537780.19
 20
8619127.00
  0
VERTEX
  8
0ALV_DRE
 10
537570.81
 20
8618711.00
  0
VERTEX
  8
0ALV_DRE
 10
536943.88
 20
8616309.00
  0
VERTEX
  8
0ALV_DRE
 10
536967.19
 20
8614640.00
  0
VERTEX
  8
0ALV_DRE
 10
536358.00
 20
8613342.00
  0
VERTEX
  8
0ALV_DRE
 10
536168.94
 20
8612682.00
  0
VERTEX
  8
0ALV_DRE
 10
535262.19
 20
8612054.00
  0
VERTEX
  8
0ALV_DRE
 10
534484.06
 20
8610836.00
  0
VERTEX
  8
0ALV_DRE
 10
534682.25
 20
8610097.00
  0
VERTEX
  8
0ALV_DRE
 10
535189.31
 20
8609832.00
  0
VERTEX
  8
0ALV_DRE
 10
535739.25
 20
8609679.00
  0
VERTEX
  8
0ALV_DRE
 10
536147.88
 20
8609199.00
  0
VERTEX
  8
0ALV_DRE
 10
536275.50
 20
8608761.00
  0
VERTEX
  8
0ALV_DRE
 10
536309.63
 20
8607355.00
  0
VERTEX
  8
0ALV_DRE
 10
536056.69
 20
8606914.00
  0
VERTEX
  8
0ALV_DRE
 10
535778.25
 20
8606561.00
  0
VERTEX
  8
0ALV_DRE
 10
535268.13
 20
8606337.00
  0
VERTEX
  8
0ALV_DRE
 10
534955.94
 20
8606378.00
  0
VERTEX
  8
0ALV_DRE
 10
534622.44
 20
8606821.00
  0
VERTEX
  8
0ALV_DRE
 10
534151.13
 20
8607351.00
  0
VERTEX
  8
0ALV_DRE
 10
533494.31
 20
8607622.00
  0
VERTEX
  8
0ALV_DRE
 10
532864.31
 20
8607605.00
  0
VERTEX
  8
0ALV_DRE
 10
532280.38
 20
8607223.00
  0
VERTEX
  8
0ALV_DRE
 10
532215.13
 20
8606708.00
  0
VERTEX
  8
0ALV_DRE
 10
532516.50
 20
8606410.00
  0
VERTEX
  8
0ALV_DRE
 10
533862.38
 20
8605705.00
  0
VERTEX
  8
0ALV_DRE
 10
533878.13
 20
8605196.00
  0
VERTEX
  8
0ALV_DRE
 10
533052.06
 20
8604638.00
  0
VERTEX
  8
0ALV_DRE
 10
533154.56
 20
8604224.00
  0
VERTEX
  8
0ALV_DRE
 10
533731.94
 20
8603663.00
  0
SEQEND
  8
0ALV_DRE
  0
POLYLINE
  8
0ALV_DRE
 66
     1
  0
VERTEX
  8
0ALV_DRE
 10
536522.38
 20
8602456.00
  0
VERTEX
  8
0ALV_DRE
 10
536827.13
 20
8602596.00
  0
VERTEX
  8
0ALV_DRE
 10
537102.81
 20
8602410.00
  0
VERTEX
  8
0ALV_DRE
 10
535295.50
 20
8602126.00
  0
VERTEX
  8
0ALV_DRE
 10
535606.44
 20
8602279.00
  0
VERTEX
  8
0ALV_DRE
 10
536522.38
 20
8602456.00
  0
SEQEND
  8
0ALV_DRE
  0
POLYLINE
  8
0ALV_DRE
 66
     1
  0
VERTEX
  8
0ALV_DRE
 10
532122.44
 20
8606570.00
  0
VERTEX
  8
0ALV_DRE
 10
532392.75
 20
8606258.00
  0
VERTEX
  8
0ALV_DRE
 10
532855.75
 20
8606042.00
  0
VERTEX
  8
0ALV_DRE
 10
533537.19
 20
8605821.00
  0
VERTEX
  8
0ALV_DRE
 10
533744.31
 20
8605635.00
  0
VERTEX
  8
0ALV_DRE
 10
533659.63
 20
8605220.00
  0
VERTEX
  8
0ALV_DRE
 10
532870.13
 20
8604793.00
  0
VERTEX
  8
0ALV_DRE
 10
532861.06
 20
8604266.00
  0
VERTEX
  8
0ALV_DRE
 10
533206.88
 20
8603855.00
  0
VERTEX
  8
0ALV_DRE
 10
533742.06
 20
8603100.00
  0
VERTEX
  8
0ALV_DRE
 10
533895.81
 20
8602479.00
  0
VERTEX
  8
0ALV_DRE
 10
534059.88
 20
8602192.00
  0
VERTEX
  8
0ALV_DRE
 10
533038.06
 20
8601996.00
  0
VERTEX
  8
0ALV_DRE
 10
532769.25
 20
8602082.00
  0
VERTEX
  8
0ALV_DRE
 10
532641.13
 20
8602595.00
  0
VERTEX
  8
0ALV_DRE
 10
532761.13
 20
8603330.00
  0
VERTEX
  8
0ALV_DRE
 10
532769.38
 20
8603977.00
  0
VERTEX
  8
0ALV_DRE
 10
532566.00
 20
8604559.00
  0
VERTEX
  8
0ALV_DRE
 10
532422.31
 20
8605543.00
  0
VERTEX
  8
0ALV_DRE
 10
532082.13
 20
8606055.00
  0
VERTEX
  8
0ALV_DRE
 10
532122.44
 20
8606570.00
  0
SEQEND
  8
0ALV_DRE
  0
POLYLINE
  8
0ALV_DRE
 66
     1
  0
VERTEX
  8
0ALV_DRE
 10
533731.94
 20
8603663.00
  0
VERTEX
  8
0ALV_DRE
 10
533942.25
 20
8603013.00
  0
VERTEX
  8
0ALV_DRE
 10
534145.94
 20
8602387.00
  0
VERTEX
  8
0ALV_DRE
 10
534509.25
 20
8602164.00
  0
VERTEX
  8
0ALV_DRE
 10
535126.50
 20
8602213.00
  0
VERTEX
  8
0ALV_DRE
 10
535493.13
 20
8602435.00
  0
VERTEX
  8
0ALV_DRE
 10
536496.13
 20
8602650.00
  0
VERTEX
  8
0ALV_DRE
 10
537125.88
 20
8602706.00
  0
VERTEX
  8
0ALV_DRE
 10
538209.63
 20
8602017.00
  0
VERTEX
  8
0ALV_DRE
 10
538651.06
 20
8601287.00
  0
VERTEX
  8
0ALV_DRE
 10
538753.75
 20
8600842.00
  0
VERTEX
  8
0ALV_DRE
 10
538645.38
 20
8600239.00
  0
VERTEX
  8
0ALV_DRE
 10
537956.69
 20
8599656.00
  0
VERTEX
  8
0ALV_DRE
 10
537671.88
 20
8599327.00
  0
VERTEX
  8
0ALV_DRE
 10
537557.44
 20
8598699.00
  0
VERTEX
  8
0ALV_DRE
 10
537865.56
 20
8598325.00
  0
VERTEX
  8
0ALV_DRE
 10
538060.81
 20
8598032.00
  0
VERTEX
  8
0ALV_DRE
 10
538158.06
 20
8597474.00
  0
VERTEX
  8
0ALV_DRE
 10
538326.38
 20
8596534.00
  0
VERTEX
  8
0ALV_DRE
 10
538760.00
 20
8596041.00
  0
VERTEX
  8
0ALV_DRE
 10
539141.44
 20
8595906.00
  0
VERTEX
  8
0ALV_DRE
 10
539682.50
 20
8596162.00
  0
VERTEX
  8
0ALV_DRE
 10
540231.88
 20
8596109.00
  0
VERTEX
  8
0ALV_DRE
 10
540417.44
 20
8595389.00
  0
VERTEX
  8
0ALV_DRE
 10
540226.69
 20
8594980.00
  0
VERTEX
  8
0ALV_DRE
 10
539567.88
 20
8594604.00
  0
VERTEX
  8
0ALV_DRE
 10
539471.94
 20
8594008.00
  0
VERTEX
  8
0ALV_DRE
 10
539654.88
 20
8593702.00
  0
VERTEX
  8
0ALV_DRE
 10
540299.56
 20
8593368.00
  0
VERTEX
  8
0ALV_DRE
 10
540620.63
 20
8592925.00
  0
VERTEX
  8
0ALV_DRE
 10
540944.81
 20
8591998.00
  0
VERTEX
  8
0ALV_DRE
 10
540780.31
 20
8590428.00
  0
VERTEX
  8
0ALV_DRE
 10
540625.69
 20
8589266.00
  0
VERTEX
  8
0ALV_DRE
 10
540372.06
 20
8588938.00
  0
VERTEX
  8
0ALV_DRE
 10
539709.56
 20
8588161.00
  0
VERTEX
  8
0ALV_DRE
 10
540366.69
 20
8587840.00
  0
VERTEX
  8
0ALV_DRE
 10
540665.69
 20
8587911.00
  0
VERTEX
  8
0ALV_DRE
 10
541349.00
 20
8588362.00
  0
VERTEX
  8
0ALV_DRE
 10
541853.50
 20
8588485.00
  0
VERTEX
  8
0ALV_DRE
 10
542147.44
 20
8588375.00
  0
VERTEX
  8
0ALV_DRE
 10
542430.69
 20
8587988.00
  0
VERTEX
  8
0ALV_DRE
 10
542397.25
 20
8587379.00
  0
VERTEX
  8
0ALV_DRE
 10
541952.25
 20
8586729.00
  0
VERTEX
  8
0ALV_DRE
 10
541651.31
 20
8585999.00
  0
VERTEX
  8
0ALV_DRE
 10
541359.06
 20
8585858.00
  0
VERTEX
  8
0ALV_DRE
 10
541343.25
 20
8585406.00
  0
VERTEX
  8
0ALV_DRE
 10
541276.25
 20
8585161.00
  0
VERTEX
  8
0ALV_DRE
 10
540880.56
 20
8584606.00
  0
VERTEX
  8
0ALV_DRE
 10
540760.00
 20
8583965.00
  0
VERTEX
  8
0ALV_DRE
 10
540851.50
 20
8583319.00
  0
VERTEX
  8
0ALV_DRE
 10
541182.19
 20
8583315.00
  0
VERTEX
  8
0ALV_DRE
 10
542197.75
 20
8583512.00
  0
VERTEX
  8
0ALV_DRE
 10
542500.88
 20
8583909.00
  0
VERTEX
  8
0ALV_DRE
 10
543012.25
 20
8584899.00
  0
SEQEND
  8
0ALV_DRE
  0
POLYLINE
  8
0ALV_DRE
 66
     1
  0
VERTEX
  8
0ALV_DRE
 10
543012.25
 20
8584899.00
  0
VERTEX
  8
0ALV_DRE
 10
543839.56
 20
8585263.00
  0
VERTEX
  8
0ALV_DRE
 10
544308.13
 20
8585166.00
  0
VERTEX
  8
0ALV_DRE
 10
544932.06
 20
8585146.00
  0
VERTEX
  8
0ALV_DRE
 10
545462.69
 20
8585093.00
  0
VERTEX
  8
0ALV_DRE
 10
545727.50
 20
8584662.00
  0
VERTEX
  8
0ALV_DRE
 10
545699.25
 20
8584217.00
  0
VERTEX
  8
0ALV_DRE
 10
545333.00
 20
8583931.00
  0
VERTEX
  8
0ALV_DRE
 10
544543.50
 20
8583499.00
  0
VERTEX
  8
0ALV_DRE
 10
543584.63
 20
8583215.00
  0
VERTEX
  8
0ALV_DRE
 10
543331.88
 20
8582749.00
  0
VERTEX
  8
0ALV_DRE
 10
543433.75
 20
8582436.00
  0
VERTEX
  8
0ALV_DRE
 10
544379.56
 20
8581847.00
  0
VERTEX
  8
0ALV_DRE
 10
544555.25
 20
8581698.00
  0
VERTEX
  8
0ALV_DRE
 10
545467.25
 20
8581517.00
  0
VERTEX
  8
0ALV_DRE
 10
546232.88
 20
8580813.00
  0
VERTEX
  8
0ALV_DRE
 10
546533.81
 20
8580584.00
  0
VERTEX
  8
0ALV_DRE
 10
547071.94
 20
8580343.00
  0
VERTEX
  8
0ALV_DRE
 10
547764.00
 20
8580399.00
  0
VERTEX
  8
0ALV_DRE
 10
547962.81
 20
8580526.00
  0
SEQEND
  8
0ALV_DRE
  0
POLYLINE
  8
0ALV_DRE
 66
     1
  0
VERTEX
  8
0ALV_DRE
 10
539851.81
 20
8623862.00
  0
VERTEX
  8
0ALV_DRE
 10
539279.94
 20
8623543.00
  0
VERTEX
  8
0ALV_DRE
 10
538780.81
 20
8623552.00
  0
VERTEX
  8
0ALV_DRE
 10
538312.56
 20
8623605.00
  0
VERTEX
  8
0ALV_DRE
 10
537883.00
 20
8623464.00
  0
VERTEX
  8
0ALV_DRE
 10
537522.25
 20
8623304.00
  0
VERTEX
  8
0ALV_DRE
 10
537172.00
 20
8622479.00
  0
VERTEX
  8
0ALV_DRE
 10
537255.13
 20
8622172.00
  0
VERTEX
  8
0ALV_DRE
 10
537507.06
 20
8621798.00
  0
VERTEX
  8
0ALV_DRE
 10
537843.00
 20
8620985.00
  0
VERTEX
  8
0ALV_DRE
 10
537899.00
 20
8620044.00
  0
VERTEX
  8
0ALV_DRE
 10
537560.06
 20
8619407.00
  0
VERTEX
  8
0ALV_DRE
 10
537281.06
 20
8619141.00
  0
VERTEX
  8
0ALV_DRE
 10
536748.13
 20
8618585.00
  0
VERTEX
  8
0ALV_DRE
 10
536638.38
 20
8618195.00
  0
VERTEX
  8
0ALV_DRE
 10
536365.13
 20
8614171.00
  0
VERTEX
  8
0ALV_DRE
 10
536124.56
 20
8613748.00
  0
VERTEX
  8
0ALV_DRE
 10
535095.56
 20
8612736.00
  0
VERTEX
  8
0ALV_DRE
 10
534693.31
 20
8612237.00
  0
VERTEX
  8
0ALV_DRE
 10
534288.69
 20
8611142.00
  0
VERTEX
  8
0ALV_DRE
 10
534128.69
 20
8610796.00
  0
VERTEX
  8
0ALV_DRE
 10
534252.81
 20
8609943.00
  0
VERTEX
  8
0ALV_DRE
 10
535793.69
 20
8608983.00
  0
VERTEX
  8
0ALV_DRE
 10
535872.69
 20
8608343.00
  0
VERTEX
  8
0ALV_DRE
 10
535620.25
 20
8607833.00
  0
VERTEX
  8
0ALV_DRE
 10
535091.50
 20
8607597.00
  0
VERTEX
  8
0ALV_DRE
 10
534430.19
 20
8607604.00
  0
VERTEX
  8
0ALV_DRE
 10
533378.44
 20
8608173.00
  0
VERTEX
  8
0ALV_DRE
 10
533023.63
 20
8608051.00
  0
VERTEX
  8
0ALV_DRE
 10
532246.81
 20
8607593.00
  0
VERTEX
  8
0ALV_DRE
 10
531944.50
 20
8607070.00
  0
VERTEX
  8
0ALV_DRE
 10
531737.19
 20
8606334.00
  0
VERTEX
  8
0ALV_DRE
 10
531724.00
 20
8605487.00
  0
VERTEX
  8
0ALV_DRE
 10
532071.44
 20
8604818.00
  0
VERTEX
  8
0ALV_DRE
 10
532219.38
 20
8604136.00
  0
VERTEX
  8
0ALV_DRE
 10
532342.56
 20
8602461.00
  0
VERTEX
  8
0ALV_DRE
 10
532352.19
 20
8601940.00
  0
VERTEX
  8
0ALV_DRE
 10
532667.00
 20
8601497.00
  0
VERTEX
  8
0ALV_DRE
 10
533116.38
 20
8601457.00
  0
VERTEX
  8
0ALV_DRE
 10
535148.44
 20
8601717.00
  0
VERTEX
  8
0ALV_DRE
 10
535721.75
 20
8601816.00
  0
VERTEX
  8
0ALV_DRE
 10
536251.38
 20
8601921.00
  0
VERTEX
  8
0ALV_DRE
 10
537198.81
 20
8602041.00
  0
VERTEX
  8
0ALV_DRE
 10
537754.06
 20
8602039.00
  0
VERTEX
  8
0ALV_DRE
 10
538137.88
 20
8601540.00
  0
VERTEX
  8
0ALV_DRE
 10
538315.88
 20
8601021.00
  0
VERTEX
  8
0ALV_DRE
 10
538209.88
 20
8600053.00
  0
VERTEX
  8
0ALV_DRE
 10
537236.94
 20
8599054.00
  0
VERTEX
  8
0ALV_DRE
 10
537332.94
 20
8598685.00
  0
VERTEX
  8
0ALV_DRE
 10
537648.25
 20
8598160.00
  0
VERTEX
  8
0ALV_DRE
 10
538474.81
 20
8595769.00
  0
VERTEX
  8
0ALV_DRE
 10
539036.88
 20
8595673.00
  0
VERTEX
  8
0ALV_DRE
 10
539933.81
 20
8595894.00
  0
VERTEX
  8
0ALV_DRE
 10
540072.94
 20
8595606.00
  0
VERTEX
  8
0ALV_DRE
 10
539856.56
 20
8595303.00
  0
VERTEX
  8
0ALV_DRE
 10
539238.13
 20
8594464.00
  0
VERTEX
  8
0ALV_DRE
 10
539154.81
 20
8593848.00
  0
VERTEX
  8
0ALV_DRE
 10
539457.13
 20
8593405.00
  0
VERTEX
  8
0ALV_DRE
 10
540466.13
 20
8592698.00
  0
VERTEX
  8
0ALV_DRE
 10
540645.44
 20
8591984.00
  0
VERTEX
  8
0ALV_DRE
 10
540435.75
 20
8590658.00
  0
VERTEX
  8
0ALV_DRE
 10
540214.31
 20
8590167.00
  0
VERTEX
  8
0ALV_DRE
 10
539588.50
 20
8589509.00
  0
VERTEX
  8
0ALV_DRE
 10
539618.44
 20
8588750.00
  0
VERTEX
  8
0ALV_DRE
 10
539589.19
 20
8588449.00
  0
VERTEX
  8
0ALV_DRE
 10
539328.75
 20
8588208.00
  0
VERTEX
  8
0ALV_DRE
 10
539387.69
 20
8587776.00
  0
VERTEX
  8
0ALV_DRE
 10
539832.63
 20
8587465.00
  0
VERTEX
  8
0ALV_DRE
 10
540575.00
 20
8587471.00
  0
VERTEX
  8
0ALV_DRE
 10
541650.69
 20
8588019.00
  0
VERTEX
  8
0ALV_DRE
 10
541910.13
 20
8587450.00
  0
VERTEX
  8
0ALV_DRE
 10
541789.81
 20
8586772.00
  0
VERTEX
  8
0ALV_DRE
 10
541326.19
 20
8586109.00
  0
VERTEX
  8
0ALV_DRE
 10
540910.81
 20
8585717.00
  0
VERTEX
  8
0ALV_DRE
 10
540457.44
 20
8584439.00
  0
VERTEX
  8
0ALV_DRE
 10
540544.69
 20
8583492.00
  0
VERTEX
  8
0ALV_DRE
 10
541118.31
 20
8582587.00
  0
VERTEX
  8
0ALV_DRE
 10
541574.06
 20
8582528.00
  0
VERTEX
  8
0ALV_DRE
 10
541904.06
 20
8582625.00
  0
VERTEX
  8
0ALV_DRE
 10
542591.75
 20
8583364.00
  0
VERTEX
  8
0ALV_DRE
 10
542824.38
 20
8584050.00
  0
VERTEX
  8
0ALV_DRE
 10
543157.44
 20
8584636.00
  0
VERTEX
  8
0ALV_DRE
 10
543593.13
 20
8584790.00
  0
VERTEX
  8
0ALV_DRE
 10
544753.31
 20
8584818.00
  0
VERTEX
  8
0ALV_DRE
 10
545112.19
 20
8584313.00
  0
VERTEX
  8
0ALV_DRE
 10
545070.25
 20
8584049.00
  0
VERTEX
  8
0ALV_DRE
 10
543335.31
 20
8583182.00
  0
VERTEX
  8
0ALV_DRE
 10
543078.50
 20
8582383.00
  0
VERTEX
  8
0ALV_DRE
 10
543100.25
 20
8581919.00
  0
VERTEX
  8
0ALV_DRE
 10
543375.50
 20
8581795.00
  0
VERTEX
  8
0ALV_DRE
 10
543888.25
 20
8581617.00
  0
VERTEX
  8
0ALV_DRE
 10
546223.63
 20
8580324.00
  0
SEQEND
  8
0ALV_DRE
  0
POLYLINE
  8
0ALV_DRE
 66
     1
  0
VERTEX
  8
0ALV_DRE
 10
547962.81
 20
8580526.00
  0
VERTEX
  8
0ALV_DRE
 10
548567.25
 20
8580631.00
  0
VERTEX
  8
0ALV_DRE
 10
549248.69
 20
8580417.00
  0
VERTEX
  8
0ALV_DRE
 10
549754.88
 20
8580282.00
  0
VERTEX
  8
0ALV_DRE
 10
551001.56
 20
8580430.00
  0
VERTEX
  8
0ALV_DRE
 10
551695.44
 20
8581176.00
  0
VERTEX
  8
0ALV_DRE
 10
552656.75
 20
8581090.00
  0
VERTEX
  8
0ALV_DRE
 10
553023.44
 20
8580339.00
  0
VERTEX
  8
0ALV_DRE
 10
553432.44
 20
8578778.00
  0
SEQEND
  8
0ALV_DRE
  0
LINE
  8
0ALV_DRE
 10
553432.44
 20
8578778.00
 11
552725.00
 21
8578432.00
  0
POLYLINE
  8
0ALV_DRE
 66
     1
  0
VERTEX
  8
0ALV_DRE
 10
546223.63
 20
8580324.00
  0
VERTEX
  8
0ALV_DRE
 10
547217.25
 20
8580056.00
  0
VERTEX
  8
0ALV_DRE
 10
548035.19
 20
8579949.00
  0
VERTEX
  8
0ALV_DRE
 10
548933.13
 20
8580019.00
  0
VERTEX
  8
0ALV_DRE
 10
549880.81
 20
8580101.00
  0
VERTEX
  8
0ALV_DRE
 10
550586.44
 20
8579994.00
  0
VERTEX
  8
0ALV_DRE
 10
551097.75
 20
8580029.00
  0
VERTEX
  8
0ALV_DRE
 10
552034.81
 20
8580796.00
  0
VERTEX
  8
0ALV_DRE
 10
552563.50
 20
8580078.00
  0
VERTEX
  8
0ALV_DRE
 10
552725.00
 20
8578432.00
  0
SEQEND
  8
0ALV_DRE
  0
POLYLINE
  8
0ALV_DRE
 66
     1
  0
VERTEX
  8
0ALV_DRE
 10
803077.00
 20
8618395.00
  0
VERTEX
  8
0ALV_DRE
 10
802658.38
 20
8617994.00
  0
VERTEX
  8
0ALV_DRE
 10
801981.19
 20
8617715.00
  0
VERTEX
  8
0ALV_DRE
 10
801178.50
 20
8617362.00
  0
VERTEX
  8
0ALV_DRE
 10
800519.69
 20
8616984.00
  0
VERTEX
  8
0ALV_DRE
 10
800278.94
 20
8616196.00
  0
VERTEX
  8
0ALV_DRE
 10
800313.63
 20
8615400.00
  0
VERTEX
  8
0ALV_DRE
 10
801160.19
 20
8614031.00
  0
VERTEX
  8
0ALV_DRE
 10
801076.75
 20
8613462.00
  0
VERTEX
  8
0ALV_DRE
 10
800566.94
 20
8612732.00
  0
VERTEX
  8
0ALV_DRE
 10
799881.50
 20
8611902.00
  0
VERTEX
  8
0ALV_DRE
 10
798169.63
 20
8611197.00
  0
VERTEX
  8
0ALV_DRE
 10
797311.06
 20
8610982.00
  0
VERTEX
  8
0ALV_DRE
 10
796584.25
 20
8610823.00
  0
VERTEX
  8
0ALV_DRE
 10
795638.19
 20
8610652.00
  0
VERTEX
  8
0ALV_DRE
 10
794622.50
 20
8610281.00
  0
VERTEX
  8
0ALV_DRE
 10
794400.56
 20
8609499.00
  0
VERTEX
  8
0ALV_DRE
 10
795454.50
 20
8608336.00
  0
VERTEX
  8
0ALV_DRE
 10
796535.81
 20
8607823.00
  0
VERTEX
  8
0ALV_DRE
 10
797283.75
 20
8606887.00
  0
VERTEX
  8
0ALV_DRE
 10
798315.19
 20
8606425.00
  0
VERTEX
  8
0ALV_DRE
 10
798376.00
 20
8605917.00
  0
VERTEX
  8
0ALV_DRE
 10
798243.88
 20
8605736.00
  0
VERTEX
  8
0ALV_DRE
 10
797649.31
 20
8605820.00
  0
VERTEX
  8
0ALV_DRE
 10
796491.38
 20
8605914.00
  0
VERTEX
  8
0ALV_DRE
 10
795794.88
 20
8605510.00
  0
VERTEX
  8
0ALV_DRE
 10
796060.88
 20
8604613.00
  0
VERTEX
  8
0ALV_DRE
 10
796309.00
 20
8603967.00
  0
VERTEX
  8
0ALV_DRE
 10
796474.06
 20
8602858.00
  0
VERTEX
  8
0ALV_DRE
 10
796363.69
 20
8601769.00
  0
VERTEX
  8
0ALV_DRE
 10
795998.50
 20
8601201.00
  0
VERTEX
  8
0ALV_DRE
 10
795521.50
 20
8600884.00
  0
VERTEX
  8
0ALV_DRE
 10
794491.06
 20
8599881.00
  0
VERTEX
  8
0ALV_DRE
 10
794170.69
 20
8599588.00
  0
VERTEX
  8
0ALV_DRE
 10
794062.38
 20
8599081.00
  0
VERTEX
  8
0ALV_DRE
 10
794371.69
 20
8598034.00
  0
VERTEX
  8
0ALV_DRE
 10
794724.94
 20
8597037.00
  0
VERTEX
  8
0ALV_DRE
 10
795386.19
 20
8596364.00
  0
VERTEX
  8
0ALV_DRE
 10
795767.38
 20
8596161.00
  0
VERTEX
  8
0ALV_DRE
 10
796631.31
 20
8596120.00
  0
VERTEX
  8
0ALV_DRE
 10
796981.88
 20
8596112.00
  0
VERTEX
  8
0ALV_DRE
 10
797920.56
 20
8595976.00
  0
VERTEX
  8
0ALV_DRE
 10
798709.56
 20
8596003.00
  0
VERTEX
  8
0ALV_DRE
 10
799072.44
 20
8595926.00
  0
VERTEX
  8
0ALV_DRE
 10
799342.63
 20
8596188.00
  0
VERTEX
  8
0ALV_DRE
 10
799370.00
 20
8596845.00
  0
VERTEX
  8
0ALV_DRE
 10
799644.19
 20
8596474.00
  0
VERTEX
  8
0ALV_DRE
 10
799629.13
 20
8595779.00
  0
VERTEX
  8
0ALV_DRE
 10
799304.56
 20
8594316.00
  0
VERTEX
  8
0ALV_DRE
 10
798944.88
 20
8593541.00
  0
VERTEX
  8
0ALV_DRE
 10
798843.88
 20
8593322.00
  0
VERTEX
  8
0ALV_DRE
 10
798197.38
 20
8592881.00
  0
VERTEX
  8
0ALV_DRE
 10
798090.19
 20
8592662.00
  0
VERTEX
  8
0ALV_DRE
 10
797613.19
 20
8592345.00
  0
VERTEX
  8
0ALV_DRE
 10
797350.19
 20
8592347.00
  0
VERTEX
  8
0ALV_DRE
 10
796703.88
 20
8591949.00
  0
VERTEX
  8
0ALV_DRE
 10
796351.31
 20
8591406.00
  0
VERTEX
  8
0ALV_DRE
 10
796355.19
 20
8590755.00
  0
VERTEX
  8
0ALV_DRE
 10
796553.13
 20
8590090.00
  0
VERTEX
  8
0ALV_DRE
 10
796739.19
 20
8589594.00
  0
VERTEX
  8
0ALV_DRE
 10
797026.19
 20
8589317.00
  0
VERTEX
  8
0ALV_DRE
 10
797758.19
 20
8589164.00
  0
VERTEX
  8
0ALV_DRE
 10
798146.75
 20
8589268.00
  0
VERTEX
  8
0ALV_DRE
 10
799062.38
 20
8589671.00
  0
VERTEX
  8
0ALV_DRE
 10
799481.94
 20
8589687.00
  0
VERTEX
  8
0ALV_DRE
 10
801152.69
 20
8589423.00
  0
VERTEX
  8
0ALV_DRE
 10
801309.06
 20
8589372.00
  0
VERTEX
  8
0ALV_DRE
 10
801439.75
 20
8589158.00
  0
VERTEX
  8
0ALV_DRE
 10
801259.00
 20
8587656.00
  0
VERTEX
  8
0ALV_DRE
 10
801126.13
 20
8587262.00
  0
VERTEX
  8
0ALV_DRE
 10
800365.63
 20
8586465.00
  0
VERTEX
  8
0ALV_DRE
 10
799848.44
 20
8585415.00
  0
VERTEX
  8
0ALV_DRE
 10
799552.13
 20
8584853.00
  0
VERTEX
  8
0ALV_DRE
 10
799375.13
 20
8584397.00
  0
VERTEX
  8
0ALV_DRE
 10
799637.06
 20
8584101.00
  0
VERTEX
  8
0ALV_DRE
 10
799406.50
 20
8582675.00
  0
VERTEX
  8
0ALV_DRE
 10
799941.69
 20
8581770.00
  0
VERTEX
  8
0ALV_DRE
 10
800001.94
 20
8581113.00
  0
VERTEX
  8
0ALV_DRE
 10
800099.50
 20
8580386.00
  0
VERTEX
  8
0ALV_DRE
 10
800366.00
 20
8579646.00
  0
VERTEX
  8
0ALV_DRE
 10
800865.69
 20
8579311.00
  0
VERTEX
  8
0ALV_DRE
 10
801335.19
 20
8579278.00
  0
VERTEX
  8
0ALV_DRE
 10
802318.25
 20
8579292.00
  0
VERTEX
  8
0ALV_DRE
 10
802823.69
 20
8578820.00
  0
VERTEX
  8
0ALV_DRE
 10
803650.25
 20
8577106.00
  0
VERTEX
  8
0ALV_DRE
 10
803779.88
 20
8576598.00
  0
VERTEX
  8
0ALV_DRE
 10
804098.69
 20
8576465.00
  0
VERTEX
  8
0ALV_DRE
 10
804347.19
 20
8575919.00
  0
VERTEX
  8
0ALV_DRE
 10
804635.25
 20
8574202.00
  0
VERTEX
  8
0ALV_DRE
 10
804633.19
 20
8573626.00
  0
VERTEX
  8
0ALV_DRE
 10
804867.81
 20
8572711.00
  0
VERTEX
  8
0ALV_DRE
 10
805100.44
 20
8571250.00
  0
VERTEX
  8
0ALV_DRE
 10
805249.56
 20
8570937.00
  0
VERTEX
  8
0ALV_DRE
 10
806211.69
 20
8570356.00
  0
VERTEX
  8
0ALV_DRE
 10
806160.19
 20
8569955.00
  0
VERTEX
  8
0ALV_DRE
 10
806271.75
 20
8569654.00
  0
VERTEX
  8
0ALV_DRE
 10
806133.75
 20
8569567.00
  0
VERTEX
  8
0ALV_DRE
 10
805852.31
 20
8569663.00
  0
VERTEX
  8
0ALV_DRE
 10
805774.81
 20
8569012.00
  0
VERTEX
  8
0ALV_DRE
 10
805924.69
 20
8568898.00
  0
VERTEX
  8
0ALV_DRE
 10
805924.13
 20
8568742.00
  0
VERTEX
  8
0ALV_DRE
 10
806328.56
 20
8568038.00
  0
VERTEX
  8
0ALV_DRE
 10
807441.44
 20
8565866.00
  0
VERTEX
  8
0ALV_DRE
 10
807634.25
 20
8565502.00
  0
VERTEX
  8
0ALV_DRE
 10
808158.75
 20
8565105.00
  0
VERTEX
  8
0ALV_DRE
 10
809227.75
 20
8564656.00
  0
VERTEX
  8
0ALV_DRE
 10
809837.88
 20
8563694.00
  0
VERTEX
  8
0ALV_DRE
 10
810272.06
 20
8562553.00
  0
VERTEX
  8
0ALV_DRE
 10
810232.69
 20
8562052.00
  0
VERTEX
  8
0ALV_DRE
 10
809347.50
 20
8561195.00
  0
SEQEND
  8
0ALV_DRE
  0
POLYLINE
  8
0ALV_DRE
 66
     1
  0
VERTEX
  8
0ALV_DRE
 10
802908.25
 20
8617819.00
  0
VERTEX
  8
0ALV_DRE
 10
802776.81
 20
8617843.00
  0
VERTEX
  8
0ALV_DRE
 10
802287.00
 20
8617451.00
  0
VERTEX
  8
0ALV_DRE
 10
801791.75
 20
8617272.00
  0
VERTEX
  8
0ALV_DRE
 10
801315.69
 20
8617205.00
  0
VERTEX
  8
0ALV_DRE
 10
800957.94
 20
8616969.00
  0
VERTEX
  8
0ALV_DRE
 10
800535.06
 20
8616044.00
  0
VERTEX
  8
0ALV_DRE
 10
800596.13
 20
8615606.00
  0
VERTEX
  8
0ALV_DRE
 10
801337.25
 20
8614513.00
  0
VERTEX
  8
0ALV_DRE
 10
801365.94
 20
8613792.00
  0
VERTEX
  8
0ALV_DRE
 10
801313.25
 20
8613072.00
  0
VERTEX
  8
0ALV_DRE
 10
800791.69
 20
8612555.00
  0
VERTEX
  8
0ALV_DRE
 10
800319.13
 20
8611719.00
  0
VERTEX
  8
0ALV_DRE
 10
800010.88
 20
8611332.00
  0
VERTEX
  8
0ALV_DRE
 10
799327.31
 20
8611016.00
  0
VERTEX
  8
0ALV_DRE
 10
795674.81
 20
8610389.00
  0
VERTEX
  8
0ALV_DRE
 10
795254.56
 20
8610178.00
  0
VERTEX
  8
0ALV_DRE
 10
794765.00
 20
8609855.00
  0
VERTEX
  8
0ALV_DRE
 10
794839.13
 20
8609572.00
  0
VERTEX
  8
0ALV_DRE
 10
796030.44
 20
8608308.00
  0
VERTEX
  8
0ALV_DRE
 10
797017.69
 20
8607746.00
  0
VERTEX
  8
0ALV_DRE
 10
797679.00
 20
8607104.00
  0
VERTEX
  8
0ALV_DRE
 10
798734.50
 20
8606372.00
  0
VERTEX
  8
0ALV_DRE
 10
798701.25
 20
8605828.00
  0
VERTEX
  8
0ALV_DRE
 10
798318.06
 20
8605492.00
  0
VERTEX
  8
0ALV_DRE
 10
797729.75
 20
8605551.00
  0
VERTEX
  8
0ALV_DRE
 10
796383.56
 20
8605545.00
  0
VERTEX
  8
0ALV_DRE
 10
796344.81
 20
8605213.00
  0
VERTEX
  8
0ALV_DRE
 10
796554.31
 20
8604273.00
  0
VERTEX
  8
0ALV_DRE
 10
796714.38
 20
8603533.00
  0
VERTEX
  8
0ALV_DRE
 10
796717.50
 20
8602657.00
  0
VERTEX
  8
0ALV_DRE
 10
796387.19
 20
8601337.00
  0
VERTEX
  8
0ALV_DRE
 10
796053.94
 20
8600944.00
  0
VERTEX
  8
0ALV_DRE
 10
795382.25
 20
8600465.00
  0
VERTEX
  8
0ALV_DRE
 10
794615.00
 20
8599542.00
  0
VERTEX
  8
0ALV_DRE
 10
794401.25
 20
8599293.00
  0
VERTEX
  8
0ALV_DRE
 10
794610.63
 20
8598327.00
  0
VERTEX
  8
0ALV_DRE
 10
794864.81
 20
8597625.00
  0
VERTEX
  8
0ALV_DRE
 10
795213.06
 20
8596966.00
  0
VERTEX
  8
0ALV_DRE
 10
795756.69
 20
8596656.00
  0
VERTEX
  8
0ALV_DRE
 10
797045.81
 20
8596481.00
  0
VERTEX
  8
0ALV_DRE
 10
798059.44
 20
8596282.00
  0
VERTEX
  8
0ALV_DRE
 10
798529.06
 20
8596298.00
  0
VERTEX
  8
0ALV_DRE
 10
798886.19
 20
8596365.00
  0
VERTEX
  8
0ALV_DRE
 10
799069.44
 20
8596828.00
  0
VERTEX
  8
0ALV_DRE
 10
799107.69
 20
8597022.00
  0
VERTEX
  8
0ALV_DRE
 10
799502.25
 20
8597039.00
  0
VERTEX
  8
0ALV_DRE
 10
799932.31
 20
8596511.00
  0
VERTEX
  8
0ALV_DRE
 10
799992.63
 20
8595872.00
  0
VERTEX
  8
0ALV_DRE
 10
799909.69
 20
8595446.00
  0
VERTEX
  8
0ALV_DRE
 10
799838.19
 20
8594714.00
  0
VERTEX
  8
0ALV_DRE
 10
799000.13
 20
8593240.00
  0
VERTEX
  8
0ALV_DRE
 10
797825.38
 20
8592150.00
  0
VERTEX
  8
0ALV_DRE
 10
796721.06
 20
8591511.00
  0
VERTEX
  8
0ALV_DRE
 10
796681.13
 20
8590860.00
  0
VERTEX
  8
0ALV_DRE
 10
796834.69
 20
8590032.00
  0
VERTEX
  8
0ALV_DRE
 10
797052.31
 20
8589618.00
  0
VERTEX
  8
0ALV_DRE
 10
797427.38
 20
8589434.00
  0
VERTEX
  8
0ALV_DRE
 10
797683.88
 20
8589383.00
  0
VERTEX
  8
0ALV_DRE
 10
798474.31
 20
8589811.00
  0
VERTEX
  8
0ALV_DRE
 10
799064.38
 20
8590228.00
  0
VERTEX
  8
0ALV_DRE
 10
799264.75
 20
8590227.00
  0
VERTEX
  8
0ALV_DRE
 10
801590.69
 20
8589352.00
  0
VERTEX
  8
0ALV_DRE
 10
801719.06
 20
8588481.00
  0
VERTEX
  8
0ALV_DRE
 10
801413.69
 20
8587148.00
  0
VERTEX
  8
0ALV_DRE
 10
801230.94
 20
8586817.00
  0
VERTEX
  8
0ALV_DRE
 10
800659.31
 20
8586300.00
  0
VERTEX
  8
0ALV_DRE
 10
799768.88
 20
8584188.00
  0
VERTEX
  8
0ALV_DRE
 10
799898.81
 20
8583762.00
  0
VERTEX
  8
0ALV_DRE
 10
799992.88
 20
8582077.00
  0
VERTEX
  8
0ALV_DRE
 10
800452.50
 20
8581048.00
  0
VERTEX
  8
0ALV_DRE
 10
801311.88
 20
8579754.00
  0
VERTEX
  8
0ALV_DRE
 10
802250.13
 20
8579505.00
  0
VERTEX
  8
0ALV_DRE
 10
802669.13
 20
8579365.00
  0
VERTEX
  8
0ALV_DRE
 10
802975.06
 20
8579132.00
  0
VERTEX
  8
0ALV_DRE
 10
803782.38
 20
8577293.00
  0
VERTEX
  8
0ALV_DRE
 10
803993.63
 20
8576841.00
  0
VERTEX
  8
0ALV_DRE
 10
804587.06
 20
8576469.00
  0
VERTEX
  8
0ALV_DRE
 10
804672.44
 20
8575836.00
  0
VERTEX
  8
0ALV_DRE
 10
804807.13
 20
8574971.00
  0
VERTEX
  8
0ALV_DRE
 10
805097.94
 20
8572296.00
  0
VERTEX
  8
0ALV_DRE
 10
805195.75
 20
8571638.00
  0
VERTEX
  8
0ALV_DRE
 10
805969.63
 20
8570946.00
  0
VERTEX
  8
0ALV_DRE
 10
806656.44
 20
8570404.00
  0
VERTEX
  8
0ALV_DRE
 10
806673.81
 20
8570028.00
  0
VERTEX
  8
0ALV_DRE
 10
806578.06
 20
8569509.00
  0
VERTEX
  8
0ALV_DRE
 10
806249.63
 20
8568715.00
  0
VERTEX
  8
0ALV_DRE
 10
806448.69
 20
8568357.00
  0
VERTEX
  8
0ALV_DRE
 10
807447.44
 20
8567520.00
  0
VERTEX
  8
0ALV_DRE
 10
807558.88
 20
8567168.00
  0
VERTEX
  8
0ALV_DRE
 10
807726.44
 20
8566761.00
  0
VERTEX
  8
0ALV_DRE
 10
807611.81
 20
8566235.00
  0
VERTEX
  8
0ALV_DRE
 10
807704.06
 20
8565771.00
  0
VERTEX
  8
0ALV_DRE
 10
807984.31
 20
8565357.00
  0
VERTEX
  8
0ALV_DRE
 10
808972.19
 20
8564964.00
  0
VERTEX
  8
0ALV_DRE
 10
809902.69
 20
8564308.00
  0
VERTEX
  8
0ALV_DRE
 10
810150.13
 20
8563474.00
  0
VERTEX
  8
0ALV_DRE
 10
810409.25
 20
8562408.00
  0
VERTEX
  8
0ALV_DRE
 10
810395.13
 20
8561951.00
  0
VERTEX
  8
0ALV_DRE
 10
810049.00
 20
8561477.00
  0
VERTEX
  8
0ALV_DRE
 10
809870.50
 20
8560980.00
  0
SEQEND
  8
0ALV_DRE
  0
POLYLINE
  8
0ALV_DRE
 66
     1
  0
VERTEX
  8
0ALV_DRE
 10
809870.50
 20
8560980.00
  0
VERTEX
  8
0ALV_DRE
 10
809586.50
 20
8560661.00
  0
VERTEX
  8
0ALV_DRE
 10
809649.94
 20
8559446.00
  0
VERTEX
  8
0ALV_DRE
 10
809966.25
 20
8558966.00
  0
VERTEX
  8
0ALV_DRE
 10
809966.31
 20
8558518.00
  0
VERTEX
  8
0ALV_DRE
 10
809681.75
 20
8557815.00
  0
VERTEX
  8
0ALV_DRE
 10
809586.94
 20
8557399.00
  0
VERTEX
  8
0ALV_DRE
 10
809492.13
 20
8557015.00
  0
VERTEX
  8
0ALV_DRE
 10
809334.00
 20
8556663.00
  0
VERTEX
  8
0ALV_DRE
 10
809081.06
 20
8556151.00
  0
VERTEX
  8
0ALV_DRE
 10
809017.94
 20
8555256.00
  0
VERTEX
  8
0ALV_DRE
 10
809302.69
 20
8554457.00
  0
VERTEX
  8
0ALV_DRE
 10
809935.31
 20
8553402.00
  0
VERTEX
  8
0ALV_DRE
 10
810283.38
 20
8552187.00
  0
VERTEX
  8
0ALV_DRE
 10
811611.94
 20
8550206.00
  0
VERTEX
  8
0ALV_DRE
 10
811359.00
 20
8549662.00
  0
VERTEX
  8
0ALV_DRE
 10
810947.94
 20
8549086.00
  0
VERTEX
  8
0ALV_DRE
 10
810283.94
 20
8547998.00
  0
VERTEX
  8
0ALV_DRE
 10
810252.44
 20
8547199.00
  0
VERTEX
  8
0ALV_DRE
 10
810347.38
 20
8546623.00
  0
VERTEX
  8
0ALV_DRE
 10
810220.94
 20
8546271.00
  0
VERTEX
  8
0ALV_DRE
 10
809967.94
 20
8545888.00
  0
VERTEX
  8
0ALV_DRE
 10
809873.19
 20
8544800.00
  0
VERTEX
  8
0ALV_DRE
 10
809493.81
 20
8544064.00
  0
VERTEX
  8
0ALV_DRE
 10
808829.69
 20
8543680.00
  0
VERTEX
  8
0ALV_DRE
 10
808545.06
 20
8543424.00
  0
VERTEX
  8
0ALV_DRE
 10
808513.56
 20
8542689.00
  0
VERTEX
  8
0ALV_DRE
 10
808292.25
 20
8541921.00
  0
VERTEX
  8
0ALV_DRE
 10
808039.31
 20
8541601.00
  0
VERTEX
  8
0ALV_DRE
 10
807501.69
 20
8541249.00
  0
SEQEND
  8
0ALV_DRE
  0
POLYLINE
  8
0ALV_DRE
 66
     1
  0
VERTEX
  8
0ALV_DRE
 10
809347.50
 20
8561195.00
  0
VERTEX
  8
0ALV_DRE
 10
809080.56
 20
8560053.00
  0
VERTEX
  8
0ALV_DRE
 10
809207.13
 20
8559541.00
  0
VERTEX
  8
0ALV_DRE
 10
809302.13
 20
8558486.00
  0
VERTEX
  8
0ALV_DRE
 10
809239.00
 20
8557655.00
  0
VERTEX
  8
0ALV_DRE
 10
809270.69
 20
8557239.00
  0
VERTEX
  8
0ALV_DRE
 10
808701.50
 20
8556343.00
  0
VERTEX
  8
0ALV_DRE
 10
808606.81
 20
8555032.00
  0
VERTEX
  8
0ALV_DRE
 10
809018.06
 20
8554425.00
  0
VERTEX
  8
0ALV_DRE
 10
809524.13
 20
8553754.00
  0
VERTEX
  8
0ALV_DRE
 10
809682.38
 20
8553082.00
  0
VERTEX
  8
0ALV_DRE
 10
809714.13
 20
8552283.00
  0
VERTEX
  8
0ALV_DRE
 10
809682.56
 20
8551643.00
  0
VERTEX
  8
0ALV_DRE
 10
809935.63
 20
8551004.00
  0
VERTEX
  8
0ALV_DRE
 10
810283.56
 20
8550716.00
  0
VERTEX
  8
0ALV_DRE
 10
810979.38
 20
8550461.00
  0
VERTEX
  8
0ALV_DRE
 10
810916.25
 20
8549726.00
  0
VERTEX
  8
0ALV_DRE
 10
810157.31
 20
8548798.00
  0
VERTEX
  8
0ALV_DRE
 10
809904.38
 20
8548254.00
  0
VERTEX
  8
0ALV_DRE
 10
809809.75
 20
8546207.00
  0
VERTEX
  8
0ALV_DRE
 10
809525.25
 20
8545184.00
  0
VERTEX
  8
0ALV_DRE
 10
809240.75
 20
8544384.00
  0
VERTEX
  8
0ALV_DRE
 10
808924.50
 20
8543936.00
  0
VERTEX
  8
0ALV_DRE
 10
808165.63
 20
8543040.00
  0
VERTEX
  8
0ALV_DRE
 10
808070.81
 20
8542273.00
  0
VERTEX
  8
0ALV_DRE
 10
807058.94
 20
8541217.00
  0
SEQEND
  8
0ALV_DRE
  0
POLYLINE
  8
0ALV_DRE
 66
     1
  0
VERTEX
  8
0ALV_DRE
 10
807058.94
 20
8541217.00
  0
VERTEX
  8
0ALV_DRE
 10
807153.94
 20
8539906.00
  0
VERTEX
  8
0ALV_DRE
 10
807312.19
 20
8539074.00
  0
VERTEX
  8
0ALV_DRE
 10
807407.19
 20
8538531.00
  0
VERTEX
  8
0ALV_DRE
 10
808166.31
 20
8537636.00
  0
VERTEX
  8
0ALV_DRE
 10
808103.13
 20
8537220.00
  0
VERTEX
  8
0ALV_DRE
 10
807723.63
 20
8536900.00
  0
VERTEX
  8
0ALV_DRE
 10
807217.69
 20
8536452.00
  0
VERTEX
  8
0ALV_DRE
 10
806616.88
 20
8535524.00
  0
VERTEX
  8
0ALV_DRE
 10
806585.38
 20
8534565.00
  0
VERTEX
  8
0ALV_DRE
 10
806996.56
 20
8534373.00
  0
VERTEX
  8
0ALV_DRE
 10
807882.13
 20
8534022.00
  0
VERTEX
  8
0ALV_DRE
 10
808072.00
 20
8533255.00
  0
VERTEX
  8
0ALV_DRE
 10
807977.50
 20
8530537.00
  0
VERTEX
  8
0ALV_DRE
 10
807598.00
 20
8530089.00
  0
VERTEX
  8
0ALV_DRE
 10
806744.25
 20
8529065.00
  0
VERTEX
  8
0ALV_DRE
 10
806294.25
 20
8528242.00
  0
SEQEND
  8
0ALV_DRE
  0
POLYLINE
  8
0ALV_DRE
 66
     1
  0
VERTEX
  8
0ALV_DRE
 10
807501.69
 20
8541249.00
  0
VERTEX
  8
0ALV_DRE
 10
807596.81
 20
8539426.00
  0
VERTEX
  8
0ALV_DRE
 10
807944.81
 20
8538467.00
  0
VERTEX
  8
0ALV_DRE
 10
808514.19
 20
8537892.00
  0
VERTEX
  8
0ALV_DRE
 10
808577.50
 20
8537413.00
  0
VERTEX
  8
0ALV_DRE
 10
808292.88
 20
8536997.00
  0
VERTEX
  8
0ALV_DRE
 10
807091.25
 20
8535621.00
  0
VERTEX
  8
0ALV_DRE
 10
806996.50
 20
8534789.00
  0
VERTEX
  8
0ALV_DRE
 10
807755.56
 20
8534534.00
  0
VERTEX
  8
0ALV_DRE
 10
808230.06
 20
8534055.00
  0
VERTEX
  8
0ALV_DRE
 10
808325.00
 20
8533607.00
  0
VERTEX
  8
0ALV_DRE
 10
808420.13
 20
8531465.00
  0
VERTEX
  8
0ALV_DRE
 10
808483.50
 20
8530729.00
  0
VERTEX
  8
0ALV_DRE
 10
806807.56
 20
8528426.00
  0
VERTEX
  8
0ALV_DRE
 10
806750.19
 20
8527987.00
  0
SEQEND
  8
0ALV_DRE
  0
LINE
  8
0ALV_DRE
 10
806750.19
 20
8527987.00
 11
806294.25
 21
8528242.00
  0
TEXT
  8
1ALV_DRE
 10
538250.50
 20
8588736.00
 40
750.00
  1
RIO
 50
95.00
  0
TEXT
  8
1ALV_DRE
 10
537574.13
 20
8592645.00
 40
750.00
  1
ARAGUAIA
 50
100.00
  0
TEXT
  8
1ALV_DRE
 10
532462.50
 20
8654063.00
 40
750.00
  1
RIO ARAGUAIA
 50
80.00
  0
TEXT
  8
1ALV_DRE
 10
777731.81
 20
8649386.00
 40
750.00
  1
RIO
 50
334.01
  0
TEXT
  8
1ALV_DRE
 10
780673.75
 20
8648139.00
 40
750.00
  1
TOCANTINS
 50
346.00
  0
TEXT
  8
1ALV_DRE
 10
812339.88
 20
8550964.00
 40
750.00
  1
TOCANTINS
 50
105.00
  0
TEXT
  8
1ALV_DRE
 10
811555.31
 20
8547261.00
 40
750.00
  1
RIO
 50
65.00
  0
ENDSEC
  0
EOF
